ISO-10303-21;
HEADER;
FILE_DESCRIPTION (( 'STEP AP214' ),
    '1' );
FILE_NAME ('59471.STEP',
    '2023-07-24T15:07:09',
    ( '' ),
    ( '' ),
    'SwSTEP 2.0',
    'SolidWorks 2023',
    '' );
FILE_SCHEMA (( 'AUTOMOTIVE_DESIGN' ));
ENDSEC;

DATA;
#1 = ADVANCED_FACE ( 'NONE', ( #90 ), #212, .T. ) ;
#2 = VERTEX_POINT ( 'NONE', #95 ) ;
#3 = ORIENTED_EDGE ( 'NONE', *, *, #86, .T. ) ;
#4 = MECHANICAL_DESIGN_GEOMETRIC_PRESENTATION_REPRESENTATION (  '', ( #70 ), #254 ) ;
#5 = MECHANICAL_DESIGN_GEOMETRIC_PRESENTATION_REPRESENTATION (  '', ( #335 ), #343 ) ;
#6 = DIRECTION ( 'NONE',  ( 1.231212018341879827E-16, -1.000000000000000000, 0.000000000000000000 ) ) ;
#7 = ORIENTED_EDGE ( 'NONE', *, *, #262, .T. ) ;
#8 = LINE ( 'NONE', #210, #97 ) ;
#9 = ORIENTED_EDGE ( 'NONE', *, *, #140, .F. ) ;
#10 = ADVANCED_FACE ( 'NONE', ( #40 ), #220, .T. ) ;
#11 = FILL_AREA_STYLE ('',( #181 ) ) ;
#12 = DIRECTION ( 'NONE',  ( -0.000000000000000000, -1.000000000000000000, -0.000000000000000000 ) ) ;
#13 = UNCERTAINTY_MEASURE_WITH_UNIT (LENGTH_MEASURE( 1.000000000000000082E-05 ), #338, 'distance_accuracy_value', 'NONE');
#14 = ADVANCED_FACE ( 'NONE', ( #99 ), #242, .T. ) ;
#15 =( NAMED_UNIT ( * ) SI_UNIT ( $, .STERADIAN. ) SOLID_ANGLE_UNIT ( ) );
#16 = UNCERTAINTY_MEASURE_WITH_UNIT (LENGTH_MEASURE( 1.000000000000000082E-05 ), #260, 'distance_accuracy_value', 'NONE');
#17 = SURFACE_STYLE_FILL_AREA ( #151 ) ;
#18 = MECHANICAL_DESIGN_GEOMETRIC_PRESENTATION_REPRESENTATION (  '', ( #171 ), #329 ) ;
#19 = CARTESIAN_POINT ( 'NONE',  ( 0.000000000000000000, 0.000000000000000000, 0.000000000000000000 ) ) ;
#20 = DIRECTION ( 'NONE',  ( -1.000000000000000000, -1.231212018341879827E-16, 0.000000000000000000 ) ) ;
#21 = DIRECTION ( 'NONE',  ( -0.000000000000000000, -1.000000000000000000, -0.000000000000000000 ) ) ;
#22 = AXIS2_PLACEMENT_3D ( 'NONE', #161, #277, #365 ) ;
#23 = LINE ( 'NONE', #102, #162 ) ;
#24 = PRODUCT_CONTEXT ( 'NONE', #188, 'mechanical' ) ;
#25 = EDGE_CURVE ( 'NONE', #83, #346, #298, .T. ) ;
#26 = CARTESIAN_POINT ( 'NONE',  ( 0.000000000000000000, 24.00000000000000000, 0.000000000000000000 ) ) ;
#27 = DIRECTION ( 'NONE',  ( -0.000000000000000000, -1.000000000000000000, -0.000000000000000000 ) ) ;
#28 = PLANE ( 'NONE',  #296 ) ;
#29 = CIRCLE ( 'NONE', #22, 0.5000000000000004441 ) ;
#30 = ORIENTED_EDGE ( 'NONE', *, *, #353, .F. ) ;
#31 = DIRECTION ( 'NONE',  ( 1.000000000000000000, 1.231212018341879827E-16, 0.000000000000000000 ) ) ;
#32 = VERTEX_POINT ( 'NONE', #227 ) ;
#33 = DIRECTION ( 'NONE',  ( 0.000000000000000000, 0.000000000000000000, 1.000000000000000000 ) ) ;
#34 = EDGE_LOOP ( 'NONE', ( #62, #85 ) ) ;
#35 = VECTOR ( 'NONE', #43, 1000.000000000000000 ) ;
#36 = DIRECTION ( 'NONE',  ( -1.000000000000000000, 0.000000000000000000, 0.000000000000000000 ) ) ;
#37 = EDGE_LOOP ( 'NONE', ( #232, #209, #148, #93 ) ) ;
#38 = ORIENTED_EDGE ( 'NONE', *, *, #25, .F. ) ;
#39 = CIRCLE ( 'NONE', #355, 8.000000000000001776 ) ;
#40 = FACE_OUTER_BOUND ( 'NONE', #34, .T. ) ;
#41 = SURFACE_STYLE_USAGE ( .BOTH. , #67 ) ;
#42 = AXIS2_PLACEMENT_3D ( 'NONE', #19, #12, #122 ) ;
#43 = DIRECTION ( 'NONE',  ( -1.231212018341879827E-16, 1.000000000000000000, -0.000000000000000000 ) ) ;
#44 = DIRECTION ( 'NONE',  ( 0.000000000000000000, -0.000000000000000000, 1.000000000000000000 ) ) ;
#45 = CARTESIAN_POINT ( 'NONE',  ( 0.000000000000000000, 0.000000000000000000, -7.500000000000000000 ) ) ;
#46 = DIRECTION ( 'NONE',  ( 0.000000000000000000, 0.000000000000000000, -1.000000000000000000 ) ) ;
#47 = DIRECTION ( 'NONE',  ( 0.000000000000000000, 0.000000000000000000, -1.000000000000000000 ) ) ;
#48 = ADVANCED_FACE ( 'NONE', ( #135 ), #369, .F. ) ;
#49 = DIRECTION ( 'NONE',  ( 0.000000000000000000, 0.000000000000000000, 1.000000000000000000 ) ) ;
#50 = COLOUR_RGB ( '',1.000000000000000000, 0.000000000000000000, 0.000000000000000000 ) ;
#51 = CIRCLE ( 'NONE', #72, 8.000000000000000000 ) ;
#52 = DIRECTION ( 'NONE',  ( -1.231212018341879827E-16, 1.000000000000000000, -0.000000000000000000 ) ) ;
#53 =( NAMED_UNIT ( * ) SI_UNIT ( $, .STERADIAN. ) SOLID_ANGLE_UNIT ( ) );
#54 = CARTESIAN_POINT ( 'NONE',  ( 0.000000000000000000, 0.5000000000000000000, -8.000000000000000000 ) ) ;
#55 = PRODUCT_DEFINITION_CONTEXT ( 'detailed design', #305, 'design' ) ;
#56 = CARTESIAN_POINT ( 'NONE',  ( 0.000000000000000000, 0.5000000000000000000, 0.000000000000000000 ) ) ;
#57 = MECHANICAL_DESIGN_GEOMETRIC_PRESENTATION_REPRESENTATION (  '', ( #160 ), #350 ) ;
#58 = CIRCLE ( 'NONE', #218, 7.500000000000000000 ) ;
#59 = VERTEX_POINT ( 'NONE', #196 ) ;
#60 = SURFACE_SIDE_STYLE ('',( #169 ) ) ;
#61 = EDGE_LOOP ( 'NONE', ( #239, #351 ) ) ;
#62 = ORIENTED_EDGE ( 'NONE', *, *, #25, .T. ) ;
#63 = MECHANICAL_DESIGN_GEOMETRIC_PRESENTATION_REPRESENTATION (  '', ( #267 ), #241 ) ;
#64 =( GEOMETRIC_REPRESENTATION_CONTEXT ( 3 ) GLOBAL_UNCERTAINTY_ASSIGNED_CONTEXT ( ( #13 ) ) GLOBAL_UNIT_ASSIGNED_CONTEXT ( ( #338, #168, #201 ) ) REPRESENTATION_CONTEXT ( 'NONE', 'WORKASPACE' ) );
#65 = EDGE_LOOP ( 'NONE', ( #261, #3, #146, #177 ) ) ;
#66 =( LENGTH_UNIT ( ) NAMED_UNIT ( * ) SI_UNIT ( .MILLI., .METRE. ) );
#67 = SURFACE_SIDE_STYLE ('',( #269 ) ) ;
#68 = DIRECTION ( 'NONE',  ( -0.000000000000000000, -1.000000000000000000, -0.000000000000000000 ) ) ;
#69 = EDGE_CURVE ( 'NONE', #88, #234, #352, .T. ) ;
#70 = STYLED_ITEM ( 'NONE', ( #293 ), #10 ) ;
#71 = CARTESIAN_POINT ( 'NONE',  ( 0.000000000000000000, 0.5000000000000000000, 0.000000000000000000 ) ) ;
#72 = AXIS2_PLACEMENT_3D ( 'NONE', #26, #299, #47 ) ;
#73 = CARTESIAN_POINT ( 'NONE',  ( 9.797174393178825657E-16, 0.000000000000000000, 8.000000000000000000 ) ) ;
#74 = AXIS2_PLACEMENT_3D ( 'NONE', #81, #167, #195 ) ;
#75 = DIRECTION ( 'NONE',  ( 0.000000000000000000, 0.000000000000000000, -1.000000000000000000 ) ) ;
#76 = ADVANCED_FACE ( 'NONE', ( #130 ), #191, .T. ) ;
#77 = CARTESIAN_POINT ( 'NONE',  ( 0.000000000000000000, 0.000000000000000000, 0.000000000000000000 ) ) ;
#78 = SHAPE_DEFINITION_REPRESENTATION ( #237, #154 ) ;
#79 = PRESENTATION_LAYER_ASSIGNMENT (  '', '', ( #160 ) ) ;
#80 = COLOUR_RGB ( '',0.7921568627450980005, 0.8196078431372548767, 0.9333333333333333481 ) ;
#81 = CARTESIAN_POINT ( 'NONE',  ( 6.288372600415925717E-15, 23.99999999999999289, 0.000000000000000000 ) ) ;
#82 =( NAMED_UNIT ( * ) SI_UNIT ( $, .STERADIAN. ) SOLID_ANGLE_UNIT ( ) );
#83 = VERTEX_POINT ( 'NONE', #45 ) ;
#84 = DIRECTION ( 'NONE',  ( -0.000000000000000000, -1.000000000000000000, -0.000000000000000000 ) ) ;
#85 = ORIENTED_EDGE ( 'NONE', *, *, #189, .T. ) ;
#86 = EDGE_CURVE ( 'NONE', #315, #345, #91, .T. ) ;
#87 = FACE_OUTER_BOUND ( 'NONE', #61, .T. ) ;
#88 = VERTEX_POINT ( 'NONE', #104 ) ;
#89 = DIRECTION ( 'NONE',  ( -1.000000000000000000, 0.000000000000000000, 0.000000000000000000 ) ) ;
#90 = FACE_OUTER_BOUND ( 'NONE', #340, .T. ) ;
#91 = CIRCLE ( 'NONE', #197, 8.000000000000000000 ) ;
#92 = SURFACE_SIDE_STYLE ('',( #349 ) ) ;
#93 = ORIENTED_EDGE ( 'NONE', *, *, #245, .F. ) ;
#94 = ADVANCED_FACE ( 'NONE', ( #300 ), #251, .T. ) ;
#95 = CARTESIAN_POINT ( 'NONE',  ( 8.000000000000000000, 89.00000000000000000, 9.797174393178825657E-16 ) ) ;
#96 = AXIS2_PLACEMENT_3D ( 'NONE', #153, #325, #216 ) ;
#97 = VECTOR ( 'NONE', #314, 1000.000000000000000 ) ;
#98 = CARTESIAN_POINT ( 'NONE',  ( 0.000000000000000000, 0.000000000000000000, 0.000000000000000000 ) ) ;
#99 = FACE_OUTER_BOUND ( 'NONE', #37, .T. ) ;
#100 = DIRECTION ( 'NONE',  ( -1.000000000000000000, 0.000000000000000000, 0.000000000000000000 ) ) ;
#101 = COLOUR_RGB ( '',1.000000000000000000, 0.000000000000000000, 0.000000000000000000 ) ;
#102 = CARTESIAN_POINT ( 'NONE',  ( 7.999999999999994671, 89.00000000000000000, 9.797174393178821713E-16 ) ) ;
#103 = CARTESIAN_POINT ( 'NONE',  ( 0.000000000000000000, 24.00000000000000000, 0.000000000000000000 ) ) ;
#104 = CARTESIAN_POINT ( 'NONE',  ( -7.999999999999986677, 23.99999999999999289, 0.000000000000000000 ) ) ;
#105 = CARTESIAN_POINT ( 'NONE',  ( 9.797174393178825657E-16, 0.5000000000000000000, 8.000000000000000000 ) ) ;
#106 =( LENGTH_UNIT ( ) NAMED_UNIT ( * ) SI_UNIT ( .MILLI., .METRE. ) );
#107 = MECHANICAL_DESIGN_GEOMETRIC_PRESENTATION_REPRESENTATION (  '', ( #179 ), #115 ) ;
#108 = UNCERTAINTY_MEASURE_WITH_UNIT (LENGTH_MEASURE( 1.000000000000000082E-05 ), #274, 'distance_accuracy_value', 'NONE');
#109 = DIRECTION ( 'NONE',  ( -1.231212018341879827E-16, 1.000000000000000000, 0.000000000000000000 ) ) ;
#110 = EDGE_CURVE ( 'NONE', #234, #88, #256, .T. ) ;
#111 = DIRECTION ( 'NONE',  ( -0.000000000000000000, -1.000000000000000000, -0.000000000000000000 ) ) ;
#112 = ORIENTED_EDGE ( 'NONE', *, *, #286, .T. ) ;
#113 = SURFACE_STYLE_FILL_AREA ( #200 ) ;
#114 = ORIENTED_EDGE ( 'NONE', *, *, #286, .F. ) ;
#115 =( GEOMETRIC_REPRESENTATION_CONTEXT ( 3 ) GLOBAL_UNCERTAINTY_ASSIGNED_CONTEXT ( ( #322 ) ) GLOBAL_UNIT_ASSIGNED_CONTEXT ( ( #238, #182, #229 ) ) REPRESENTATION_CONTEXT ( 'NONE', 'WORKASPACE' ) );
#116 =( NAMED_UNIT ( * ) PLANE_ANGLE_UNIT ( ) SI_UNIT ( $, .RADIAN. ) );
#117 = EDGE_LOOP ( 'NONE', ( #175, #310, #313, #9 ) ) ;
#118 = CARTESIAN_POINT ( 'NONE',  ( -1.714505518806293652E-15, 89.00000000000000000, 0.000000000000000000 ) ) ;
#119 = EDGE_LOOP ( 'NONE', ( #289, #236, #264, #114 ) ) ;
#120 = PRODUCT_DEFINITION ( 'UNKNOWN', '', #258, #55 ) ;
#121 = ORIENTED_EDGE ( 'NONE', *, *, #69, .F. ) ;
#122 = DIRECTION ( 'NONE',  ( 0.000000000000000000, 0.000000000000000000, -1.000000000000000000 ) ) ;
#123 = COLOUR_RGB ( '',1.000000000000000000, 0.000000000000000000, 0.000000000000000000 ) ;
#124 = AXIS2_PLACEMENT_3D ( 'NONE', #158, #273, #192 ) ;
#125 =( NAMED_UNIT ( * ) SI_UNIT ( $, .STERADIAN. ) SOLID_ANGLE_UNIT ( ) );
#126 = EDGE_CURVE ( 'NONE', #234, #2, #23, .T. ) ;
#127 = DIRECTION ( 'NONE',  ( -0.000000000000000000, -1.000000000000000000, -0.000000000000000000 ) ) ;
#128 = AXIS2_PLACEMENT_3D ( 'NONE', #282, #235, #33 ) ;
#129 = APPLICATION_PROTOCOL_DEFINITION ( 'draft international standard', 'automotive_design', 1998, #188 ) ;
#130 = FACE_OUTER_BOUND ( 'NONE', #143, .T. ) ;
#131 = CARTESIAN_POINT ( 'NONE',  ( -1.714505518806293849E-15, 89.00000000000000000, 0.000000000000000000 ) ) ;
#132 = DIRECTION ( 'NONE',  ( -1.231212018341879827E-16, 1.000000000000000000, -0.000000000000000000 ) ) ;
#133 = PRESENTATION_STYLE_ASSIGNMENT (( #198 ) ) ;
#134 = EDGE_CURVE ( 'NONE', #59, #173, #51, .T. ) ;
#135 = FACE_OUTER_BOUND ( 'NONE', #287, .T. ) ;
#136 = CYLINDRICAL_SURFACE ( 'NONE', #336, 7.999999999999996447 ) ;
#137 = FACE_OUTER_BOUND ( 'NONE', #65, .T. ) ;
#138 = PRESENTATION_STYLE_ASSIGNMENT (( #170 ) ) ;
#139 = DIRECTION ( 'NONE',  ( 0.000000000000000000, 0.000000000000000000, -1.000000000000000000 ) ) ;
#140 = EDGE_CURVE ( 'NONE', #88, #32, #332, .T. ) ;
#141 = EDGE_LOOP ( 'NONE', ( #7, #112 ) ) ;
#142 =( NAMED_UNIT ( * ) PLANE_ANGLE_UNIT ( ) SI_UNIT ( $, .RADIAN. ) );
#143 = EDGE_LOOP ( 'NONE', ( #265, #259, #38, #214 ) ) ;
#144 = STYLED_ITEM ( 'NONE', ( #354 ), #14 ) ;
#145 = AXIS2_PLACEMENT_3D ( 'NONE', #363, #52, #330 ) ;
#146 = ORIENTED_EDGE ( 'NONE', *, *, #270, .T. ) ;
#147 = SURFACE_STYLE_USAGE ( .BOTH. , #60 ) ;
#148 = ORIENTED_EDGE ( 'NONE', *, *, #203, .F. ) ;
#149 = SURFACE_SIDE_STYLE ('',( #17 ) ) ;
#150 = AXIS2_PLACEMENT_3D ( 'NONE', #56, #263, #204 ) ;
#151 = FILL_AREA_STYLE ('',( #244 ) ) ;
#152 = EDGE_CURVE ( 'NONE', #315, #346, #29, .T. ) ;
#153 = CARTESIAN_POINT ( 'NONE',  ( 0.000000000000000000, 0.000000000000000000, 0.000000000000000000 ) ) ;
#154 = ADVANCED_BREP_SHAPE_REPRESENTATION ( '59471', ( #297, #178, #206 ), #199 ) ;
#155 =( GEOMETRIC_REPRESENTATION_CONTEXT ( 3 ) GLOBAL_UNCERTAINTY_ASSIGNED_CONTEXT ( ( #301 ) ) GLOBAL_UNIT_ASSIGNED_CONTEXT ( ( #66, #268, #15 ) ) REPRESENTATION_CONTEXT ( 'NONE', 'WORKASPACE' ) );
#156 = AXIS2_PLACEMENT_3D ( 'NONE', #331, #127, #75 ) ;
#157 = FACE_OUTER_BOUND ( 'NONE', #117, .T. ) ;
#158 = CARTESIAN_POINT ( 'NONE',  ( -1.714505518806293849E-15, 89.00000000000000000, 0.000000000000000000 ) ) ;
#159 = CARTESIAN_POINT ( 'NONE',  ( 0.000000000000000000, 0.000000000000000000, 0.000000000000000000 ) ) ;
#160 = STYLED_ITEM ( 'NONE', ( #138 ), #1 ) ;
#161 = CARTESIAN_POINT ( 'NONE',  ( 9.184850993605147944E-16, 0.5000000000000000000, 7.500000000000000000 ) ) ;
#162 = VECTOR ( 'NONE', #132, 1000.000000000000000 ) ;
#163 = DIRECTION ( 'NONE',  ( 1.000000000000000000, 0.000000000000000000, 0.000000000000000000 ) ) ;
#164 = FILL_AREA_STYLE_COLOUR ( '', #80 ) ;
#165 =( NAMED_UNIT ( * ) SI_UNIT ( $, .STERADIAN. ) SOLID_ANGLE_UNIT ( ) );
#166 = UNCERTAINTY_MEASURE_WITH_UNIT (LENGTH_MEASURE( 1.000000000000000082E-05 ), #106, 'distance_accuracy_value', 'NONE');
#167 = DIRECTION ( 'NONE',  ( -1.231212018341879827E-16, 1.000000000000000000, -0.000000000000000000 ) ) ;
#168 =( NAMED_UNIT ( * ) PLANE_ANGLE_UNIT ( ) SI_UNIT ( $, .RADIAN. ) );
#169 = SURFACE_STYLE_FILL_AREA ( #316 ) ;
#170 = SURFACE_STYLE_USAGE ( .BOTH. , #320 ) ;
#171 = STYLED_ITEM ( 'NONE', ( #326 ), #76 ) ;
#172 = SURFACE_STYLE_USAGE ( .BOTH. , #176 ) ;
#173 = VERTEX_POINT ( 'NONE', #367 ) ;
#174 = PRESENTATION_STYLE_ASSIGNMENT (( #147 ) ) ;
#175 = ORIENTED_EDGE ( 'NONE', *, *, #69, .T. ) ;
#176 = SURFACE_SIDE_STYLE ('',( #113 ) ) ;
#177 = ORIENTED_EDGE ( 'NONE', *, *, #189, .F. ) ;
#178 = MANIFOLD_SOLID_BREP ( 'Revolve - Tool Body (Straight Shanked)', #294 ) ;
#179 = STYLED_ITEM ( 'NONE', ( #266 ), #307 ) ;
#180 = DIRECTION ( 'NONE',  ( 0.000000000000000000, 0.000000000000000000, -1.000000000000000000 ) ) ;
#181 = FILL_AREA_STYLE_COLOUR ( '', #123 ) ;
#182 =( NAMED_UNIT ( * ) PLANE_ANGLE_UNIT ( ) SI_UNIT ( $, .RADIAN. ) );
#183 = FILL_AREA_STYLE ('',( #323 ) ) ;
#184 = CIRCLE ( 'NONE', #128, 0.5000000000000004441 ) ;
#185 = COLOUR_RGB ( '',1.000000000000000000, 0.000000000000000000, 0.000000000000000000 ) ;
#186 =( LENGTH_UNIT ( ) NAMED_UNIT ( * ) SI_UNIT ( .MILLI., .METRE. ) );
#187 =( NAMED_UNIT ( * ) PLANE_ANGLE_UNIT ( ) SI_UNIT ( $, .RADIAN. ) );
#188 = APPLICATION_CONTEXT ( 'automotive_design' ) ;
#189 = EDGE_CURVE ( 'NONE', #346, #83, #58, .T. ) ;
#190 = AXIS2_PLACEMENT_3D ( 'NONE', #98, #68, #337 ) ;
#191 = TOROIDAL_SURFACE ( 'NONE', #156, 7.500000000000000000, 0.5000000000000002220 ) ;
#192 = DIRECTION ( 'NONE',  ( -1.000000000000000000, 0.000000000000000000, 0.000000000000000000 ) ) ;
#193 = MECHANICAL_DESIGN_GEOMETRIC_PRESENTATION_REPRESENTATION (  '', ( #356 ), #64 ) ;
#194 = SURFACE_STYLE_FILL_AREA ( #306 ) ;
#195 = DIRECTION ( 'NONE',  ( -1.000000000000000000, 0.000000000000000000, 0.000000000000000000 ) ) ;
#196 = CARTESIAN_POINT ( 'NONE',  ( 0.000000000000000000, 24.00000000000000000, -8.000000000000000000 ) ) ;
#197 = AXIS2_PLACEMENT_3D ( 'NONE', #71, #225, #255 ) ;
#198 = SURFACE_STYLE_USAGE ( .BOTH. , #364 ) ;
#199 =( GEOMETRIC_REPRESENTATION_CONTEXT ( 3 ) GLOBAL_UNCERTAINTY_ASSIGNED_CONTEXT ( ( #108 ) ) GLOBAL_UNIT_ASSIGNED_CONTEXT ( ( #274, #304, #165 ) ) REPRESENTATION_CONTEXT ( 'NONE', 'WORKASPACE' ) );
#200 = FILL_AREA_STYLE ('',( #164 ) ) ;
#201 =( NAMED_UNIT ( * ) SI_UNIT ( $, .STERADIAN. ) SOLID_ANGLE_UNIT ( ) );
#202 =( LENGTH_UNIT ( ) NAMED_UNIT ( * ) SI_UNIT ( .MILLI., .METRE. ) );
#203 = EDGE_CURVE ( 'NONE', #345, #315, #308, .T. ) ;
#204 = DIRECTION ( 'NONE',  ( 0.000000000000000000, 0.000000000000000000, -1.000000000000000000 ) ) ;
#205 = ORIENTED_EDGE ( 'NONE', *, *, #86, .F. ) ;
#206 = AXIS2_PLACEMENT_3D ( 'NONE', #159, #49, #163 ) ;
#207 = FILL_AREA_STYLE ('',( #370 ) ) ;
#208 = PRESENTATION_STYLE_ASSIGNMENT (( #172 ) ) ;
#209 = ORIENTED_EDGE ( 'NONE', *, *, #353, .T. ) ;
#210 = CARTESIAN_POINT ( 'NONE',  ( 0.000000000000000000, 0.000000000000000000, -8.000000000000000000 ) ) ;
#211 = ADVANCED_FACE ( 'NONE', ( #230 ), #347, .F. ) ;
#212 = CYLINDRICAL_SURFACE ( 'NONE', #342, 8.000000000000000000 ) ;
#213 = SURFACE_STYLE_USAGE ( .BOTH. , #92 ) ;
#214 = ORIENTED_EDGE ( 'NONE', *, *, #270, .F. ) ;
#215 = SURFACE_STYLE_USAGE ( .BOTH. , #149 ) ;
#216 = DIRECTION ( 'NONE',  ( 0.000000000000000000, 0.000000000000000000, -1.000000000000000000 ) ) ;
#217 = UNCERTAINTY_MEASURE_WITH_UNIT (LENGTH_MEASURE( 1.000000000000000082E-05 ), #186, 'distance_accuracy_value', 'NONE');
#218 = AXIS2_PLACEMENT_3D ( 'NONE', #77, #111, #139 ) ;
#219 =( NAMED_UNIT ( * ) PLANE_ANGLE_UNIT ( ) SI_UNIT ( $, .RADIAN. ) );
#220 = PLANE ( 'NONE',  #96 ) ;
#221 =( NAMED_UNIT ( * ) SI_UNIT ( $, .STERADIAN. ) SOLID_ANGLE_UNIT ( ) );
#222 = LINE ( 'NONE', #73, #319 ) ;
#223 = FILL_AREA_STYLE_COLOUR ( '', #318 ) ;
#224 = DIRECTION ( 'NONE',  ( 0.000000000000000000, 1.000000000000000000, 0.000000000000000000 ) ) ;
#225 = DIRECTION ( 'NONE',  ( -0.000000000000000000, -1.000000000000000000, -0.000000000000000000 ) ) ;
#226 = MECHANICAL_DESIGN_GEOMETRIC_PRESENTATION_REPRESENTATION (  '', ( #144 ), #155 ) ;
#227 = CARTESIAN_POINT ( 'NONE',  ( -8.000000000000003553, 89.00000000000000000, 0.000000000000000000 ) ) ;
#228 = CIRCLE ( 'NONE', #302, 8.000000000000001776 ) ;
#229 =( NAMED_UNIT ( * ) SI_UNIT ( $, .STERADIAN. ) SOLID_ANGLE_UNIT ( ) );
#230 = FACE_OUTER_BOUND ( 'NONE', #141, .T. ) ;
#231 =( NAMED_UNIT ( * ) SI_UNIT ( $, .STERADIAN. ) SOLID_ANGLE_UNIT ( ) );
#232 = ORIENTED_EDGE ( 'NONE', *, *, #134, .T. ) ;
#233 = PRESENTATION_LAYER_ASSIGNMENT (  '', '', ( #356 ) ) ;
#234 = VERTEX_POINT ( 'NONE', #339 ) ;
#235 = DIRECTION ( 'NONE',  ( -1.000000000000000000, 0.000000000000000000, 0.000000000000000000 ) ) ;
#236 = ORIENTED_EDGE ( 'NONE', *, *, #110, .T. ) ;
#237 = PRODUCT_DEFINITION_SHAPE ( 'NONE', 'NONE',  #120 ) ;
#238 =( LENGTH_UNIT ( ) NAMED_UNIT ( * ) SI_UNIT ( .MILLI., .METRE. ) );
#239 = ORIENTED_EDGE ( 'NONE', *, *, #134, .F. ) ;
#240 = PRESENTATION_LAYER_ASSIGNMENT (  '', '', ( #171 ) ) ;
#241 =( GEOMETRIC_REPRESENTATION_CONTEXT ( 3 ) GLOBAL_UNCERTAINTY_ASSIGNED_CONTEXT ( ( #366 ) ) GLOBAL_UNIT_ASSIGNED_CONTEXT ( ( #202, #142, #231 ) ) REPRESENTATION_CONTEXT ( 'NONE', 'WORKASPACE' ) );
#242 = CYLINDRICAL_SURFACE ( 'NONE', #42, 8.000000000000000000 ) ;
#243 = AXIS2_PLACEMENT_3D ( 'NONE', #288, #6, #31 ) ;
#244 = FILL_AREA_STYLE_COLOUR ( '', #101 ) ;
#245 = EDGE_CURVE ( 'NONE', #59, #345, #8, .T. ) ;
#246 = CARTESIAN_POINT ( 'NONE',  ( 0.000000000000000000, 0.000000000000000000, 0.000000000000000000 ) ) ;
#247 = CARTESIAN_POINT ( 'NONE',  ( 6.288372600415925717E-15, 24.00000000000000000, 0.000000000000000000 ) ) ;
#248 = PRODUCT ( '59471', '59471', '', ( #24 ) ) ;
#249 = COLOUR_RGB ( '',0.7921568627450980005, 0.8196078431372548767, 0.9333333333333333481 ) ;
#250 = EDGE_CURVE ( 'NONE', #173, #59, #362, .T. ) ;
#251 = CYLINDRICAL_SURFACE ( 'NONE', #124, 7.999999999999996447 ) ;
#252 = DIRECTION ( 'NONE',  ( -1.231212018341879827E-16, 1.000000000000000000, -0.000000000000000000 ) ) ;
#253 = CARTESIAN_POINT ( 'NONE',  ( -7.999999999999998224, 89.00000000000000000, 0.000000000000000000 ) ) ;
#254 =( GEOMETRIC_REPRESENTATION_CONTEXT ( 3 ) GLOBAL_UNCERTAINTY_ASSIGNED_CONTEXT ( ( #358 ) ) GLOBAL_UNIT_ASSIGNED_CONTEXT ( ( #357, #187, #125 ) ) REPRESENTATION_CONTEXT ( 'NONE', 'WORKASPACE' ) );
#255 = DIRECTION ( 'NONE',  ( 0.000000000000000000, 0.000000000000000000, -1.000000000000000000 ) ) ;
#256 = CIRCLE ( 'NONE', #145, 7.999999999999992895 ) ;
#257 = CARTESIAN_POINT ( 'NONE',  ( 9.491012693391985815E-16, 0.000000000000000000, 7.500000000000000000 ) ) ;
#258 = PRODUCT_DEFINITION_FORMATION_WITH_SPECIFIED_SOURCE ( 'ANY', '', #248, .NOT_KNOWN. ) ;
#259 = ORIENTED_EDGE ( 'NONE', *, *, #152, .T. ) ;
#260 =( LENGTH_UNIT ( ) NAMED_UNIT ( * ) SI_UNIT ( .MILLI., .METRE. ) );
#261 = ORIENTED_EDGE ( 'NONE', *, *, #152, .F. ) ;
#262 = EDGE_CURVE ( 'NONE', #32, #2, #39, .T. ) ;
#263 = DIRECTION ( 'NONE',  ( -0.000000000000000000, -1.000000000000000000, -0.000000000000000000 ) ) ;
#264 = ORIENTED_EDGE ( 'NONE', *, *, #140, .T. ) ;
#265 = ORIENTED_EDGE ( 'NONE', *, *, #203, .T. ) ;
#266 = PRESENTATION_STYLE_ASSIGNMENT (( #213 ) ) ;
#267 = STYLED_ITEM ( 'NONE', ( #208 ), #178 ) ;
#268 =( NAMED_UNIT ( * ) PLANE_ANGLE_UNIT ( ) SI_UNIT ( $, .RADIAN. ) );
#269 = SURFACE_STYLE_FILL_AREA ( #183 ) ;
#270 = EDGE_CURVE ( 'NONE', #345, #83, #184, .T. ) ;
#271 = PRESENTATION_LAYER_ASSIGNMENT (  '', '', ( #179 ) ) ;
#272 = DIRECTION ( 'NONE',  ( -0.000000000000000000, -1.000000000000000000, -0.000000000000000000 ) ) ;
#273 = DIRECTION ( 'NONE',  ( -1.231212018341879827E-16, 1.000000000000000000, -0.000000000000000000 ) ) ;
#274 =( LENGTH_UNIT ( ) NAMED_UNIT ( * ) SI_UNIT ( .MILLI., .METRE. ) );
#275 = SURFACE_STYLE_FILL_AREA ( #278 ) ;
#276 = PRESENTATION_LAYER_ASSIGNMENT (  '', '', ( #70 ) ) ;
#277 = DIRECTION ( 'NONE',  ( 1.000000000000000000, 0.000000000000000000, -1.224646799147353207E-16 ) ) ;
#278 = FILL_AREA_STYLE ('',( #223 ) ) ;
#279 =( NAMED_UNIT ( * ) PLANE_ANGLE_UNIT ( ) SI_UNIT ( $, .RADIAN. ) );
#280 = AXIS2_PLACEMENT_3D ( 'NONE', #247, #109, #20 ) ;
#281 = PRESENTATION_LAYER_ASSIGNMENT (  '', '', ( #267 ) ) ;
#282 = CARTESIAN_POINT ( 'NONE',  ( 0.000000000000000000, 0.5000000000000000000, -7.500000000000000000 ) ) ;
#283 = AXIS2_PLACEMENT_3D ( 'NONE', #327, #27, #46 ) ;
#284 = SURFACE_STYLE_FILL_AREA ( #11 ) ;
#285 = DIRECTION ( 'NONE',  ( -1.231212018341879827E-16, 1.000000000000000000, -0.000000000000000000 ) ) ;
#286 = EDGE_CURVE ( 'NONE', #2, #32, #228, .T. ) ;
#287 = EDGE_LOOP ( 'NONE', ( #121, #348 ) ) ;
#288 = CARTESIAN_POINT ( 'NONE',  ( 8.000000000000000000, 89.00000000000000000, 0.000000000000000000 ) ) ;
#289 = ORIENTED_EDGE ( 'NONE', *, *, #126, .F. ) ;
#290 = PRESENTATION_LAYER_ASSIGNMENT (  '', '', ( #335 ) ) ;
#291 = CARTESIAN_POINT ( 'NONE',  ( -1.714505518806293652E-15, 89.00000000000000000, 0.000000000000000000 ) ) ;
#292 = ORIENTED_EDGE ( 'NONE', *, *, #245, .T. ) ;
#293 = PRESENTATION_STYLE_ASSIGNMENT (( #215 ) ) ;
#294 = CLOSED_SHELL ( 'NONE', ( #341, #48, #94, #211 ) ) ;
#295 = COLOUR_RGB ( '',1.000000000000000000, 0.000000000000000000, 0.000000000000000000 ) ;
#296 = AXIS2_PLACEMENT_3D ( 'NONE', #103, #224, #44 ) ;
#297 = MANIFOLD_SOLID_BREP ( 'Revolve - Cutting Edge', #328 ) ;
#298 = CIRCLE ( 'NONE', #190, 7.500000000000000000 ) ;
#299 = DIRECTION ( 'NONE',  ( -0.000000000000000000, -1.000000000000000000, -0.000000000000000000 ) ) ;
#300 = FACE_OUTER_BOUND ( 'NONE', #119, .T. ) ;
#301 = UNCERTAINTY_MEASURE_WITH_UNIT (LENGTH_MEASURE( 1.000000000000000082E-05 ), #66, 'distance_accuracy_value', 'NONE');
#302 = AXIS2_PLACEMENT_3D ( 'NONE', #291, #285, #89 ) ;
#303 = SURFACE_SIDE_STYLE ('',( #275 ) ) ;
#304 =( NAMED_UNIT ( * ) PLANE_ANGLE_UNIT ( ) SI_UNIT ( $, .RADIAN. ) );
#305 = APPLICATION_CONTEXT ( 'automotive_design' ) ;
#306 = FILL_AREA_STYLE ('',( #361 ) ) ;
#307 = ADVANCED_FACE ( 'NONE', ( #137 ), #324, .T. ) ;
#308 = CIRCLE ( 'NONE', #150, 8.000000000000000000 ) ;
#309 = CARTESIAN_POINT ( 'NONE',  ( 0.000000000000000000, 24.00000000000000000, 0.000000000000000000 ) ) ;
#310 = ORIENTED_EDGE ( 'NONE', *, *, #126, .T. ) ;
#311 = ADVANCED_FACE ( 'NONE', ( #87 ), #28, .T. ) ;
#312 = FILL_AREA_STYLE_COLOUR ( '', #249 ) ;
#313 = ORIENTED_EDGE ( 'NONE', *, *, #262, .F. ) ;
#314 = DIRECTION ( 'NONE',  ( -0.000000000000000000, -1.000000000000000000, -0.000000000000000000 ) ) ;
#315 = VERTEX_POINT ( 'NONE', #105 ) ;
#316 = FILL_AREA_STYLE ('',( #312 ) ) ;
#317 = ORIENTED_EDGE ( 'NONE', *, *, #250, .T. ) ;
#318 = COLOUR_RGB ( '',1.000000000000000000, 0.000000000000000000, 0.000000000000000000 ) ;
#319 = VECTOR ( 'NONE', #21, 1000.000000000000000 ) ;
#320 = SURFACE_SIDE_STYLE ('',( #284 ) ) ;
#321 = DIRECTION ( 'NONE',  ( 0.000000000000000000, 0.000000000000000000, -1.000000000000000000 ) ) ;
#322 = UNCERTAINTY_MEASURE_WITH_UNIT (LENGTH_MEASURE( 1.000000000000000082E-05 ), #238, 'distance_accuracy_value', 'NONE');
#323 = FILL_AREA_STYLE_COLOUR ( '', #50 ) ;
#324 = TOROIDAL_SURFACE ( 'NONE', #283, 7.500000000000000000, 0.5000000000000002220 ) ;
#325 = DIRECTION ( 'NONE',  ( 0.000000000000000000, -1.000000000000000000, -0.000000000000000000 ) ) ;
#326 = PRESENTATION_STYLE_ASSIGNMENT (( #360 ) ) ;
#327 = CARTESIAN_POINT ( 'NONE',  ( 0.000000000000000000, 0.5000000000000000000, 0.000000000000000000 ) ) ;
#328 = CLOSED_SHELL ( 'NONE', ( #14, #76, #10, #307, #1, #311 ) ) ;
#329 =( GEOMETRIC_REPRESENTATION_CONTEXT ( 3 ) GLOBAL_UNCERTAINTY_ASSIGNED_CONTEXT ( ( #166 ) ) GLOBAL_UNIT_ASSIGNED_CONTEXT ( ( #106, #279, #53 ) ) REPRESENTATION_CONTEXT ( 'NONE', 'WORKASPACE' ) );
#330 = DIRECTION ( 'NONE',  ( -1.000000000000000000, 0.000000000000000000, 0.000000000000000000 ) ) ;
#331 = CARTESIAN_POINT ( 'NONE',  ( 0.000000000000000000, 0.5000000000000000000, 0.000000000000000000 ) ) ;
#332 = LINE ( 'NONE', #253, #35 ) ;
#333 = APPLICATION_PROTOCOL_DEFINITION ( 'draft international standard', 'automotive_design', 1998, #305 ) ;
#334 = PRESENTATION_LAYER_ASSIGNMENT (  '', '', ( #144 ) ) ;
#335 = STYLED_ITEM ( 'NONE', ( #174 ), #297 ) ;
#336 = AXIS2_PLACEMENT_3D ( 'NONE', #131, #252, #100 ) ;
#337 = DIRECTION ( 'NONE',  ( 0.000000000000000000, 0.000000000000000000, -1.000000000000000000 ) ) ;
#338 =( LENGTH_UNIT ( ) NAMED_UNIT ( * ) SI_UNIT ( .MILLI., .METRE. ) );
#339 = CARTESIAN_POINT ( 'NONE',  ( 8.000000000000000000, 23.99999999999999289, 9.797174393178825657E-16 ) ) ;
#340 = EDGE_LOOP ( 'NONE', ( #30, #317, #292, #205 ) ) ;
#341 = ADVANCED_FACE ( 'NONE', ( #157 ), #136, .T. ) ;
#342 = AXIS2_PLACEMENT_3D ( 'NONE', #246, #272, #321 ) ;
#343 =( GEOMETRIC_REPRESENTATION_CONTEXT ( 3 ) GLOBAL_UNCERTAINTY_ASSIGNED_CONTEXT ( ( #16 ) ) GLOBAL_UNIT_ASSIGNED_CONTEXT ( ( #260, #116, #82 ) ) REPRESENTATION_CONTEXT ( 'NONE', 'WORKASPACE' ) );
#344 = DIRECTION ( 'NONE',  ( -1.231212018341879827E-16, 1.000000000000000000, -0.000000000000000000 ) ) ;
#345 = VERTEX_POINT ( 'NONE', #54 ) ;
#346 = VERTEX_POINT ( 'NONE', #257 ) ;
#347 = PLANE ( 'NONE',  #243 ) ;
#348 = ORIENTED_EDGE ( 'NONE', *, *, #110, .F. ) ;
#349 = SURFACE_STYLE_FILL_AREA ( #207 ) ;
#350 =( GEOMETRIC_REPRESENTATION_CONTEXT ( 3 ) GLOBAL_UNCERTAINTY_ASSIGNED_CONTEXT ( ( #217 ) ) GLOBAL_UNIT_ASSIGNED_CONTEXT ( ( #186, #219, #221 ) ) REPRESENTATION_CONTEXT ( 'NONE', 'WORKASPACE' ) );
#351 = ORIENTED_EDGE ( 'NONE', *, *, #250, .F. ) ;
#352 = CIRCLE ( 'NONE', #74, 7.999999999999992895 ) ;
#353 = EDGE_CURVE ( 'NONE', #173, #315, #222, .T. ) ;
#354 = PRESENTATION_STYLE_ASSIGNMENT (( #41 ) ) ;
#355 = AXIS2_PLACEMENT_3D ( 'NONE', #118, #344, #36 ) ;
#356 = STYLED_ITEM ( 'NONE', ( #133 ), #311 ) ;
#357 =( LENGTH_UNIT ( ) NAMED_UNIT ( * ) SI_UNIT ( .MILLI., .METRE. ) );
#358 = UNCERTAINTY_MEASURE_WITH_UNIT (LENGTH_MEASURE( 1.000000000000000082E-05 ), #357, 'distance_accuracy_value', 'NONE');
#359 = PRODUCT_RELATED_PRODUCT_CATEGORY ( 'part', '', ( #248 ) ) ;
#360 = SURFACE_STYLE_USAGE ( .BOTH. , #303 ) ;
#361 = FILL_AREA_STYLE_COLOUR ( '', #185 ) ;
#362 = CIRCLE ( 'NONE', #368, 8.000000000000000000 ) ;
#363 = CARTESIAN_POINT ( 'NONE',  ( 6.288372600415925717E-15, 23.99999999999999289, 0.000000000000000000 ) ) ;
#364 = SURFACE_SIDE_STYLE ('',( #194 ) ) ;
#365 = DIRECTION ( 'NONE',  ( -1.224646799147353454E-16, 0.000000000000000000, -1.000000000000000000 ) ) ;
#366 = UNCERTAINTY_MEASURE_WITH_UNIT (LENGTH_MEASURE( 1.000000000000000082E-05 ), #202, 'distance_accuracy_value', 'NONE');
#367 = CARTESIAN_POINT ( 'NONE',  ( 9.797174393178825657E-16, 24.00000000000000000, 8.000000000000000000 ) ) ;
#368 = AXIS2_PLACEMENT_3D ( 'NONE', #309, #84, #180 ) ;
#369 = PLANE ( 'NONE',  #280 ) ;
#370 = FILL_AREA_STYLE_COLOUR ( '', #295 ) ;
ENDSEC;
END-ISO-10303-21;
