ISO-10303-21;
HEADER;
FILE_DESCRIPTION (( 'STEP AP214' ),
    '1' );
FILE_NAME ('00255.STEP',
    '2023-06-22T14:04:57',
    ( '' ),
    ( '' ),
    'SwSTEP 2.0',
    'SolidWorks 2023',
    '' );
FILE_SCHEMA (( 'AUTOMOTIVE_DESIGN' ));
ENDSEC;

DATA;
#1 = LENGTH_MEASURE_WITH_UNIT ( LENGTH_MEASURE( 0.02539999999999999897 ), #110 );
#2 = DIRECTION ( 'NONE',  ( -0.000000000000000000, -1.000000000000000000, -0.000000000000000000 ) ) ;
#3 = DIRECTION ( 'NONE',  ( -3.628583108584750472E-17, 1.000000000000000000, -0.000000000000000000 ) ) ;
#4 = UNCERTAINTY_MEASURE_WITH_UNIT (LENGTH_MEASURE( 1.000000000000000082E-05 ), #278, 'distance_accuracy_value', 'NONE');
#5 = CARTESIAN_POINT ( 'NONE',  ( 0.000000000000000000, 0.8125000000000000000, 0.000000000000000000 ) ) ;
#6 = DIRECTION ( 'NONE',  ( 0.000000000000000000, -0.000000000000000000, 1.000000000000000000 ) ) ;
#7 = DIRECTION ( 'NONE',  ( -3.628583108584750472E-17, 1.000000000000000000, -0.000000000000000000 ) ) ;
#8 = ADVANCED_FACE ( 'NONE', ( #139 ), #113, .F. ) ;
#9 = SURFACE_STYLE_USAGE ( .BOTH. , #297 ) ;
#10 = SURFACE_STYLE_FILL_AREA ( #130 ) ;
#11 = CARTESIAN_POINT ( 'NONE',  ( 0.000000000000000000, 0.000000000000000000, -0.1562500000000000000 ) ) ;
#12 = ORIENTED_EDGE ( 'NONE', *, *, #114, .T. ) ;
#13 = FACE_OUTER_BOUND ( 'NONE', #282, .T. ) ;
#14 = VECTOR ( 'NONE', #309, 39.37007874015748143 ) ;
#15 = COLOUR_RGB ( '',0.7921568627450980005, 0.8196078431372548767, 0.9333333333333333481 ) ;
#16 = EDGE_LOOP ( 'NONE', ( #17, #37 ) ) ;
#17 = ORIENTED_EDGE ( 'NONE', *, *, #79, .F. ) ;
#18 = ADVANCED_FACE ( 'NONE', ( #13 ), #308, .F. ) ;
#19 = SURFACE_STYLE_USAGE ( .BOTH. , #256 ) ;
#20 =( NAMED_UNIT ( * ) SI_UNIT ( $, .STERADIAN. ) SOLID_ANGLE_UNIT ( ) );
#21 = CARTESIAN_POINT ( 'NONE',  ( 0.000000000000000000, 0.8125000000000000000, 0.000000000000000000 ) ) ;
#22 =( NAMED_UNIT ( * ) PLANE_ANGLE_UNIT ( ) SI_UNIT ( $, .RADIAN. ) );
#23 = ADVANCED_FACE ( 'NONE', ( #91 ), #183, .T. ) ;
#24 = DIRECTION ( 'NONE',  ( -0.000000000000000000, -1.000000000000000000, -0.000000000000000000 ) ) ;
#25 = STYLED_ITEM ( 'NONE', ( #33 ), #193 ) ;
#26 = STYLED_ITEM ( 'NONE', ( #299 ), #226 ) ;
#27 = CYLINDRICAL_SURFACE ( 'NONE', #247, 0.1562500000000000278 ) ;
#28 = EDGE_CURVE ( 'NONE', #144, #89, #196, .T. ) ;
#29 = APPLICATION_PROTOCOL_DEFINITION ( 'draft international standard', 'automotive_design', 1998, #61 ) ;
#30 = LINE ( 'NONE', #11, #234 ) ;
#31 = SURFACE_STYLE_FILL_AREA ( #277 ) ;
#32 = PRESENTATION_LAYER_ASSIGNMENT (  '', '', ( #26 ) ) ;
#33 = PRESENTATION_STYLE_ASSIGNMENT (( #9 ) ) ;
#34 = AXIS2_PLACEMENT_3D ( 'NONE', #165, #75, #217 ) ;
#35 =( NAMED_UNIT ( * ) SI_UNIT ( $, .STERADIAN. ) SOLID_ANGLE_UNIT ( ) );
#36 = ORIENTED_EDGE ( 'NONE', *, *, #103, .T. ) ;
#37 = ORIENTED_EDGE ( 'NONE', *, *, #176, .F. ) ;
#38 = PRESENTATION_LAYER_ASSIGNMENT (  '', '', ( #269 ) ) ;
#39 = ORIENTED_EDGE ( 'NONE', *, *, #103, .F. ) ;
#40 = CIRCLE ( 'NONE', #295, 0.1562500000000000833 ) ;
#41 = UNCERTAINTY_MEASURE_WITH_UNIT (LENGTH_MEASURE( 1.000000000000000082E-05 ), #262, 'distance_accuracy_value', 'NONE');
#42 = FILL_AREA_STYLE ('',( #68 ) ) ;
#43 = ADVANCED_FACE ( 'NONE', ( #151 ), #210, .T. ) ;
#44 = CARTESIAN_POINT ( 'NONE',  ( -6.123233995736766036E-17, 2.500000000000000000, 0.000000000000000000 ) ) ;
#45 =( CONVERSION_BASED_UNIT ( 'INCH', #287 ) LENGTH_UNIT ( ) NAMED_UNIT ( #48 ) );
#46 = PRESENTATION_LAYER_ASSIGNMENT (  '', '', ( #56 ) ) ;
#47 = DIRECTION ( 'NONE',  ( -0.000000000000000000, -1.000000000000000000, -0.000000000000000000 ) ) ;
#48 = DIMENSIONAL_EXPONENTS ( 1.000000000000000000, 0.000000000000000000, 0.000000000000000000, 0.000000000000000000, 0.000000000000000000, 0.000000000000000000, 0.000000000000000000 ) ;
#49 = CARTESIAN_POINT ( 'NONE',  ( 0.000000000000000000, 0.000000000000000000, 0.000000000000000000 ) ) ;
#50 = DIRECTION ( 'NONE',  ( -1.000000000000000000, 0.000000000000000000, 0.000000000000000000 ) ) ;
#51 = FACE_OUTER_BOUND ( 'NONE', #141, .T. ) ;
#52 = EDGE_CURVE ( 'NONE', #231, #140, #99, .T. ) ;
#53 = CARTESIAN_POINT ( 'NONE',  ( 0.000000000000000000, 0.000000000000000000, 0.000000000000000000 ) ) ;
#54 =( NAMED_UNIT ( * ) SI_UNIT ( $, .STERADIAN. ) SOLID_ANGLE_UNIT ( ) );
#55 = PRESENTATION_LAYER_ASSIGNMENT (  '', '', ( #260 ) ) ;
#56 = STYLED_ITEM ( 'NONE', ( #136 ), #293 ) ;
#57 = EDGE_LOOP ( 'NONE', ( #306, #116 ) ) ;
#58 = VERTEX_POINT ( 'NONE', #123 ) ;
#59 = ORIENTED_EDGE ( 'NONE', *, *, #83, .F. ) ;
#60 = MECHANICAL_DESIGN_GEOMETRIC_PRESENTATION_REPRESENTATION (  '', ( #25 ), #155 ) ;
#61 = APPLICATION_CONTEXT ( 'automotive_design' ) ;
#62 = DIRECTION ( 'NONE',  ( -3.628583108584750472E-17, 1.000000000000000000, 0.000000000000000000 ) ) ;
#63 = ORIENTED_EDGE ( 'NONE', *, *, #52, .F. ) ;
#64 = UNCERTAINTY_MEASURE_WITH_UNIT (LENGTH_MEASURE( 1.000000000000000082E-05 ), #45, 'distance_accuracy_value', 'NONE');
#65 = CARTESIAN_POINT ( 'NONE',  ( 0.1562500000000000000, 2.500000000000000000, 1.913510623667739771E-17 ) ) ;
#66 = AXIS2_PLACEMENT_3D ( 'NONE', #5, #218, #6 ) ;
#67 = CIRCLE ( 'NONE', #87, 0.1562500000000000000 ) ;
#68 = FILL_AREA_STYLE_COLOUR ( '', #15 ) ;
#69 = CARTESIAN_POINT ( 'NONE',  ( 0.000000000000000000, 0.000000000000000000, 0.000000000000000000 ) ) ;
#70 = FILL_AREA_STYLE_COLOUR ( '', #174 ) ;
#72 = EDGE_CURVE ( 'NONE', #89, #144, #222, .T. ) ;
#71 = AXIS2_PLACEMENT_3D ( 'NONE', #143, #62, #233 ) ;
#73 = CARTESIAN_POINT ( 'NONE',  ( 0.000000000000000000, 0.8125000000000000000, 0.000000000000000000 ) ) ;
#74 = DIMENSIONAL_EXPONENTS ( 1.000000000000000000, 0.000000000000000000, 0.000000000000000000, 0.000000000000000000, 0.000000000000000000, 0.000000000000000000, 0.000000000000000000 ) ;
#75 = DIRECTION ( 'NONE',  ( -0.000000000000000000, -1.000000000000000000, -0.000000000000000000 ) ) ;
#76 = LINE ( 'NONE', #225, #124 ) ;
#77 = SURFACE_STYLE_USAGE ( .BOTH. , #237 ) ;
#78 = DIRECTION ( 'NONE',  ( -1.000000000000000000, 0.000000000000000000, 0.000000000000000000 ) ) ;
#79 = EDGE_CURVE ( 'NONE', #231, #181, #85, .T. ) ;
#80 = CARTESIAN_POINT ( 'NONE',  ( 0.000000000000000000, 0.8125000000000001110, 0.000000000000000000 ) ) ;
#81 = MECHANICAL_DESIGN_GEOMETRIC_PRESENTATION_REPRESENTATION (  '', ( #269 ), #137 ) ;
#82 = CARTESIAN_POINT ( 'NONE',  ( 0.1562500000000000000, 0.8125000000000001110, 1.913510623667739771E-17 ) ) ;
#83 = EDGE_CURVE ( 'NONE', #140, #250, #187, .T. ) ;
#84 = SURFACE_SIDE_STYLE ('',( #145 ) ) ;
#85 = CIRCLE ( 'NONE', #283, 0.1562500000000000000 ) ;
#86 = ORIENTED_EDGE ( 'NONE', *, *, #28, .T. ) ;
#87 = AXIS2_PLACEMENT_3D ( 'NONE', #21, #24, #100 ) ;
#88 = ORIENTED_EDGE ( 'NONE', *, *, #72, .F. ) ;
#89 = VERTEX_POINT ( 'NONE', #294 ) ;
#90 = AXIS2_PLACEMENT_3D ( 'NONE', #111, #205, #115 ) ;
#91 = FACE_OUTER_BOUND ( 'NONE', #108, .T. ) ;
#92 = AXIS2_PLACEMENT_3D ( 'NONE', #44, #7, #195 ) ;
#93 = DIRECTION ( 'NONE',  ( -3.628583108584750472E-17, 1.000000000000000000, -0.000000000000000000 ) ) ;
#94 =( LENGTH_UNIT ( ) NAMED_UNIT ( * ) SI_UNIT ( $, .METRE. ) );
#95 = PRODUCT_DEFINITION_FORMATION_WITH_SPECIFIED_SOURCE ( 'ANY', '', #126, .NOT_KNOWN. ) ;
#96 = ADVANCED_FACE ( 'NONE', ( #168 ), #27, .T. ) ;
#97 =( NAMED_UNIT ( * ) SI_UNIT ( $, .STERADIAN. ) SOLID_ANGLE_UNIT ( ) );
#98 = APPLICATION_PROTOCOL_DEFINITION ( 'draft international standard', 'automotive_design', 1998, #266 ) ;
#99 = LINE ( 'NONE', #184, #14 ) ;
#100 = DIRECTION ( 'NONE',  ( 0.000000000000000000, 0.000000000000000000, -1.000000000000000000 ) ) ;
#101 =( NAMED_UNIT ( * ) SI_UNIT ( $, .STERADIAN. ) SOLID_ANGLE_UNIT ( ) );
#102 = DIRECTION ( 'NONE',  ( -0.000000000000000000, -1.000000000000000000, -0.000000000000000000 ) ) ;
#103 = EDGE_CURVE ( 'NONE', #250, #140, #40, .T. ) ;
#104 = DIMENSIONAL_EXPONENTS ( 1.000000000000000000, 0.000000000000000000, 0.000000000000000000, 0.000000000000000000, 0.000000000000000000, 0.000000000000000000, 0.000000000000000000 ) ;
#105 = SURFACE_SIDE_STYLE ('',( #10 ) ) ;
#106 = CARTESIAN_POINT ( 'NONE',  ( -6.123233995736766036E-17, 2.500000000000000000, 0.000000000000000000 ) ) ;
#107 =( NAMED_UNIT ( * ) PLANE_ANGLE_UNIT ( ) SI_UNIT ( $, .RADIAN. ) );
#108 = EDGE_LOOP ( 'NONE', ( #157, #86 ) ) ;
#109 = CLOSED_SHELL ( 'NONE', ( #264, #8, #96, #18 ) ) ;
#110 =( LENGTH_UNIT ( ) NAMED_UNIT ( * ) SI_UNIT ( $, .METRE. ) );
#111 = CARTESIAN_POINT ( 'NONE',  ( 0.1562500000000000000, 2.500000000000000000, 0.000000000000000000 ) ) ;
#112 = MECHANICAL_DESIGN_GEOMETRIC_PRESENTATION_REPRESENTATION (  '', ( #56 ), #286 ) ;
#113 = PLANE ( 'NONE',  #71 ) ;
#114 = EDGE_CURVE ( 'NONE', #158, #144, #76, .T. ) ;
#115 = DIRECTION ( 'NONE',  ( 1.000000000000000000, 3.628583108584750472E-17, 0.000000000000000000 ) ) ;
#116 = ORIENTED_EDGE ( 'NONE', *, *, #255, .F. ) ;
#117 = AXIS2_PLACEMENT_3D ( 'NONE', #185, #47, #219 ) ;
#118 =( LENGTH_UNIT ( ) NAMED_UNIT ( * ) SI_UNIT ( $, .METRE. ) );
#119 = LENGTH_MEASURE_WITH_UNIT ( LENGTH_MEASURE( 0.02539999999999999897 ), #267 );
#120 =( NAMED_UNIT ( * ) PLANE_ANGLE_UNIT ( ) SI_UNIT ( $, .RADIAN. ) );
#121 = FACE_OUTER_BOUND ( 'NONE', #182, .T. ) ;
#122 = UNCERTAINTY_MEASURE_WITH_UNIT (LENGTH_MEASURE( 1.000000000000000082E-05 ), #135, 'distance_accuracy_value', 'NONE');
#123 = CARTESIAN_POINT ( 'NONE',  ( 0.000000000000000000, 0.8125000000000000000, -0.1562500000000000000 ) ) ;
#124 = VECTOR ( 'NONE', #102, 39.37007874015748143 ) ;
#125 = AXIS2_PLACEMENT_3D ( 'NONE', #73, #147, #236 ) ;
#126 = PRODUCT ( '00255', '00255', '', ( #166 ) ) ;
#127 = PRESENTATION_STYLE_ASSIGNMENT (( #190 ) ) ;
#128 = DIRECTION ( 'NONE',  ( 1.000000000000000000, 0.000000000000000000, 0.000000000000000000 ) ) ;
#129 = DIMENSIONAL_EXPONENTS ( 1.000000000000000000, 0.000000000000000000, 0.000000000000000000, 0.000000000000000000, 0.000000000000000000, 0.000000000000000000, 0.000000000000000000 ) ;
#130 = FILL_AREA_STYLE ('',( #152 ) ) ;
#131 = COLOUR_RGB ( '',0.7921568627450980005, 0.8196078431372548767, 0.9333333333333333481 ) ;
#132 = PRODUCT_DEFINITION ( 'UNKNOWN', '', #95, #192 ) ;
#133 = CYLINDRICAL_SURFACE ( 'NONE', #279, 0.1562500000000000000 ) ;
#134 = LENGTH_MEASURE_WITH_UNIT ( LENGTH_MEASURE( 0.02539999999999999897 ), #240 );
#135 =( CONVERSION_BASED_UNIT ( 'INCH', #276 ) LENGTH_UNIT ( ) NAMED_UNIT ( #104 ) );
#136 = PRESENTATION_STYLE_ASSIGNMENT (( #77 ) ) ;
#137 =( GEOMETRIC_REPRESENTATION_CONTEXT ( 3 ) GLOBAL_UNCERTAINTY_ASSIGNED_CONTEXT ( ( #189 ) ) GLOBAL_UNIT_ASSIGNED_CONTEXT ( ( #138, #120, #259 ) ) REPRESENTATION_CONTEXT ( 'NONE', 'WORKASPACE' ) );
#138 =( CONVERSION_BASED_UNIT ( 'INCH', #162 ) LENGTH_UNIT ( ) NAMED_UNIT ( #129 ) );
#139 = FACE_OUTER_BOUND ( 'NONE', #16, .T. ) ;
#140 = VERTEX_POINT ( 'NONE', #178 ) ;
#141 = EDGE_LOOP ( 'NONE', ( #160, #12, #88, #257 ) ) ;
#142 = CLOSED_SHELL ( 'NONE', ( #226, #43, #193, #23 ) ) ;
#143 = CARTESIAN_POINT ( 'NONE',  ( 1.028641826242700895E-34, 0.8125000000000000000, 0.000000000000000000 ) ) ;
#144 = VERTEX_POINT ( 'NONE', #177 ) ;
#145 = SURFACE_STYLE_FILL_AREA ( #42 ) ;
#146 = DIRECTION ( 'NONE',  ( 0.000000000000000000, 0.000000000000000000, -1.000000000000000000 ) ) ;
#147 = DIRECTION ( 'NONE',  ( -0.000000000000000000, -1.000000000000000000, -0.000000000000000000 ) ) ;
#148 = PRESENTATION_STYLE_ASSIGNMENT (( #156 ) ) ;
#149 = DIRECTION ( 'NONE',  ( 0.000000000000000000, -1.000000000000000000, -0.000000000000000000 ) ) ;
#150 = SURFACE_STYLE_FILL_AREA ( #288 ) ;
#151 = FACE_OUTER_BOUND ( 'NONE', #57, .T. ) ;
#152 = FILL_AREA_STYLE_COLOUR ( '', #248 ) ;
#153 = DIMENSIONAL_EXPONENTS ( 1.000000000000000000, 0.000000000000000000, 0.000000000000000000, 0.000000000000000000, 0.000000000000000000, 0.000000000000000000, 0.000000000000000000 ) ;
#154 =( LENGTH_UNIT ( ) NAMED_UNIT ( * ) SI_UNIT ( $, .METRE. ) );
#155 =( GEOMETRIC_REPRESENTATION_CONTEXT ( 3 ) GLOBAL_UNCERTAINTY_ASSIGNED_CONTEXT ( ( #122 ) ) GLOBAL_UNIT_ASSIGNED_CONTEXT ( ( #135, #229, #101 ) ) REPRESENTATION_CONTEXT ( 'NONE', 'WORKASPACE' ) );
#156 = SURFACE_STYLE_USAGE ( .BOTH. , #84 ) ;
#157 = ORIENTED_EDGE ( 'NONE', *, *, #72, .T. ) ;
#158 = VERTEX_POINT ( 'NONE', #246 ) ;
#159 =( GEOMETRIC_REPRESENTATION_CONTEXT ( 3 ) GLOBAL_UNCERTAINTY_ASSIGNED_CONTEXT ( ( #64 ) ) GLOBAL_UNIT_ASSIGNED_CONTEXT ( ( #45, #169, #20 ) ) REPRESENTATION_CONTEXT ( 'NONE', 'WORKASPACE' ) );
#160 = ORIENTED_EDGE ( 'NONE', *, *, #258, .T. ) ;
#161 = FILL_AREA_STYLE ('',( #284 ) ) ;
#162 = LENGTH_MEASURE_WITH_UNIT ( LENGTH_MEASURE( 0.02539999999999999897 ), #118 );
#163 = ORIENTED_EDGE ( 'NONE', *, *, #272, .F. ) ;
#164 = FILL_AREA_STYLE ('',( #70 ) ) ;
#165 = CARTESIAN_POINT ( 'NONE',  ( 0.000000000000000000, 0.000000000000000000, 0.000000000000000000 ) ) ;
#166 = PRODUCT_CONTEXT ( 'NONE', #266, 'mechanical' ) ;
#167 = PRODUCT_RELATED_PRODUCT_CATEGORY ( 'part', '', ( #126 ) ) ;
#168 = FACE_OUTER_BOUND ( 'NONE', #281, .T. ) ;
#169 =( NAMED_UNIT ( * ) PLANE_ANGLE_UNIT ( ) SI_UNIT ( $, .RADIAN. ) );
#170 = CYLINDRICAL_SURFACE ( 'NONE', #92, 0.1562500000000000278 ) ;
#171 =( GEOMETRIC_REPRESENTATION_CONTEXT ( 3 ) GLOBAL_UNCERTAINTY_ASSIGNED_CONTEXT ( ( #263 ) ) GLOBAL_UNIT_ASSIGNED_CONTEXT ( ( #270, #289, #291 ) ) REPRESENTATION_CONTEXT ( 'NONE', 'WORKASPACE' ) );
#172 = SHAPE_DEFINITION_REPRESENTATION ( #241, #251 ) ;
#173 = PRESENTATION_LAYER_ASSIGNMENT (  '', '', ( #213 ) ) ;
#174 = COLOUR_RGB ( '',1.000000000000000000, 0.000000000000000000, 0.000000000000000000 ) ;
#175 = DIMENSIONAL_EXPONENTS ( 1.000000000000000000, 0.000000000000000000, 0.000000000000000000, 0.000000000000000000, 0.000000000000000000, 0.000000000000000000, 0.000000000000000000 ) ;
#176 = EDGE_CURVE ( 'NONE', #181, #231, #300, .T. ) ;
#177 = CARTESIAN_POINT ( 'NONE',  ( 1.913510623667739463E-17, 0.000000000000000000, 0.1562500000000000000 ) ) ;
#178 = CARTESIAN_POINT ( 'NONE',  ( -0.1562500000000001388, 2.500000000000000000, 0.000000000000000000 ) ) ;
#179 = DIRECTION ( 'NONE',  ( -3.628583108584750472E-17, 1.000000000000000000, -0.000000000000000000 ) ) ;
#180 = ORIENTED_EDGE ( 'NONE', *, *, #176, .T. ) ;
#181 = VERTEX_POINT ( 'NONE', #82 ) ;
#182 = EDGE_LOOP ( 'NONE', ( #280, #285, #59, #63 ) ) ;
#183 = PLANE ( 'NONE',  #215 ) ;
#184 = CARTESIAN_POINT ( 'NONE',  ( -0.1562500000000001110, 2.500000000000000000, 0.000000000000000000 ) ) ;
#185 = CARTESIAN_POINT ( 'NONE',  ( 0.000000000000000000, 0.000000000000000000, 0.000000000000000000 ) ) ;
#186 = DIRECTION ( 'NONE',  ( -3.628583108584750472E-17, 1.000000000000000000, -0.000000000000000000 ) ) ;
#187 = CIRCLE ( 'NONE', #275, 0.1562500000000000833 ) ;
#188 = FILL_AREA_STYLE_COLOUR ( '', #131 ) ;
#189 = UNCERTAINTY_MEASURE_WITH_UNIT (LENGTH_MEASURE( 1.000000000000000082E-05 ), #138, 'distance_accuracy_value', 'NONE');
#190 = SURFACE_STYLE_USAGE ( .BOTH. , #239 ) ;
#191 = CARTESIAN_POINT ( 'NONE',  ( -0.1562500000000000000, 0.8125000000000001110, 0.000000000000000000 ) ) ;
#192 = PRODUCT_DEFINITION_CONTEXT ( 'detailed design', #61, 'design' ) ;
#193 = ADVANCED_FACE ( 'NONE', ( #197 ), #133, .T. ) ;
#194 = CARTESIAN_POINT ( 'NONE',  ( 0.000000000000000000, 0.8125000000000001110, 0.000000000000000000 ) ) ;
#195 = DIRECTION ( 'NONE',  ( -1.000000000000000000, 0.000000000000000000, 0.000000000000000000 ) ) ;
#196 = CIRCLE ( 'NONE', #34, 0.1562500000000000000 ) ;
#197 = FACE_OUTER_BOUND ( 'NONE', #303, .T. ) ;
#198 =( CONVERSION_BASED_UNIT ( 'INCH', #134 ) LENGTH_UNIT ( ) NAMED_UNIT ( #153 ) );
#199 = PRESENTATION_LAYER_ASSIGNMENT (  '', '', ( #25 ) ) ;
#200 = CYLINDRICAL_SURFACE ( 'NONE', #117, 0.1562500000000000000 ) ;
#201 = MECHANICAL_DESIGN_GEOMETRIC_PRESENTATION_REPRESENTATION (  '', ( #213 ), #159 ) ;
#202 = COLOUR_RGB ( '',1.000000000000000000, 0.000000000000000000, 0.000000000000000000 ) ;
#203 = SURFACE_STYLE_FILL_AREA ( #161 ) ;
#204 = ORIENTED_EDGE ( 'NONE', *, *, #114, .F. ) ;
#205 = DIRECTION ( 'NONE',  ( 3.628583108584750472E-17, -1.000000000000000000, 0.000000000000000000 ) ) ;
#206 =( GEOMETRIC_REPRESENTATION_CONTEXT ( 3 ) GLOBAL_UNCERTAINTY_ASSIGNED_CONTEXT ( ( #41 ) ) GLOBAL_UNIT_ASSIGNED_CONTEXT ( ( #262, #22, #97 ) ) REPRESENTATION_CONTEXT ( 'NONE', 'WORKASPACE' ) );
#207 = AXIS2_PLACEMENT_3D ( 'NONE', #69, #216, #128 ) ;
#208 = ORIENTED_EDGE ( 'NONE', *, *, #52, .T. ) ;
#209 = DIRECTION ( 'NONE',  ( 0.000000000000000000, 0.000000000000000000, -1.000000000000000000 ) ) ;
#210 = PLANE ( 'NONE',  #66 ) ;
#211 = EDGE_CURVE ( 'NONE', #58, #89, #30, .T. ) ;
#212 = CARTESIAN_POINT ( 'NONE',  ( 0.1562499999999999722, 2.500000000000000000, 1.913510623667739771E-17 ) ) ;
#213 = STYLED_ITEM ( 'NONE', ( #305 ), #23 ) ;
#214 = DIRECTION ( 'NONE',  ( -1.000000000000000000, 0.000000000000000000, 0.000000000000000000 ) ) ;
#215 = AXIS2_PLACEMENT_3D ( 'NONE', #49, #149, #146 ) ;
#216 = DIRECTION ( 'NONE',  ( 0.000000000000000000, 0.000000000000000000, 1.000000000000000000 ) ) ;
#217 = DIRECTION ( 'NONE',  ( 0.000000000000000000, 0.000000000000000000, -1.000000000000000000 ) ) ;
#218 = DIRECTION ( 'NONE',  ( 0.000000000000000000, 1.000000000000000000, 0.000000000000000000 ) ) ;
#219 = DIRECTION ( 'NONE',  ( 0.000000000000000000, 0.000000000000000000, -1.000000000000000000 ) ) ;
#220 = UNCERTAINTY_MEASURE_WITH_UNIT (LENGTH_MEASURE( 1.000000000000000082E-05 ), #198, 'distance_accuracy_value', 'NONE');
#221 = CARTESIAN_POINT ( 'NONE',  ( -6.123233995736766036E-17, 2.500000000000000000, 0.000000000000000000 ) ) ;
#222 = CIRCLE ( 'NONE', #268, 0.1562500000000000000 ) ;
#223 =( GEOMETRIC_REPRESENTATION_CONTEXT ( 3 ) GLOBAL_UNCERTAINTY_ASSIGNED_CONTEXT ( ( #220 ) ) GLOBAL_UNIT_ASSIGNED_CONTEXT ( ( #198, #107, #54 ) ) REPRESENTATION_CONTEXT ( 'NONE', 'WORKASPACE' ) );
#224 = DIRECTION ( 'NONE',  ( 0.000000000000000000, 0.000000000000000000, -1.000000000000000000 ) ) ;
#225 = CARTESIAN_POINT ( 'NONE',  ( 1.913510623667739463E-17, 0.000000000000000000, 0.1562500000000000000 ) ) ;
#226 = ADVANCED_FACE ( 'NONE', ( #51 ), #200, .T. ) ;
#227 = DIMENSIONAL_EXPONENTS ( 1.000000000000000000, 0.000000000000000000, 0.000000000000000000, 0.000000000000000000, 0.000000000000000000, 0.000000000000000000, 0.000000000000000000 ) ;
#228 = DIRECTION ( 'NONE',  ( -0.000000000000000000, -1.000000000000000000, -0.000000000000000000 ) ) ;
#229 =( NAMED_UNIT ( * ) PLANE_ANGLE_UNIT ( ) SI_UNIT ( $, .RADIAN. ) );
#230 = ORIENTED_EDGE ( 'NONE', *, *, #28, .F. ) ;
#231 = VERTEX_POINT ( 'NONE', #191 ) ;
#232 = ORIENTED_EDGE ( 'NONE', *, *, #211, .T. ) ;
#233 = DIRECTION ( 'NONE',  ( -1.000000000000000000, -3.628583108584750472E-17, 0.000000000000000000 ) ) ;
#234 = VECTOR ( 'NONE', #274, 39.37007874015748143 ) ;
#235 = CARTESIAN_POINT ( 'NONE',  ( 0.000000000000000000, 0.000000000000000000, 0.000000000000000000 ) ) ;
#236 = DIRECTION ( 'NONE',  ( 0.000000000000000000, 0.000000000000000000, -1.000000000000000000 ) ) ;
#237 = SURFACE_SIDE_STYLE ('',( #150 ) ) ;
#238 = CARTESIAN_POINT ( 'NONE',  ( -6.123233995736766036E-17, 2.500000000000000000, 0.000000000000000000 ) ) ;
#239 = SURFACE_SIDE_STYLE ('',( #265 ) ) ;
#240 =( LENGTH_UNIT ( ) NAMED_UNIT ( * ) SI_UNIT ( $, .METRE. ) );
#241 = PRODUCT_DEFINITION_SHAPE ( 'NONE', 'NONE',  #132 ) ;
#242 = DIRECTION ( 'NONE',  ( -3.628583108584750472E-17, 1.000000000000000000, -0.000000000000000000 ) ) ;
#243 = VECTOR ( 'NONE', #3, 39.37007874015748143 ) ;
#244 = LENGTH_MEASURE_WITH_UNIT ( LENGTH_MEASURE( 0.02539999999999999897 ), #94 );
#245 = SURFACE_STYLE_USAGE ( .BOTH. , #105 ) ;
#246 = CARTESIAN_POINT ( 'NONE',  ( 1.913510623667739463E-17, 0.8125000000000000000, 0.1562500000000000000 ) ) ;
#247 = AXIS2_PLACEMENT_3D ( 'NONE', #221, #302, #78 ) ;
#248 = COLOUR_RGB ( '',1.000000000000000000, 0.000000000000000000, 0.000000000000000000 ) ;
#249 =( NAMED_UNIT ( * ) PLANE_ANGLE_UNIT ( ) SI_UNIT ( $, .RADIAN. ) );
#250 = VERTEX_POINT ( 'NONE', #65 ) ;
#251 = ADVANCED_BREP_SHAPE_REPRESENTATION ( '00255', ( #293, #298, #207 ), #171 ) ;
#252 = ORIENTED_EDGE ( 'NONE', *, *, #83, .T. ) ;
#253 = MECHANICAL_DESIGN_GEOMETRIC_PRESENTATION_REPRESENTATION (  '', ( #260 ), #206 ) ;
#254 = CIRCLE ( 'NONE', #125, 0.1562500000000000000 ) ;
#255 = EDGE_CURVE ( 'NONE', #158, #58, #254, .T. ) ;
#256 = SURFACE_SIDE_STYLE ('',( #203 ) ) ;
#257 = ORIENTED_EDGE ( 'NONE', *, *, #211, .F. ) ;
#258 = EDGE_CURVE ( 'NONE', #58, #158, #67, .T. ) ;
#259 =( NAMED_UNIT ( * ) SI_UNIT ( $, .STERADIAN. ) SOLID_ANGLE_UNIT ( ) );
#260 = STYLED_ITEM ( 'NONE', ( #127 ), #43 ) ;
#261 = MECHANICAL_DESIGN_GEOMETRIC_PRESENTATION_REPRESENTATION (  '', ( #26 ), #223 ) ;
#262 =( CONVERSION_BASED_UNIT ( 'INCH', #119 ) LENGTH_UNIT ( ) NAMED_UNIT ( #74 ) );
#263 = UNCERTAINTY_MEASURE_WITH_UNIT (LENGTH_MEASURE( 1.000000000000000082E-05 ), #270, 'distance_accuracy_value', 'NONE');
#264 = ADVANCED_FACE ( 'NONE', ( #121 ), #170, .T. ) ;
#265 = SURFACE_STYLE_FILL_AREA ( #164 ) ;
#266 = APPLICATION_CONTEXT ( 'automotive_design' ) ;
#267 =( LENGTH_UNIT ( ) NAMED_UNIT ( * ) SI_UNIT ( $, .METRE. ) );
#268 = AXIS2_PLACEMENT_3D ( 'NONE', #235, #2, #209 ) ;
#269 = STYLED_ITEM ( 'NONE', ( #148 ), #298 ) ;
#270 =( CONVERSION_BASED_UNIT ( 'INCH', #244 ) LENGTH_UNIT ( ) NAMED_UNIT ( #227 ) );
#271 = DIRECTION ( 'NONE',  ( -1.000000000000000000, 0.000000000000000000, 0.000000000000000000 ) ) ;
#272 = EDGE_CURVE ( 'NONE', #181, #250, #296, .T. ) ;
#273 = COLOUR_RGB ( '',1.000000000000000000, 0.000000000000000000, 0.000000000000000000 ) ;
#274 = DIRECTION ( 'NONE',  ( -0.000000000000000000, -1.000000000000000000, -0.000000000000000000 ) ) ;
#275 = AXIS2_PLACEMENT_3D ( 'NONE', #238, #93, #290 ) ;
#276 = LENGTH_MEASURE_WITH_UNIT ( LENGTH_MEASURE( 0.02539999999999999897 ), #154 );
#277 = FILL_AREA_STYLE ('',( #301 ) ) ;
#278 =( CONVERSION_BASED_UNIT ( 'INCH', #1 ) LENGTH_UNIT ( ) NAMED_UNIT ( #175 ) );
#279 = AXIS2_PLACEMENT_3D ( 'NONE', #53, #228, #224 ) ;
#280 = ORIENTED_EDGE ( 'NONE', *, *, #79, .T. ) ;
#281 = EDGE_LOOP ( 'NONE', ( #163, #180, #208, #39 ) ) ;
#282 = EDGE_LOOP ( 'NONE', ( #252, #36 ) ) ;
#283 = AXIS2_PLACEMENT_3D ( 'NONE', #194, #186, #214 ) ;
#284 = FILL_AREA_STYLE_COLOUR ( '', #273 ) ;
#285 = ORIENTED_EDGE ( 'NONE', *, *, #272, .T. ) ;
#286 =( GEOMETRIC_REPRESENTATION_CONTEXT ( 3 ) GLOBAL_UNCERTAINTY_ASSIGNED_CONTEXT ( ( #4 ) ) GLOBAL_UNIT_ASSIGNED_CONTEXT ( ( #278, #249, #35 ) ) REPRESENTATION_CONTEXT ( 'NONE', 'WORKASPACE' ) );
#287 = LENGTH_MEASURE_WITH_UNIT ( LENGTH_MEASURE( 0.02539999999999999897 ), #292 );
#288 = FILL_AREA_STYLE ('',( #188 ) ) ;
#289 =( NAMED_UNIT ( * ) PLANE_ANGLE_UNIT ( ) SI_UNIT ( $, .RADIAN. ) );
#290 = DIRECTION ( 'NONE',  ( -1.000000000000000000, 0.000000000000000000, 0.000000000000000000 ) ) ;
#291 =( NAMED_UNIT ( * ) SI_UNIT ( $, .STERADIAN. ) SOLID_ANGLE_UNIT ( ) );
#292 =( LENGTH_UNIT ( ) NAMED_UNIT ( * ) SI_UNIT ( $, .METRE. ) );
#293 = MANIFOLD_SOLID_BREP ( 'Revolve - Cutting Edge', #142 ) ;
#294 = CARTESIAN_POINT ( 'NONE',  ( 0.000000000000000000, 0.000000000000000000, -0.1562500000000000000 ) ) ;
#295 = AXIS2_PLACEMENT_3D ( 'NONE', #106, #242, #50 ) ;
#296 = LINE ( 'NONE', #212, #243 ) ;
#297 = SURFACE_SIDE_STYLE ('',( #31 ) ) ;
#298 = MANIFOLD_SOLID_BREP ( 'Revolve - Tool Body (Straight Shanked)', #109 ) ;
#299 = PRESENTATION_STYLE_ASSIGNMENT (( #245 ) ) ;
#300 = CIRCLE ( 'NONE', #304, 0.1562500000000000000 ) ;
#301 = FILL_AREA_STYLE_COLOUR ( '', #202 ) ;
#302 = DIRECTION ( 'NONE',  ( -3.628583108584750472E-17, 1.000000000000000000, -0.000000000000000000 ) ) ;
#303 = EDGE_LOOP ( 'NONE', ( #204, #307, #232, #230 ) ) ;
#304 = AXIS2_PLACEMENT_3D ( 'NONE', #80, #179, #271 ) ;
#305 = PRESENTATION_STYLE_ASSIGNMENT (( #19 ) ) ;
#306 = ORIENTED_EDGE ( 'NONE', *, *, #258, .F. ) ;
#307 = ORIENTED_EDGE ( 'NONE', *, *, #255, .T. ) ;
#308 = PLANE ( 'NONE',  #90 ) ;
#309 = DIRECTION ( 'NONE',  ( -3.628583108584750472E-17, 1.000000000000000000, -0.000000000000000000 ) ) ;
ENDSEC;
END-ISO-10303-21;
