ISO-10303-21;
HEADER;
FILE_DESCRIPTION (( 'STEP AP214' ),
    '1' );
FILE_NAME ('Micro_RDE-50.STEP',
    '2021-08-31T17:02:39',
    ( '' ),
    ( '' ),
    'SwSTEP 2.0',
    'SolidWorks 2020',
    '' );
FILE_SCHEMA (( 'AUTOMOTIVE_DESIGN' ));
ENDSEC;

DATA;
#1 = AXIS2_PLACEMENT_3D ( 'NONE', #244, #171, #289 ) ;
#2 = CARTESIAN_POINT ( 'NONE',  ( -0.09365624999999999645, 0.0000000000000000000, 1.146958267826442798E-17 ) ) ;
#3 = APPLICATION_PROTOCOL_DEFINITION ( 'draft international standard', 'automotive_design', 1998, #193 ) ;
#4 = CYLINDRICAL_SURFACE ( 'NONE', #184, 0.09365624999999999645 ) ;
#5 = AXIS2_PLACEMENT_3D ( 'NONE', #261, #141, #238 ) ;
#6 = ORIENTED_EDGE ( 'NONE', *, *, #195, .F. ) ;
#7 =( NAMED_UNIT ( * ) SI_UNIT ( $, .STERADIAN. ) SOLID_ANGLE_UNIT ( ) );
#8 = VERTEX_POINT ( 'NONE', #56 ) ;
#9 = LENGTH_MEASURE_WITH_UNIT ( LENGTH_MEASURE( 0.02539999999999999897 ), #120 );
#10 = EDGE_CURVE ( 'NONE', #288, #144, #234, .T. ) ;
#11 = ORIENTED_EDGE ( 'NONE', *, *, #223, .F. ) ;
#12 = DIRECTION ( 'NONE',  ( -1.224646799147353207E-16, -0.0000000000000000000, -1.000000000000000000 ) ) ;
#13 = VERTEX_POINT ( 'NONE', #138 ) ;
#14 = DIRECTION ( 'NONE',  ( -0.0000000000000000000, -0.0000000000000000000, -1.000000000000000000 ) ) ;
#15 = DIRECTION ( 'NONE',  ( 1.224646799147353207E-16, 0.0000000000000000000, 1.000000000000000000 ) ) ;
#16 = ADVANCED_FACE ( 'NONE', ( #215 ), #164, .T. ) ;
#17 = CARTESIAN_POINT ( 'NONE',  ( 7.654042494670957853E-17, 0.0000000000000000000, 0.6250000000000000000 ) ) ;
#18 = DIRECTION ( 'NONE',  ( 1.000000000000000000, 0.0000000000000000000, 0.0000000000000000000 ) ) ;
#19 = FACE_OUTER_BOUND ( 'NONE', #32, .T. ) ;
#20 = ADVANCED_FACE ( 'NONE', ( #28 ), #271, .T. ) ;
#21 = ORIENTED_EDGE ( 'NONE', *, *, #85, .T. ) ;
#22 = CARTESIAN_POINT ( 'NONE',  ( 0.09365625000000003808, 0.0000000000000000000, 0.6250000000000000000 ) ) ;
#23 = AXIS2_PLACEMENT_3D ( 'NONE', #174, #60, #170 ) ;
#24 = LINE ( 'NONE', #275, #107 ) ;
#25 = UNCERTAINTY_MEASURE_WITH_UNIT (LENGTH_MEASURE( 1.000000000000000082E-05 ), #236, 'distance_accuracy_value', 'NONE');
#26 = PRESENTATION_LAYER_ASSIGNMENT (  '', '', ( #172 ) ) ;
#27 = ADVANCED_FACE ( 'NONE', ( #169 ), #4, .T. ) ;
#28 = FACE_OUTER_BOUND ( 'NONE', #112, .T. ) ;
#29 =( CONVERSION_BASED_UNIT ( 'INCH', #9 ) LENGTH_UNIT ( ) NAMED_UNIT ( #284 ) );
#30 = ORIENTED_EDGE ( 'NONE', *, *, #133, .T. ) ;
#31 = FILL_AREA_STYLE_COLOUR ( '', #135 ) ;
#32 = EDGE_LOOP ( 'NONE', ( #30, #36 ) ) ;
#33 = ADVANCED_FACE ( 'NONE', ( #186 ), #283, .T. ) ;
#34 = PRESENTATION_STYLE_ASSIGNMENT (( #79 ) ) ;
#35 = DIRECTION ( 'NONE',  ( -1.000000000000000000, 0.0000000000000000000, 1.224646799147352961E-16 ) ) ;
#36 = ORIENTED_EDGE ( 'NONE', *, *, #10, .T. ) ;
#37 = AXIS2_PLACEMENT_3D ( 'NONE', #104, #148, #39 ) ;
#38 = DIRECTION ( 'NONE',  ( -1.000000000000000000, 0.0000000000000000000, 0.0000000000000000000 ) ) ;
#39 = DIRECTION ( 'NONE',  ( 1.000000000000000000, 0.0000000000000000000, 0.0000000000000000000 ) ) ;
#40 = CARTESIAN_POINT ( 'NONE',  ( -0.1099999999999996397, 0.0000000000000000000, 2.000000000000000000 ) ) ;
#41 = MECHANICAL_DESIGN_GEOMETRIC_PRESENTATION_REPRESENTATION (  '', ( #93 ), #101 ) ;
#42 = LINE ( 'NONE', #109, #263 ) ;
#43 = DIRECTION ( 'NONE',  ( -1.000000000000000000, 0.0000000000000000000, 0.0000000000000000000 ) ) ;
#44 = EDGE_LOOP ( 'NONE', ( #187, #167, #179, #53 ) ) ;
#45 = PRESENTATION_STYLE_ASSIGNMENT (( #156 ) ) ;
#46 = VECTOR ( 'NONE', #92, 39.37007874015748143 ) ;
#47 = CARTESIAN_POINT ( 'NONE',  ( 0.09365624999999999645, 1.146958267826442798E-17, 0.0000000000000000000 ) ) ;
#48 = LINE ( 'NONE', #2, #228 ) ;
#49 = VECTOR ( 'NONE', #175, 39.37007874015748143 ) ;
#50 = EDGE_CURVE ( 'NONE', #176, #213, #194, .T. ) ;
#51 = ORIENTED_EDGE ( 'NONE', *, *, #276, .F. ) ;
#52 = PRODUCT_CONTEXT ( 'NONE', #134, 'mechanical' ) ;
#53 = ORIENTED_EDGE ( 'NONE', *, *, #95, .F. ) ;
#54 = ORIENTED_EDGE ( 'NONE', *, *, #145, .T. ) ;
#55 = VECTOR ( 'NONE', #251, 39.37007874015748143 ) ;
#56 = CARTESIAN_POINT ( 'NONE',  ( 0.09365625000000003808, 0.0000000000000000000, 0.6250000000000000000 ) ) ;
#57 = ORIENTED_EDGE ( 'NONE', *, *, #69, .F. ) ;
#58 = CARTESIAN_POINT ( 'NONE',  ( -0.09365624999999991318, 1.146958267826442644E-17, 0.6250000000000000000 ) ) ;
#59 = AXIS2_PLACEMENT_3D ( 'NONE', #266, #152, #38 ) ;
#60 = DIRECTION ( 'NONE',  ( -1.224646799147353207E-16, -0.0000000000000000000, -1.000000000000000000 ) ) ;
#61 = DIRECTION ( 'NONE',  ( -1.000000000000000000, 0.0000000000000000000, 0.0000000000000000000 ) ) ;
#62 = CARTESIAN_POINT ( 'NONE',  ( 0.0000000000000000000, 0.0000000000000000000, 0.0000000000000000000 ) ) ;
#63 = AXIS2_PLACEMENT_3D ( 'NONE', #17, #15, #225 ) ;
#64 = FACE_OUTER_BOUND ( 'NONE', #217, .T. ) ;
#65 = ORIENTED_EDGE ( 'NONE', *, *, #230, .F. ) ;
#66 = DIMENSIONAL_EXPONENTS ( 1.000000000000000000, 0.0000000000000000000, 0.0000000000000000000, 0.0000000000000000000, 0.0000000000000000000, 0.0000000000000000000, 0.0000000000000000000 ) ;
#67 = LENGTH_MEASURE_WITH_UNIT ( LENGTH_MEASURE( 0.02539999999999999897 ), #232 );
#68 = CARTESIAN_POINT ( 'NONE',  ( -0.1250000000000000000, 0.0000000000000000000, 1.984999999999999432 ) ) ;
#69 = EDGE_CURVE ( 'NONE', #119, #240, #142, .T. ) ;
#70 = AXIS2_PLACEMENT_3D ( 'NONE', #292, #177, #268 ) ;
#71 = CARTESIAN_POINT ( 'NONE',  ( 0.1099999999999996397, 1.347111479062084158E-17, 2.000000000000000000 ) ) ;
#72 = AXIS2_PLACEMENT_3D ( 'NONE', #262, #117, #190 ) ;
#73 = ORIENTED_EDGE ( 'NONE', *, *, #230, .T. ) ;
#74 = ORIENTED_EDGE ( 'NONE', *, *, #173, .T. ) ;
#75 = ORIENTED_EDGE ( 'NONE', *, *, #209, .T. ) ;
#76 = ADVANCED_FACE ( 'NONE', ( #64 ), #82, .T. ) ;
#77 = ORIENTED_EDGE ( 'NONE', *, *, #145, .F. ) ;
#78 = CONICAL_SURFACE ( 'NONE', #1, 0.09365624999999996869, 0.1745329251994339470 ) ;
#79 = SURFACE_STYLE_USAGE ( .BOTH. , #280 ) ;
#80 = EDGE_LOOP ( 'NONE', ( #211, #75 ) ) ;
#81 = DIRECTION ( 'NONE',  ( 0.0000000000000000000, 0.0000000000000000000, 1.000000000000000000 ) ) ;
#82 = CYLINDRICAL_SURFACE ( 'NONE', #258, 0.1250000000000000000 ) ;
#83 = DIRECTION ( 'NONE',  ( -0.1736481776669312194, 2.126576849575783625E-17, 0.9848077530122077983 ) ) ;
#84 = LINE ( 'NONE', #269, #49 ) ;
#85 = EDGE_CURVE ( 'NONE', #176, #8, #287, .T. ) ;
#86 = FACE_OUTER_BOUND ( 'NONE', #154, .T. ) ;
#87 = CIRCLE ( 'NONE', #70, 0.1250000000000000000 ) ;
#88 = ORIENTED_EDGE ( 'NONE', *, *, #161, .F. ) ;
#89 =( NAMED_UNIT ( * ) PLANE_ANGLE_UNIT ( ) SI_UNIT ( $, .RADIAN. ) );
#90 = ADVANCED_FACE ( 'NONE', ( #199 ), #159, .T. ) ;
#91 = UNCERTAINTY_MEASURE_WITH_UNIT (LENGTH_MEASURE( 1.000000000000000082E-05 ), #29, 'distance_accuracy_value', 'NONE');
#92 = DIRECTION ( 'NONE',  ( 0.1736481776669314414, 0.0000000000000000000, 0.9848077530122077983 ) ) ;
#93 = STYLED_ITEM ( 'NONE', ( #45 ), #270 ) ;
#94 = DIRECTION ( 'NONE',  ( -1.224646799147353207E-16, -0.0000000000000000000, -1.000000000000000000 ) ) ;
#95 = EDGE_CURVE ( 'NONE', #143, #240, #42, .T. ) ;
#96 = SHAPE_DEFINITION_REPRESENTATION ( #295, #233 ) ;
#97 = DIRECTION ( 'NONE',  ( -1.000000000000000000, 0.0000000000000000000, 1.224646799147352961E-16 ) ) ;
#98 = ORIENTED_EDGE ( 'NONE', *, *, #50, .F. ) ;
#99 = ORIENTED_EDGE ( 'NONE', *, *, #253, .F. ) ;
#100 = DIRECTION ( 'NONE',  ( 0.0000000000000000000, 0.0000000000000000000, 1.000000000000000000 ) ) ;
#101 =( GEOMETRIC_REPRESENTATION_CONTEXT ( 3 ) GLOBAL_UNCERTAINTY_ASSIGNED_CONTEXT ( ( #25 ) ) GLOBAL_UNIT_ASSIGNED_CONTEXT ( ( #236, #89, #205 ) ) REPRESENTATION_CONTEXT ( 'NONE', 'WORKASPACE' ) );
#102 = ORIENTED_EDGE ( 'NONE', *, *, #204, .F. ) ;
#103 = EDGE_LOOP ( 'NONE', ( #98, #77, #281, #131 ) ) ;
#104 = CARTESIAN_POINT ( 'NONE',  ( 0.0000000000000000000, 0.0000000000000000000, 1.984999999999999432 ) ) ;
#105 = CARTESIAN_POINT ( 'NONE',  ( 0.0000000000000000000, 0.0000000000000000000, 0.0000000000000000000 ) ) ;
#106 = CLOSED_SHELL ( 'NONE', ( #27, #115, #168, #76, #33, #16, #20, #90, #183, #127 ) ) ;
#107 = VECTOR ( 'NONE', #257, 39.37007874015748143 ) ;
#108 = PLANE ( 'NONE',  #216 ) ;
#109 = CARTESIAN_POINT ( 'NONE',  ( -0.1099999999999996397, 0.0000000000000000000, 2.000000000000000000 ) ) ;
#110 = AXIS2_PLACEMENT_3D ( 'NONE', #242, #12, #35 ) ;
#111 = CONICAL_SURFACE ( 'NONE', #239, 0.1099999999999996397, 0.7853981633974426169 ) ;
#112 = EDGE_LOOP ( 'NONE', ( #51, #6, #296, #57 ) ) ;
#113 = PRODUCT_RELATED_PRODUCT_CATEGORY ( 'part', '', ( #235 ) ) ;
#114 = APPLICATION_PROTOCOL_DEFINITION ( 'draft international standard', 'automotive_design', 1998, #134 ) ;
#115 = ADVANCED_FACE ( 'NONE', ( #124 ), #78, .T. ) ;
#116 = DIRECTION ( 'NONE',  ( 1.000000000000000000, 0.0000000000000000000, 0.0000000000000000000 ) ) ;
#117 = DIRECTION ( 'NONE',  ( 0.0000000000000000000, 0.0000000000000000000, -1.000000000000000000 ) ) ;
#118 = AXIS2_PLACEMENT_3D ( 'NONE', #241, #260, #208 ) ;
#119 = VERTEX_POINT ( 'NONE', #246 ) ;
#120 =( LENGTH_UNIT ( ) NAMED_UNIT ( * ) SI_UNIT ( $, .METRE. ) );
#121 = ORIENTED_EDGE ( 'NONE', *, *, #50, .T. ) ;
#122 = ORIENTED_EDGE ( 'NONE', *, *, #69, .T. ) ;
#123 = EDGE_LOOP ( 'NONE', ( #160, #121, #259, #99 ) ) ;
#124 = FACE_OUTER_BOUND ( 'NONE', #123, .T. ) ;
#125 = DIRECTION ( 'NONE',  ( 0.0000000000000000000, 0.0000000000000000000, -1.000000000000000000 ) ) ;
#126 = CARTESIAN_POINT ( 'NONE',  ( -0.09365624999999999645, 0.0000000000000000000, 2.293916535652885596E-17 ) ) ;
#127 = ADVANCED_FACE ( 'NONE', ( #19 ), #108, .F. ) ;
#128 = AXIS2_PLACEMENT_3D ( 'NONE', #191, #149, #43 ) ;
#129 = DIRECTION ( 'NONE',  ( 0.0000000000000000000, 0.0000000000000000000, 1.000000000000000000 ) ) ;
#130 = CYLINDRICAL_SURFACE ( 'NONE', #180, 0.09365624999999999645 ) ;
#131 = ORIENTED_EDGE ( 'NONE', *, *, #161, .T. ) ;
#132 = LENGTH_MEASURE_WITH_UNIT ( LENGTH_MEASURE( 0.02539999999999999897 ), #256 );
#133 = EDGE_CURVE ( 'NONE', #144, #288, #178, .T. ) ;
#134 = APPLICATION_CONTEXT ( 'automotive_design' ) ;
#135 = COLOUR_RGB ( '',0.7921568627450980005, 0.8196078431372548767, 0.9333333333333333481 ) ;
#136 = DIRECTION ( 'NONE',  ( -1.224646799147353207E-16, -0.0000000000000000000, -1.000000000000000000 ) ) ;
#137 = CARTESIAN_POINT ( 'NONE',  ( 0.09365624999999999645, 1.146958267826442798E-17, -1.146958267826442798E-17 ) ) ;
#138 = CARTESIAN_POINT ( 'NONE',  ( 0.1099999999999996397, 1.438959988998137757E-17, 2.000000000000000000 ) ) ;
#139 = DIMENSIONAL_EXPONENTS ( 1.000000000000000000, 0.0000000000000000000, 0.0000000000000000000, 0.0000000000000000000, 0.0000000000000000000, 0.0000000000000000000, 0.0000000000000000000 ) ;
#140 = EDGE_CURVE ( 'NONE', #213, #250, #273, .T. ) ;
#141 = DIRECTION ( 'NONE',  ( -0.0000000000000000000, -0.0000000000000000000, -1.000000000000000000 ) ) ;
#142 = CIRCLE ( 'NONE', #185, 0.1250000000000000000 ) ;
#143 = VERTEX_POINT ( 'NONE', #40 ) ;
#144 = VERTEX_POINT ( 'NONE', #126 ) ;
#145 = EDGE_CURVE ( 'NONE', #8, #176, #151, .T. ) ;
#146 = ORIENTED_EDGE ( 'NONE', *, *, #173, .F. ) ;
#147 = DIRECTION ( 'NONE',  ( 0.0000000000000000000, 0.0000000000000000000, -1.000000000000000000 ) ) ;
#148 = DIRECTION ( 'NONE',  ( 0.0000000000000000000, 0.0000000000000000000, -1.000000000000000000 ) ) ;
#149 = DIRECTION ( 'NONE',  ( -1.224646799147353207E-16, -0.0000000000000000000, -1.000000000000000000 ) ) ;
#150 = DIRECTION ( 'NONE',  ( -1.000000000000000000, 0.0000000000000000000, 1.224646799147352961E-16 ) ) ;
#151 = CIRCLE ( 'NONE', #59, 0.09365624999999996869 ) ;
#152 = DIRECTION ( 'NONE',  ( -1.224646799147353207E-16, -0.0000000000000000000, -1.000000000000000000 ) ) ;
#153 = EDGE_CURVE ( 'NONE', #240, #119, #166, .T. ) ;
#154 = EDGE_LOOP ( 'NONE', ( #11, #54, #73, #274 ) ) ;
#155 = VECTOR ( 'NONE', #83, 39.37007874015748143 ) ;
#156 = SURFACE_STYLE_USAGE ( .BOTH. , #279 ) ;
#157 = SURFACE_STYLE_FILL_AREA ( #181 ) ;
#158 = CARTESIAN_POINT ( 'NONE',  ( 0.0000000000000000000, 0.0000000000000000000, 2.000000000000000000 ) ) ;
#159 = CONICAL_SURFACE ( 'NONE', #63, 0.09365624999999996869, 0.1745329251994339470 ) ;
#160 = ORIENTED_EDGE ( 'NONE', *, *, #85, .F. ) ;
#161 = EDGE_CURVE ( 'NONE', #250, #213, #87, .T. ) ;
#162 =( NAMED_UNIT ( * ) PLANE_ANGLE_UNIT ( ) SI_UNIT ( $, .RADIAN. ) );
#163 = DIRECTION ( 'NONE',  ( 1.000000000000000000, 0.0000000000000000000, -0.0000000000000000000 ) ) ;
#164 = PLANE ( 'NONE',  #201 ) ;
#165 = VECTOR ( 'NONE', #136, 39.37007874015748143 ) ;
#166 = CIRCLE ( 'NONE', #37, 0.1250000000000000000 ) ;
#167 = ORIENTED_EDGE ( 'NONE', *, *, #276, .T. ) ;
#168 = ADVANCED_FACE ( 'NONE', ( #249 ), #111, .T. ) ;
#169 = FACE_OUTER_BOUND ( 'NONE', #212, .T. ) ;
#170 = DIRECTION ( 'NONE',  ( 1.000000000000000000, 0.0000000000000000000, 0.0000000000000000000 ) ) ;
#171 = DIRECTION ( 'NONE',  ( 1.224646799147353207E-16, 0.0000000000000000000, 1.000000000000000000 ) ) ;
#172 = STYLED_ITEM ( 'NONE', ( #34 ), #233 ) ;
#173 = EDGE_CURVE ( 'NONE', #240, #213, #84, .T. ) ;
#174 = CARTESIAN_POINT ( 'NONE',  ( 9.830965331808376686E-17, 0.0000000000000000000, 0.8027592395336416997 ) ) ;
#175 = DIRECTION ( 'NONE',  ( -0.0000000000000000000, -0.0000000000000000000, -1.000000000000000000 ) ) ;
#176 = VERTEX_POINT ( 'NONE', #218 ) ;
#177 = DIRECTION ( 'NONE',  ( -1.224646799147353207E-16, -0.0000000000000000000, -1.000000000000000000 ) ) ;
#178 = CIRCLE ( 'NONE', #189, 0.09365624999999999645 ) ;
#179 = ORIENTED_EDGE ( 'NONE', *, *, #153, .F. ) ;
#180 = AXIS2_PLACEMENT_3D ( 'NONE', #62, #272, #150 ) ;
#181 = FILL_AREA_STYLE ('',( #200 ) ) ;
#182 = CARTESIAN_POINT ( 'NONE',  ( 0.1250000000000001110, 1.530808498934192742E-17, 0.8027592395336416997 ) ) ;
#183 = ADVANCED_FACE ( 'NONE', ( #86 ), #130, .T. ) ;
#184 = AXIS2_PLACEMENT_3D ( 'NONE', #265, #243, #97 ) ;
#185 = AXIS2_PLACEMENT_3D ( 'NONE', #290, #147, #220 ) ;
#186 = FACE_OUTER_BOUND ( 'NONE', #192, .T. ) ;
#187 = ORIENTED_EDGE ( 'NONE', *, *, #209, .F. ) ;
#188 = ORIENTED_EDGE ( 'NONE', *, *, #204, .T. ) ;
#189 = AXIS2_PLACEMENT_3D ( 'NONE', #294, #196, #267 ) ;
#190 = DIRECTION ( 'NONE',  ( -1.000000000000000000, 0.0000000000000000000, 0.0000000000000000000 ) ) ;
#191 = CARTESIAN_POINT ( 'NONE',  ( 7.654042494670957853E-17, 0.0000000000000000000, 0.6250000000000000000 ) ) ;
#192 = EDGE_LOOP ( 'NONE', ( #102, #122, #74, #88 ) ) ;
#193 = APPLICATION_CONTEXT ( 'automotive_design' ) ;
#194 = LINE ( 'NONE', #58, #155 ) ;
#195 = EDGE_CURVE ( 'NONE', #143, #13, #248, .T. ) ;
#196 = DIRECTION ( 'NONE',  ( -1.224646799147353207E-16, -0.0000000000000000000, -1.000000000000000000 ) ) ;
#197 = AXIS2_PLACEMENT_3D ( 'NONE', #247, #129, #18 ) ;
#198 = DIRECTION ( 'NONE',  ( 1.000000000000000000, 0.0000000000000000000, -0.0000000000000000000 ) ) ;
#199 = FACE_OUTER_BOUND ( 'NONE', #103, .T. ) ;
#200 = FILL_AREA_STYLE_COLOUR ( '', #277 ) ;
#201 = AXIS2_PLACEMENT_3D ( 'NONE', #237, #100, #163 ) ;
#202 = AXIS2_PLACEMENT_3D ( 'NONE', #158, #278, #116 ) ;
#203 = UNCERTAINTY_MEASURE_WITH_UNIT (LENGTH_MEASURE( 1.000000000000000082E-05 ), #299, 'distance_accuracy_value', 'NONE');
#204 = EDGE_CURVE ( 'NONE', #119, #250, #24, .T. ) ;
#205 =( NAMED_UNIT ( * ) SI_UNIT ( $, .STERADIAN. ) SOLID_ANGLE_UNIT ( ) );
#206 = PRESENTATION_LAYER_ASSIGNMENT (  '', '', ( #93 ) ) ;
#207 = LINE ( 'NONE', #22, #46 ) ;
#208 = DIRECTION ( 'NONE',  ( 1.000000000000000000, 0.0000000000000000000, 0.0000000000000000000 ) ) ;
#209 = EDGE_CURVE ( 'NONE', #13, #143, #298, .T. ) ;
#210 = SURFACE_STYLE_FILL_AREA ( #214 ) ;
#211 = ORIENTED_EDGE ( 'NONE', *, *, #195, .T. ) ;
#212 = EDGE_LOOP ( 'NONE', ( #21, #285, #264, #65 ) ) ;
#213 = VERTEX_POINT ( 'NONE', #297 ) ;
#214 = FILL_AREA_STYLE ('',( #31 ) ) ;
#215 = FACE_OUTER_BOUND ( 'NONE', #80, .T. ) ;
#216 = AXIS2_PLACEMENT_3D ( 'NONE', #105, #81, #198 ) ;
#217 = EDGE_LOOP ( 'NONE', ( #286, #188, #226, #146 ) ) ;
#218 = CARTESIAN_POINT ( 'NONE',  ( -0.09365624999999991318, 1.338883383380317076E-17, 0.6250000000000000000 ) ) ;
#219 = PRODUCT_DEFINITION ( 'UNKNOWN', '', #291, #254 ) ;
#220 = DIRECTION ( 'NONE',  ( 1.000000000000000000, 0.0000000000000000000, 0.0000000000000000000 ) ) ;
#221 = CARTESIAN_POINT ( 'NONE',  ( 0.0000000000000000000, 0.0000000000000000000, 2.000000000000000000 ) ) ;
#222 = MECHANICAL_DESIGN_GEOMETRIC_PRESENTATION_REPRESENTATION (  '', ( #172 ), #255 ) ;
#223 = EDGE_CURVE ( 'NONE', #8, #288, #227, .T. ) ;
#224 = CARTESIAN_POINT ( 'NONE',  ( 0.0000000000000000000, 0.0000000000000000000, 2.000000000000000000 ) ) ;
#225 = DIRECTION ( 'NONE',  ( 1.000000000000000000, 0.0000000000000000000, 0.0000000000000000000 ) ) ;
#226 = ORIENTED_EDGE ( 'NONE', *, *, #140, .F. ) ;
#227 = LINE ( 'NONE', #137, #165 ) ;
#228 = VECTOR ( 'NONE', #94, 39.37007874015748143 ) ;
#229 = LINE ( 'NONE', #71, #55 ) ;
#230 = EDGE_CURVE ( 'NONE', #176, #144, #48, .T. ) ;
#231 =( NAMED_UNIT ( * ) SI_UNIT ( $, .STERADIAN. ) SOLID_ANGLE_UNIT ( ) );
#232 =( LENGTH_UNIT ( ) NAMED_UNIT ( * ) SI_UNIT ( $, .METRE. ) );
#233 = ADVANCED_BREP_SHAPE_REPRESENTATION ( 'Micro_RDE-50', ( #270, #118 ), #282 ) ;
#234 = CIRCLE ( 'NONE', #110, 0.09365624999999999645 ) ;
#235 = PRODUCT ( 'Micro_RDE-50', 'Micro_RDE-50', '', ( #52 ) ) ;
#236 =( CONVERSION_BASED_UNIT ( 'INCH', #67 ) LENGTH_UNIT ( ) NAMED_UNIT ( #139 ) );
#237 = CARTESIAN_POINT ( 'NONE',  ( 0.0000000000000000000, 0.0000000000000000000, 2.000000000000000000 ) ) ;
#238 = DIRECTION ( 'NONE',  ( -1.000000000000000000, 0.0000000000000000000, 0.0000000000000000000 ) ) ;
#239 = AXIS2_PLACEMENT_3D ( 'NONE', #221, #125, #61 ) ;
#240 = VERTEX_POINT ( 'NONE', #68 ) ;
#241 = CARTESIAN_POINT ( 'NONE',  ( 0.0000000000000000000, 0.0000000000000000000, 0.0000000000000000000 ) ) ;
#242 = CARTESIAN_POINT ( 'NONE',  ( 1.404618771449245766E-33, 0.0000000000000000000, 1.146958267826442798E-17 ) ) ;
#243 = DIRECTION ( 'NONE',  ( -1.224646799147353207E-16, -0.0000000000000000000, -1.000000000000000000 ) ) ;
#244 = CARTESIAN_POINT ( 'NONE',  ( 7.654042494670957853E-17, 0.0000000000000000000, 0.6250000000000000000 ) ) ;
#245 = DIRECTION ( 'NONE',  ( -1.000000000000000000, 0.0000000000000000000, 0.0000000000000000000 ) ) ;
#246 = CARTESIAN_POINT ( 'NONE',  ( 0.1250000000000000000, 1.530808498934191509E-17, 1.984999999999999432 ) ) ;
#247 = CARTESIAN_POINT ( 'NONE',  ( 0.0000000000000000000, 0.0000000000000000000, 2.000000000000000000 ) ) ;
#248 = CIRCLE ( 'NONE', #197, 0.1099999999999996397 ) ;
#249 = FACE_OUTER_BOUND ( 'NONE', #44, .T. ) ;
#250 = VERTEX_POINT ( 'NONE', #182 ) ;
#251 = DIRECTION ( 'NONE',  ( 0.7071067811865434649, 8.659560562354883554E-17, -0.7071067811865515695 ) ) ;
#252 =( NAMED_UNIT ( * ) PLANE_ANGLE_UNIT ( ) SI_UNIT ( $, .RADIAN. ) );
#253 = EDGE_CURVE ( 'NONE', #8, #250, #207, .T. ) ;
#254 = PRODUCT_DEFINITION_CONTEXT ( 'detailed design', #193, 'design' ) ;
#255 =( GEOMETRIC_REPRESENTATION_CONTEXT ( 3 ) GLOBAL_UNCERTAINTY_ASSIGNED_CONTEXT ( ( #91 ) ) GLOBAL_UNIT_ASSIGNED_CONTEXT ( ( #29, #162, #7 ) ) REPRESENTATION_CONTEXT ( 'NONE', 'WORKASPACE' ) );
#256 =( LENGTH_UNIT ( ) NAMED_UNIT ( * ) SI_UNIT ( $, .METRE. ) );
#257 = DIRECTION ( 'NONE',  ( -0.0000000000000000000, -0.0000000000000000000, -1.000000000000000000 ) ) ;
#258 = AXIS2_PLACEMENT_3D ( 'NONE', #224, #14, #245 ) ;
#259 = ORIENTED_EDGE ( 'NONE', *, *, #140, .T. ) ;
#260 = DIRECTION ( 'NONE',  ( 0.0000000000000000000, 0.0000000000000000000, 1.000000000000000000 ) ) ;
#261 = CARTESIAN_POINT ( 'NONE',  ( 0.0000000000000000000, 0.0000000000000000000, 2.000000000000000000 ) ) ;
#262 = CARTESIAN_POINT ( 'NONE',  ( 0.0000000000000000000, 0.0000000000000000000, 2.000000000000000000 ) ) ;
#263 = VECTOR ( 'NONE', #293, 39.37007874015748143 ) ;
#264 = ORIENTED_EDGE ( 'NONE', *, *, #133, .F. ) ;
#265 = CARTESIAN_POINT ( 'NONE',  ( 0.0000000000000000000, 0.0000000000000000000, 0.0000000000000000000 ) ) ;
#266 = CARTESIAN_POINT ( 'NONE',  ( 7.654042494670957853E-17, 0.0000000000000000000, 0.6250000000000000000 ) ) ;
#267 = DIRECTION ( 'NONE',  ( -1.000000000000000000, 0.0000000000000000000, 1.224646799147352961E-16 ) ) ;
#268 = DIRECTION ( 'NONE',  ( 1.000000000000000000, 0.0000000000000000000, 0.0000000000000000000 ) ) ;
#269 = CARTESIAN_POINT ( 'NONE',  ( -0.1250000000000000000, 0.0000000000000000000, 2.000000000000000000 ) ) ;
#270 = MANIFOLD_SOLID_BREP ( 'Cut-Revolve1', #106 ) ;
#271 = CONICAL_SURFACE ( 'NONE', #72, 0.1099999999999996397, 0.7853981633974426169 ) ;
#272 = DIRECTION ( 'NONE',  ( -1.224646799147353207E-16, -0.0000000000000000000, -1.000000000000000000 ) ) ;
#273 = CIRCLE ( 'NONE', #23, 0.1250000000000000000 ) ;
#274 = ORIENTED_EDGE ( 'NONE', *, *, #10, .F. ) ;
#275 = CARTESIAN_POINT ( 'NONE',  ( 0.1250000000000000000, 1.530808498934191509E-17, 2.000000000000000000 ) ) ;
#276 = EDGE_CURVE ( 'NONE', #13, #119, #229, .T. ) ;
#277 = COLOUR_RGB ( '',0.7921568627450980005, 0.8196078431372548767, 0.9333333333333333481 ) ;
#278 = DIRECTION ( 'NONE',  ( 0.0000000000000000000, 0.0000000000000000000, 1.000000000000000000 ) ) ;
#279 = SURFACE_SIDE_STYLE ('',( #157 ) ) ;
#280 = SURFACE_SIDE_STYLE ('',( #210 ) ) ;
#281 = ORIENTED_EDGE ( 'NONE', *, *, #253, .T. ) ;
#282 =( GEOMETRIC_REPRESENTATION_CONTEXT ( 3 ) GLOBAL_UNCERTAINTY_ASSIGNED_CONTEXT ( ( #203 ) ) GLOBAL_UNIT_ASSIGNED_CONTEXT ( ( #299, #252, #231 ) ) REPRESENTATION_CONTEXT ( 'NONE', 'WORKASPACE' ) );
#283 = CYLINDRICAL_SURFACE ( 'NONE', #5, 0.1250000000000000000 ) ;
#284 = DIMENSIONAL_EXPONENTS ( 1.000000000000000000, 0.0000000000000000000, 0.0000000000000000000, 0.0000000000000000000, 0.0000000000000000000, 0.0000000000000000000, 0.0000000000000000000 ) ;
#285 = ORIENTED_EDGE ( 'NONE', *, *, #223, .T. ) ;
#286 = ORIENTED_EDGE ( 'NONE', *, *, #153, .T. ) ;
#287 = CIRCLE ( 'NONE', #128, 0.09365624999999996869 ) ;
#288 = VERTEX_POINT ( 'NONE', #47 ) ;
#289 = DIRECTION ( 'NONE',  ( 1.000000000000000000, 0.0000000000000000000, 0.0000000000000000000 ) ) ;
#290 = CARTESIAN_POINT ( 'NONE',  ( 0.0000000000000000000, 0.0000000000000000000, 1.984999999999999432 ) ) ;
#291 = PRODUCT_DEFINITION_FORMATION_WITH_SPECIFIED_SOURCE ( 'ANY', '', #235, .NOT_KNOWN. ) ;
#292 = CARTESIAN_POINT ( 'NONE',  ( 9.830965331808376686E-17, 0.0000000000000000000, 0.8027592395336416997 ) ) ;
#293 = DIRECTION ( 'NONE',  ( -0.7071067811865434649, 0.0000000000000000000, -0.7071067811865515695 ) ) ;
#294 = CARTESIAN_POINT ( 'NONE',  ( 1.404618771449245766E-33, 0.0000000000000000000, 1.146958267826442798E-17 ) ) ;
#295 = PRODUCT_DEFINITION_SHAPE ( 'NONE', 'NONE',  #219 ) ;
#296 = ORIENTED_EDGE ( 'NONE', *, *, #95, .T. ) ;
#297 = CARTESIAN_POINT ( 'NONE',  ( -0.1249999999999999029, 0.0000000000000000000, 0.8027592395336416997 ) ) ;
#298 = CIRCLE ( 'NONE', #202, 0.1099999999999996397 ) ;
#299 =( CONVERSION_BASED_UNIT ( 'INCH', #132 ) LENGTH_UNIT ( ) NAMED_UNIT ( #66 ) );
ENDSEC;
END-ISO-10303-21;
