ISO-10303-21;
HEADER;
FILE_DESCRIPTION (( 'STEP AP214' ),
    '1' );
FILE_NAME ('Micro_SFLM-120-10.STEP',
    '2021-09-02T05:53:20',
    ( '' ),
    ( '' ),
    'SwSTEP 2.0',
    'SolidWorks 2020',
    '' );
FILE_SCHEMA (( 'AUTOMOTIVE_DESIGN' ));
ENDSEC;

DATA;
#1 = ORIENTED_EDGE ( 'NONE', *, *, #131, .F. ) ;
#2 = DIRECTION ( 'NONE',  ( 1.000000000000000000, 0.0000000000000000000, 0.0000000000000000000 ) ) ;
#3 = AXIS2_PLACEMENT_3D ( 'NONE', #104, #22, #149 ) ;
#4 = EDGE_LOOP ( 'NONE', ( #221, #253, #284, #140 ) ) ;
#5 = ORIENTED_EDGE ( 'NONE', *, *, #235, .T. ) ;
#6 = ORIENTED_EDGE ( 'NONE', *, *, #235, .F. ) ;
#7 = AXIS2_PLACEMENT_3D ( 'NONE', #35, #223, #236 ) ;
#8 = CYLINDRICAL_SURFACE ( 'NONE', #255, 0.2359842794999999771 ) ;
#9 = CARTESIAN_POINT ( 'NONE',  ( 0.2362204999999999999, 2.892866792179872647E-17, 3.252717000000002301 ) ) ;
#10 = VERTEX_POINT ( 'NONE', #125 ) ;
#11 = APPLICATION_CONTEXT ( 'automotive_design' ) ;
#12 = VECTOR ( 'NONE', #241, 39.37007874015748854 ) ;
#13 = EDGE_LOOP ( 'NONE', ( #276, #232 ) ) ;
#14 = CARTESIAN_POINT ( 'NONE',  ( 1.446432783766537492E-16, 0.0000000000000000000, 1.181102000000000096 ) ) ;
#15 = DIRECTION ( 'NONE',  ( -1.224646799147353454E-16, -0.0000000000000000000, -1.000000000000000000 ) ) ;
#16 = PRODUCT_RELATED_PRODUCT_CATEGORY ( 'part', '', ( #101 ) ) ;
#17 = CIRCLE ( 'NONE', #252, 0.2212205000000019295 ) ;
#18 = LINE ( 'NONE', #109, #268 ) ;
#19 = DIRECTION ( 'NONE',  ( -1.224646799147353454E-16, -0.0000000000000000000, -1.000000000000000000 ) ) ;
#20 = CARTESIAN_POINT ( 'NONE',  ( -0.2212205000000019295, 0.0000000000000000000, 3.267717000000000649 ) ) ;
#21 = ADVANCED_FACE ( 'NONE', ( #145 ), #8, .T. ) ;
#22 = DIRECTION ( 'NONE',  ( 0.0000000000000000000, 0.0000000000000000000, -1.000000000000000000 ) ) ;
#23 = VERTEX_POINT ( 'NONE', #170 ) ;
#24 = EDGE_LOOP ( 'NONE', ( #116, #96, #297, #6 ) ) ;
#25 = UNCERTAINTY_MEASURE_WITH_UNIT (LENGTH_MEASURE( 1.000000000000000082E-05 ), #126, 'distance_accuracy_value', 'NONE');
#26 = ORIENTED_EDGE ( 'NONE', *, *, #108, .T. ) ;
#27 = AXIS2_PLACEMENT_3D ( 'NONE', #178, #267, #133 ) ;
#28 = ORIENTED_EDGE ( 'NONE', *, *, #203, .F. ) ;
#29 = UNCERTAINTY_MEASURE_WITH_UNIT (LENGTH_MEASURE( 1.000000000000000082E-05 ), #250, 'distance_accuracy_value', 'NONE');
#30 = DIRECTION ( 'NONE',  ( 0.1736481776669313859, 0.0000000000000000000, 0.9848077530122077983 ) ) ;
#31 = DIRECTION ( 'NONE',  ( -1.000000000000000000, 0.0000000000000000000, 1.224646799147353454E-16 ) ) ;
#32 = AXIS2_PLACEMENT_3D ( 'NONE', #249, #182, #246 ) ;
#33 = FACE_OUTER_BOUND ( 'NONE', #190, .T. ) ;
#34 = DIRECTION ( 'NONE',  ( -1.224646799147353454E-16, -0.0000000000000000000, -1.000000000000000000 ) ) ;
#35 = CARTESIAN_POINT ( 'NONE',  ( 1.446432783766537492E-16, 0.0000000000000000000, 1.181102000000000096 ) ) ;
#36 = COLOUR_RGB ( '',0.7921568627450980005, 0.8196078431372548767, 0.9333333333333333481 ) ;
#37 = CARTESIAN_POINT ( 'NONE',  ( 3.539197317345351889E-33, 0.0000000000000000000, 2.889973925387693713E-17 ) ) ;
#38 = DIRECTION ( 'NONE',  ( -0.1736481776669311916, 2.126576849575783316E-17, 0.9848077530122080203 ) ) ;
#39 = SURFACE_STYLE_FILL_AREA ( #239 ) ;
#40 = CARTESIAN_POINT ( 'NONE',  ( -0.2359842794999999771, 0.0000000000000000000, 2.889973925387693713E-17 ) ) ;
#41 = LINE ( 'NONE', #20, #139 ) ;
#42 = CIRCLE ( 'NONE', #144, 0.2359842795000000049 ) ;
#43 = STYLED_ITEM ( 'NONE', ( #97 ), #194 ) ;
#44 = ORIENTED_EDGE ( 'NONE', *, *, #254, .F. ) ;
#45 = CIRCLE ( 'NONE', #175, 0.2359842794999999771 ) ;
#46 = CARTESIAN_POINT ( 'NONE',  ( 0.0000000000000000000, 0.0000000000000000000, 3.267717000000000649 ) ) ;
#47 = VERTEX_POINT ( 'NONE', #9 ) ;
#48 = CARTESIAN_POINT ( 'NONE',  ( -0.2359842794999998661, 2.891420358783783796E-17, 1.181102000000000096 ) ) ;
#49 = DIRECTION ( 'NONE',  ( -0.0000000000000000000, -0.0000000000000000000, -1.000000000000000000 ) ) ;
#50 = EDGE_CURVE ( 'NONE', #260, #216, #202, .T. ) ;
#51 = CIRCLE ( 'NONE', #291, 0.2359842795000000049 ) ;
#52 = EDGE_LOOP ( 'NONE', ( #86, #26, #263, #278 ) ) ;
#53 = DIRECTION ( 'NONE',  ( -1.224646799147353454E-16, -0.0000000000000000000, -1.000000000000000000 ) ) ;
#54 = PRODUCT_DEFINITION_SHAPE ( 'NONE', 'NONE',  #103 ) ;
#55 = PRESENTATION_LAYER_ASSIGNMENT (  '', '', ( #43 ) ) ;
#56 = EDGE_CURVE ( 'NONE', #23, #167, #243, .T. ) ;
#57 = DIRECTION ( 'NONE',  ( 1.000000000000000000, 0.0000000000000000000, 0.0000000000000000000 ) ) ;
#58 = DIRECTION ( 'NONE',  ( -0.7071067811865474617, 0.0000000000000000000, -0.7071067811865474617 ) ) ;
#59 = ADVANCED_FACE ( 'NONE', ( #197 ), #233, .T. ) ;
#60 = DIRECTION ( 'NONE',  ( 1.000000000000000000, 0.0000000000000000000, -0.0000000000000000000 ) ) ;
#61 = CIRCLE ( 'NONE', #220, 0.2362204999999999999 ) ;
#62 = LINE ( 'NONE', #106, #211 ) ;
#63 = CIRCLE ( 'NONE', #277, 0.2362204999999999999 ) ;
#64 = FILL_AREA_STYLE_COLOUR ( '', #118 ) ;
#65 = EDGE_LOOP ( 'NONE', ( #95, #123 ) ) ;
#66 = ADVANCED_FACE ( 'NONE', ( #279 ), #85, .T. ) ;
#67 = CYLINDRICAL_SURFACE ( 'NONE', #228, 0.2362204999999999999 ) ;
#68 = AXIS2_PLACEMENT_3D ( 'NONE', #46, #288, #2 ) ;
#69 = ORIENTED_EDGE ( 'NONE', *, *, #199, .F. ) ;
#70 = DIRECTION ( 'NONE',  ( 1.000000000000000000, 0.0000000000000000000, 0.0000000000000000000 ) ) ;
#71 = ORIENTED_EDGE ( 'NONE', *, *, #50, .T. ) ;
#72 = ADVANCED_FACE ( 'NONE', ( #200 ), #67, .T. ) ;
#73 = CARTESIAN_POINT ( 'NONE',  ( -0.2362204999999999999, 0.0000000000000000000, 3.267717000000000649 ) ) ;
#74 =( GEOMETRIC_REPRESENTATION_CONTEXT ( 3 ) GLOBAL_UNCERTAINTY_ASSIGNED_CONTEXT ( ( #29 ) ) GLOBAL_UNIT_ASSIGNED_CONTEXT ( ( #250, #164, #142 ) ) REPRESENTATION_CONTEXT ( 'NONE', 'WORKASPACE' ) );
#75 = VERTEX_POINT ( 'NONE', #48 ) ;
#76 = FACE_OUTER_BOUND ( 'NONE', #4, .T. ) ;
#77 = CARTESIAN_POINT ( 'NONE',  ( 0.2359842794999999771, 2.889973925387693713E-17, 0.0000000000000000000 ) ) ;
#78 = CARTESIAN_POINT ( 'NONE',  ( 0.0000000000000000000, 0.0000000000000000000, 3.267717000000000649 ) ) ;
#79 = MECHANICAL_DESIGN_GEOMETRIC_PRESENTATION_REPRESENTATION (  '', ( #43 ), #272 ) ;
#80 = DIRECTION ( 'NONE',  ( -1.000000000000000000, 0.0000000000000000000, 1.224646799147353454E-16 ) ) ;
#81 = DIRECTION ( 'NONE',  ( 0.0000000000000000000, 0.0000000000000000000, -1.000000000000000000 ) ) ;
#82 = FACE_OUTER_BOUND ( 'NONE', #13, .T. ) ;
#83 = SHAPE_DEFINITION_REPRESENTATION ( #54, #94 ) ;
#84 = DIRECTION ( 'NONE',  ( -1.224646799147353454E-16, -0.0000000000000000000, -1.000000000000000000 ) ) ;
#85 = CONICAL_SURFACE ( 'NONE', #7, 0.2359842795000000049, 0.1745329251994338915 ) ;
#86 = ORIENTED_EDGE ( 'NONE', *, *, #209, .F. ) ;
#87 = EDGE_CURVE ( 'NONE', #260, #75, #51, .T. ) ;
#88 = EDGE_LOOP ( 'NONE', ( #204, #152, #44, #274 ) ) ;
#89 = DIMENSIONAL_EXPONENTS ( 1.000000000000000000, 0.0000000000000000000, 0.0000000000000000000, 0.0000000000000000000, 0.0000000000000000000, 0.0000000000000000000, 0.0000000000000000000 ) ;
#90 = ORIENTED_EDGE ( 'NONE', *, *, #189, .F. ) ;
#91 = VECTOR ( 'NONE', #19, 39.37007874015748143 ) ;
#92 = AXIS2_PLACEMENT_3D ( 'NONE', #212, #111, #231 ) ;
#93 = DIRECTION ( 'NONE',  ( -1.000000000000000000, 0.0000000000000000000, 1.224646799147353454E-16 ) ) ;
#94 = ADVANCED_BREP_SHAPE_REPRESENTATION ( 'Micro_SFLM-120-10', ( #194, #92 ), #74 ) ;
#95 = ORIENTED_EDGE ( 'NONE', *, *, #151, .T. ) ;
#96 = ORIENTED_EDGE ( 'NONE', *, *, #131, .T. ) ;
#97 = PRESENTATION_STYLE_ASSIGNMENT (( #198 ) ) ;
#98 = CARTESIAN_POINT ( 'NONE',  ( 0.2359842795000001436, 0.0000000000000000000, 1.181102000000000096 ) ) ;
#99 = ORIENTED_EDGE ( 'NONE', *, *, #87, .T. ) ;
#100 = ORIENTED_EDGE ( 'NONE', *, *, #266, .T. ) ;
#101 = PRODUCT ( 'Micro_SFLM-120-10', 'Micro_SFLM-120-10', '', ( #161 ) ) ;
#102 = CIRCLE ( 'NONE', #3, 0.2362204999999999999 ) ;
#103 = PRODUCT_DEFINITION ( 'UNKNOWN', '', #259, #196 ) ;
#104 = CARTESIAN_POINT ( 'NONE',  ( 0.0000000000000000000, 0.0000000000000000000, 3.252717000000002301 ) ) ;
#105 = CARTESIAN_POINT ( 'NONE',  ( 0.0000000000000000000, 0.0000000000000000000, 3.252717000000002301 ) ) ;
#106 = CARTESIAN_POINT ( 'NONE',  ( -0.2359842794999998661, 2.889973925387693713E-17, 1.181102000000000096 ) ) ;
#107 = CIRCLE ( 'NONE', #132, 0.2359842794999999771 ) ;
#108 = EDGE_CURVE ( 'NONE', #146, #47, #201, .T. ) ;
#109 = CARTESIAN_POINT ( 'NONE',  ( 0.2362204999999999999, 2.892866792179872647E-17, 3.267717000000000649 ) ) ;
#110 = PLANE ( 'NONE',  #117 ) ;
#111 = DIRECTION ( 'NONE',  ( 0.0000000000000000000, 0.0000000000000000000, 1.000000000000000000 ) ) ;
#112 = DIMENSIONAL_EXPONENTS ( 1.000000000000000000, 0.0000000000000000000, 0.0000000000000000000, 0.0000000000000000000, 0.0000000000000000000, 0.0000000000000000000, 0.0000000000000000000 ) ;
#113 = VECTOR ( 'NONE', #15, 39.37007874015748143 ) ;
#114 = VERTEX_POINT ( 'NONE', #262 ) ;
#115 = ADVANCED_FACE ( 'NONE', ( #33 ), #124, .T. ) ;
#116 = ORIENTED_EDGE ( 'NONE', *, *, #199, .T. ) ;
#117 = AXIS2_PLACEMENT_3D ( 'NONE', #187, #271, #60 ) ;
#118 = COLOUR_RGB ( '',0.7921568627450980005, 0.8196078431372548767, 0.9333333333333333481 ) ;
#119 = DIRECTION ( 'NONE',  ( 1.000000000000000000, 0.0000000000000000000, 0.0000000000000000000 ) ) ;
#120 = CARTESIAN_POINT ( 'NONE',  ( 1.446432783766537492E-16, 0.0000000000000000000, 1.181102000000000096 ) ) ;
#121 = AXIS2_PLACEMENT_3D ( 'NONE', #205, #154, #244 ) ;
#122 = ADVANCED_FACE ( 'NONE', ( #270 ), #296, .T. ) ;
#123 = ORIENTED_EDGE ( 'NONE', *, *, #189, .T. ) ;
#124 = CYLINDRICAL_SURFACE ( 'NONE', #224, 0.2359842794999999771 ) ;
#125 = CARTESIAN_POINT ( 'NONE',  ( -0.2359842794999999771, 0.0000000000000000000, 5.779947850775387426E-17 ) ) ;
#126 =( CONVERSION_BASED_UNIT ( 'INCH', #135 ) LENGTH_UNIT ( ) NAMED_UNIT ( #298 ) );
#127 = DIRECTION ( 'NONE',  ( -1.224646799147353454E-16, -0.0000000000000000000, -1.000000000000000000 ) ) ;
#128 = CARTESIAN_POINT ( 'NONE',  ( 0.2359842794999999771, 2.889973925387693713E-17, -2.889973925387693713E-17 ) ) ;
#129 = CARTESIAN_POINT ( 'NONE',  ( -0.2362204999999998611, 0.0000000000000000000, 1.182441673027071039 ) ) ;
#130 = DIRECTION ( 'NONE',  ( -0.0000000000000000000, -0.0000000000000000000, -1.000000000000000000 ) ) ;
#131 = EDGE_CURVE ( 'NONE', #260, #234, #229, .T. ) ;
#132 = AXIS2_PLACEMENT_3D ( 'NONE', #37, #127, #93 ) ;
#133 = DIRECTION ( 'NONE',  ( -1.000000000000000000, 0.0000000000000000000, 0.0000000000000000000 ) ) ;
#134 =( GEOMETRIC_REPRESENTATION_CONTEXT ( 3 ) GLOBAL_UNCERTAINTY_ASSIGNED_CONTEXT ( ( #25 ) ) GLOBAL_UNIT_ASSIGNED_CONTEXT ( ( #126, #185, #293 ) ) REPRESENTATION_CONTEXT ( 'NONE', 'WORKASPACE' ) );
#135 = LENGTH_MEASURE_WITH_UNIT ( LENGTH_MEASURE( 0.02539999999999999897 ), #248 );
#136 = FACE_OUTER_BOUND ( 'NONE', #65, .T. ) ;
#137 = CARTESIAN_POINT ( 'NONE',  ( 0.2212205000000019295, 2.801018282243833685E-17, 3.267717000000000649 ) ) ;
#138 = ADVANCED_FACE ( 'NONE', ( #82 ), #110, .T. ) ;
#139 = VECTOR ( 'NONE', #58, 39.37007874015748854 ) ;
#140 = ORIENTED_EDGE ( 'NONE', *, *, #266, .F. ) ;
#141 = DIRECTION ( 'NONE',  ( -1.000000000000000000, 0.0000000000000000000, 1.224646799147353454E-16 ) ) ;
#142 =( NAMED_UNIT ( * ) SI_UNIT ( $, .STERADIAN. ) SOLID_ANGLE_UNIT ( ) );
#143 = ORIENTED_EDGE ( 'NONE', *, *, #172, .F. ) ;
#144 = AXIS2_PLACEMENT_3D ( 'NONE', #14, #84, #184 ) ;
#145 = FACE_OUTER_BOUND ( 'NONE', #24, .T. ) ;
#146 = VERTEX_POINT ( 'NONE', #137 ) ;
#147 = ADVANCED_FACE ( 'NONE', ( #76 ), #256, .T. ) ;
#148 = ORIENTED_EDGE ( 'NONE', *, *, #56, .T. ) ;
#149 = DIRECTION ( 'NONE',  ( 1.000000000000000000, 0.0000000000000000000, 0.0000000000000000000 ) ) ;
#150 = EDGE_LOOP ( 'NONE', ( #219, #191, #71, #265 ) ) ;
#151 = EDGE_CURVE ( 'NONE', #10, #234, #107, .T. ) ;
#152 = ORIENTED_EDGE ( 'NONE', *, *, #203, .T. ) ;
#153 =( NAMED_UNIT ( * ) PLANE_ANGLE_UNIT ( ) SI_UNIT ( $, .RADIAN. ) );
#154 = DIRECTION ( 'NONE',  ( 0.0000000000000000000, 0.0000000000000000000, -1.000000000000000000 ) ) ;
#155 = APPLICATION_PROTOCOL_DEFINITION ( 'draft international standard', 'automotive_design', 1998, #11 ) ;
#156 = MECHANICAL_DESIGN_GEOMETRIC_PRESENTATION_REPRESENTATION (  '', ( #215 ), #134 ) ;
#157 = DIRECTION ( 'NONE',  ( 1.000000000000000000, 0.0000000000000000000, 0.0000000000000000000 ) ) ;
#158 = SURFACE_SIDE_STYLE ('',( #225 ) ) ;
#159 = PLANE ( 'NONE',  #32 ) ;
#160 = DIRECTION ( 'NONE',  ( -1.224646799147353454E-16, -0.0000000000000000000, -1.000000000000000000 ) ) ;
#161 = PRODUCT_CONTEXT ( 'NONE', #217, 'mechanical' ) ;
#162 = LENGTH_MEASURE_WITH_UNIT ( LENGTH_MEASURE( 0.02539999999999999897 ), #165 );
#163 = FILL_AREA_STYLE ('',( #210 ) ) ;
#164 =( NAMED_UNIT ( * ) PLANE_ANGLE_UNIT ( ) SI_UNIT ( $, .RADIAN. ) );
#165 =( LENGTH_UNIT ( ) NAMED_UNIT ( * ) SI_UNIT ( $, .METRE. ) );
#166 = EDGE_CURVE ( 'NONE', #114, #146, #264, .T. ) ;
#167 = VERTEX_POINT ( 'NONE', #129 ) ;
#168 = SURFACE_SIDE_STYLE ('',( #39 ) ) ;
#169 = AXIS2_PLACEMENT_3D ( 'NONE', #214, #295, #157 ) ;
#170 = CARTESIAN_POINT ( 'NONE',  ( -0.2362204999999999999, 0.0000000000000000000, 3.252717000000002301 ) ) ;
#171 = ORIENTED_EDGE ( 'NONE', *, *, #254, .T. ) ;
#172 = EDGE_CURVE ( 'NONE', #216, #167, #61, .T. ) ;
#173 = CARTESIAN_POINT ( 'NONE',  ( 1.446432783766537492E-16, 0.0000000000000000000, 1.181102000000000096 ) ) ;
#174 = CARTESIAN_POINT ( 'NONE',  ( 0.0000000000000000000, 0.0000000000000000000, 3.267717000000000649 ) ) ;
#175 = AXIS2_PLACEMENT_3D ( 'NONE', #299, #251, #141 ) ;
#176 = EDGE_LOOP ( 'NONE', ( #28, #100, #148, #143 ) ) ;
#177 = LENGTH_MEASURE_WITH_UNIT ( LENGTH_MEASURE( 0.02539999999999999897 ), #240 );
#178 = CARTESIAN_POINT ( 'NONE',  ( 0.0000000000000000000, 0.0000000000000000000, 3.267717000000000649 ) ) ;
#179 = LINE ( 'NONE', #40, #113 ) ;
#180 = CLOSED_SHELL ( 'NONE', ( #21, #66, #122, #275, #72, #138, #147, #59, #115, #286 ) ) ;
#181 = CIRCLE ( 'NONE', #169, 0.2362204999999999999 ) ;
#182 = DIRECTION ( 'NONE',  ( 0.0000000000000000000, 0.0000000000000000000, 1.000000000000000000 ) ) ;
#183 = EDGE_CURVE ( 'NONE', #23, #47, #102, .T. ) ;
#184 = DIRECTION ( 'NONE',  ( -1.000000000000000000, 0.0000000000000000000, 0.0000000000000000000 ) ) ;
#185 =( NAMED_UNIT ( * ) PLANE_ANGLE_UNIT ( ) SI_UNIT ( $, .RADIAN. ) );
#186 = CYLINDRICAL_SURFACE ( 'NONE', #285, 0.2362204999999999999 ) ;
#187 = CARTESIAN_POINT ( 'NONE',  ( 0.0000000000000000000, 0.0000000000000000000, 3.267717000000000649 ) ) ;
#188 = CARTESIAN_POINT ( 'NONE',  ( 0.2359842795000001436, 0.0000000000000000000, 1.181102000000000096 ) ) ;
#189 = EDGE_CURVE ( 'NONE', #234, #10, #45, .T. ) ;
#190 = EDGE_LOOP ( 'NONE', ( #1, #99, #5, #90 ) ) ;
#191 = ORIENTED_EDGE ( 'NONE', *, *, #87, .F. ) ;
#192 = AXIS2_PLACEMENT_3D ( 'NONE', #173, #282, #119 ) ;
#193 = ORIENTED_EDGE ( 'NONE', *, *, #290, .T. ) ;
#194 = MANIFOLD_SOLID_BREP ( 'Cut-Revolve1', #180 ) ;
#195 = DIRECTION ( 'NONE',  ( -1.224646799147353454E-16, -0.0000000000000000000, -1.000000000000000000 ) ) ;
#196 = PRODUCT_DEFINITION_CONTEXT ( 'detailed design', #11, 'design' ) ;
#197 = FACE_OUTER_BOUND ( 'NONE', #150, .T. ) ;
#198 = SURFACE_STYLE_USAGE ( .BOTH. , #168 ) ;
#199 = EDGE_CURVE ( 'NONE', #75, #260, #42, .T. ) ;
#200 = FACE_OUTER_BOUND ( 'NONE', #176, .T. ) ;
#201 = LINE ( 'NONE', #281, #12 ) ;
#202 = LINE ( 'NONE', #98, #227 ) ;
#203 = EDGE_CURVE ( 'NONE', #47, #216, #18, .T. ) ;
#204 = ORIENTED_EDGE ( 'NONE', *, *, #183, .T. ) ;
#205 = CARTESIAN_POINT ( 'NONE',  ( 0.0000000000000000000, 0.0000000000000000000, 3.267717000000000649 ) ) ;
#206 = SURFACE_STYLE_USAGE ( .BOTH. , #158 ) ;
#207 = DIRECTION ( 'NONE',  ( -1.000000000000000000, 0.0000000000000000000, 0.0000000000000000000 ) ) ;
#208 = FACE_OUTER_BOUND ( 'NONE', #88, .T. ) ;
#209 = EDGE_CURVE ( 'NONE', #146, #114, #17, .T. ) ;
#210 = FILL_AREA_STYLE_COLOUR ( '', #36 ) ;
#211 = VECTOR ( 'NONE', #38, 39.37007874015747433 ) ;
#212 = CARTESIAN_POINT ( 'NONE',  ( 0.0000000000000000000, 0.0000000000000000000, 0.0000000000000000000 ) ) ;
#213 = EDGE_CURVE ( 'NONE', #114, #23, #41, .T. ) ;
#214 = CARTESIAN_POINT ( 'NONE',  ( 1.448073410051043844E-16, 0.0000000000000000000, 1.182441673027071039 ) ) ;
#215 = STYLED_ITEM ( 'NONE', ( #287 ), #94 ) ;
#216 = VERTEX_POINT ( 'NONE', #226 ) ;
#217 = APPLICATION_CONTEXT ( 'automotive_design' ) ;
#218 = EDGE_LOOP ( 'NONE', ( #69, #193, #171, #237 ) ) ;
#219 = ORIENTED_EDGE ( 'NONE', *, *, #290, .F. ) ;
#220 = AXIS2_PLACEMENT_3D ( 'NONE', #230, #195, #70 ) ;
#221 = ORIENTED_EDGE ( 'NONE', *, *, #108, .F. ) ;
#222 = CARTESIAN_POINT ( 'NONE',  ( 0.0000000000000000000, 0.0000000000000000000, 0.0000000000000000000 ) ) ;
#223 = DIRECTION ( 'NONE',  ( 1.224646799147353454E-16, 0.0000000000000000000, 1.000000000000000000 ) ) ;
#224 = AXIS2_PLACEMENT_3D ( 'NONE', #247, #160, #80 ) ;
#225 = SURFACE_STYLE_FILL_AREA ( #163 ) ;
#226 = CARTESIAN_POINT ( 'NONE',  ( 0.2362205000000001665, 2.892866792179874496E-17, 1.182441673027071039 ) ) ;
#227 = VECTOR ( 'NONE', #30, 39.37007874015748143 ) ;
#228 = AXIS2_PLACEMENT_3D ( 'NONE', #174, #280, #261 ) ;
#229 = LINE ( 'NONE', #128, #91 ) ;
#230 = CARTESIAN_POINT ( 'NONE',  ( 1.448073410051043844E-16, 0.0000000000000000000, 1.182441673027071039 ) ) ;
#231 = DIRECTION ( 'NONE',  ( 1.000000000000000000, 0.0000000000000000000, 0.0000000000000000000 ) ) ;
#232 = ORIENTED_EDGE ( 'NONE', *, *, #209, .T. ) ;
#233 = CONICAL_SURFACE ( 'NONE', #192, 0.2359842795000000049, 0.1745329251994338915 ) ;
#234 = VERTEX_POINT ( 'NONE', #77 ) ;
#235 = EDGE_CURVE ( 'NONE', #75, #10, #179, .T. ) ;
#236 = DIRECTION ( 'NONE',  ( 1.000000000000000000, 0.0000000000000000000, 0.0000000000000000000 ) ) ;
#237 = ORIENTED_EDGE ( 'NONE', *, *, #50, .F. ) ;
#238 = DIRECTION ( 'NONE',  ( -1.000000000000000000, 0.0000000000000000000, 0.0000000000000000000 ) ) ;
#239 = FILL_AREA_STYLE ('',( #64 ) ) ;
#240 =( LENGTH_UNIT ( ) NAMED_UNIT ( * ) SI_UNIT ( $, .METRE. ) );
#241 = DIRECTION ( 'NONE',  ( 0.7071067811865474617, 8.659560562354932858E-17, -0.7071067811865474617 ) ) ;
#242 =( NAMED_UNIT ( * ) SI_UNIT ( $, .STERADIAN. ) SOLID_ANGLE_UNIT ( ) );
#243 = LINE ( 'NONE', #73, #258 ) ;
#244 = DIRECTION ( 'NONE',  ( -1.000000000000000000, 0.0000000000000000000, 0.0000000000000000000 ) ) ;
#245 = PRESENTATION_LAYER_ASSIGNMENT (  '', '', ( #215 ) ) ;
#246 = DIRECTION ( 'NONE',  ( 1.000000000000000000, 0.0000000000000000000, -0.0000000000000000000 ) ) ;
#247 = CARTESIAN_POINT ( 'NONE',  ( 0.0000000000000000000, 0.0000000000000000000, 0.0000000000000000000 ) ) ;
#248 =( LENGTH_UNIT ( ) NAMED_UNIT ( * ) SI_UNIT ( $, .METRE. ) );
#249 = CARTESIAN_POINT ( 'NONE',  ( 0.0000000000000000000, 0.0000000000000000000, 0.0000000000000000000 ) ) ;
#250 =( CONVERSION_BASED_UNIT ( 'INCH', #162 ) LENGTH_UNIT ( ) NAMED_UNIT ( #112 ) );
#251 = DIRECTION ( 'NONE',  ( -1.224646799147353454E-16, -0.0000000000000000000, -1.000000000000000000 ) ) ;
#252 = AXIS2_PLACEMENT_3D ( 'NONE', #294, #289, #57 ) ;
#253 = ORIENTED_EDGE ( 'NONE', *, *, #166, .F. ) ;
#254 = EDGE_CURVE ( 'NONE', #167, #216, #181, .T. ) ;
#255 = AXIS2_PLACEMENT_3D ( 'NONE', #222, #53, #31 ) ;
#256 = CONICAL_SURFACE ( 'NONE', #121, 0.2212205000000019295, 0.7853981633974482790 ) ;
#257 = UNCERTAINTY_MEASURE_WITH_UNIT (LENGTH_MEASURE( 1.000000000000000082E-05 ), #283, 'distance_accuracy_value', 'NONE');
#258 = VECTOR ( 'NONE', #49, 39.37007874015748143 ) ;
#259 = PRODUCT_DEFINITION_FORMATION_WITH_SPECIFIED_SOURCE ( 'ANY', '', #101, .NOT_KNOWN. ) ;
#260 = VERTEX_POINT ( 'NONE', #188 ) ;
#261 = DIRECTION ( 'NONE',  ( -1.000000000000000000, 0.0000000000000000000, 0.0000000000000000000 ) ) ;
#262 = CARTESIAN_POINT ( 'NONE',  ( -0.2212205000000019295, 0.0000000000000000000, 3.267717000000000649 ) ) ;
#263 = ORIENTED_EDGE ( 'NONE', *, *, #183, .F. ) ;
#264 = CIRCLE ( 'NONE', #68, 0.2212205000000019295 ) ;
#265 = ORIENTED_EDGE ( 'NONE', *, *, #172, .T. ) ;
#266 = EDGE_CURVE ( 'NONE', #47, #23, #63, .T. ) ;
#267 = DIRECTION ( 'NONE',  ( 0.0000000000000000000, 0.0000000000000000000, -1.000000000000000000 ) ) ;
#268 = VECTOR ( 'NONE', #130, 39.37007874015748143 ) ;
#269 = APPLICATION_PROTOCOL_DEFINITION ( 'draft international standard', 'automotive_design', 1998, #217 ) ;
#270 = FACE_OUTER_BOUND ( 'NONE', #52, .T. ) ;
#271 = DIRECTION ( 'NONE',  ( 0.0000000000000000000, 0.0000000000000000000, 1.000000000000000000 ) ) ;
#272 =( GEOMETRIC_REPRESENTATION_CONTEXT ( 3 ) GLOBAL_UNCERTAINTY_ASSIGNED_CONTEXT ( ( #257 ) ) GLOBAL_UNIT_ASSIGNED_CONTEXT ( ( #283, #153, #242 ) ) REPRESENTATION_CONTEXT ( 'NONE', 'WORKASPACE' ) );
#273 = DIRECTION ( 'NONE',  ( -0.0000000000000000000, -0.0000000000000000000, -1.000000000000000000 ) ) ;
#274 = ORIENTED_EDGE ( 'NONE', *, *, #56, .F. ) ;
#275 = ADVANCED_FACE ( 'NONE', ( #208 ), #186, .T. ) ;
#276 = ORIENTED_EDGE ( 'NONE', *, *, #166, .T. ) ;
#277 = AXIS2_PLACEMENT_3D ( 'NONE', #105, #81, #292 ) ;
#278 = ORIENTED_EDGE ( 'NONE', *, *, #213, .F. ) ;
#279 = FACE_OUTER_BOUND ( 'NONE', #218, .T. ) ;
#280 = DIRECTION ( 'NONE',  ( -0.0000000000000000000, -0.0000000000000000000, -1.000000000000000000 ) ) ;
#281 = CARTESIAN_POINT ( 'NONE',  ( 0.2212205000000019295, 2.709169772307794108E-17, 3.267717000000000649 ) ) ;
#282 = DIRECTION ( 'NONE',  ( 1.224646799147353454E-16, 0.0000000000000000000, 1.000000000000000000 ) ) ;
#283 =( CONVERSION_BASED_UNIT ( 'INCH', #177 ) LENGTH_UNIT ( ) NAMED_UNIT ( #89 ) );
#284 = ORIENTED_EDGE ( 'NONE', *, *, #213, .T. ) ;
#285 = AXIS2_PLACEMENT_3D ( 'NONE', #78, #273, #207 ) ;
#286 = ADVANCED_FACE ( 'NONE', ( #136 ), #159, .F. ) ;
#287 = PRESENTATION_STYLE_ASSIGNMENT (( #206 ) ) ;
#288 = DIRECTION ( 'NONE',  ( 0.0000000000000000000, 0.0000000000000000000, 1.000000000000000000 ) ) ;
#289 = DIRECTION ( 'NONE',  ( 0.0000000000000000000, 0.0000000000000000000, 1.000000000000000000 ) ) ;
#290 = EDGE_CURVE ( 'NONE', #75, #167, #62, .T. ) ;
#291 = AXIS2_PLACEMENT_3D ( 'NONE', #120, #34, #238 ) ;
#292 = DIRECTION ( 'NONE',  ( 1.000000000000000000, 0.0000000000000000000, 0.0000000000000000000 ) ) ;
#293 =( NAMED_UNIT ( * ) SI_UNIT ( $, .STERADIAN. ) SOLID_ANGLE_UNIT ( ) );
#294 = CARTESIAN_POINT ( 'NONE',  ( 0.0000000000000000000, 0.0000000000000000000, 3.267717000000000649 ) ) ;
#295 = DIRECTION ( 'NONE',  ( -1.224646799147353454E-16, -0.0000000000000000000, -1.000000000000000000 ) ) ;
#296 = CONICAL_SURFACE ( 'NONE', #27, 0.2212205000000019295, 0.7853981633974482790 ) ;
#297 = ORIENTED_EDGE ( 'NONE', *, *, #151, .F. ) ;
#298 = DIMENSIONAL_EXPONENTS ( 1.000000000000000000, 0.0000000000000000000, 0.0000000000000000000, 0.0000000000000000000, 0.0000000000000000000, 0.0000000000000000000, 0.0000000000000000000 ) ;
#299 = CARTESIAN_POINT ( 'NONE',  ( 3.539197317345351889E-33, 0.0000000000000000000, 2.889973925387693713E-17 ) ) ;
ENDSEC;
END-ISO-10303-21;
