ISO-10303-21;
HEADER;
FILE_DESCRIPTION (( 'STEP AP214' ),
    '1' );
FILE_NAME ('Micro_RTCM-050-2.STEP',
    '2021-09-03T18:22:21',
    ( '' ),
    ( '' ),
    'SwSTEP 2.0',
    'SolidWorks 2020',
    '' );
FILE_SCHEMA (( 'AUTOMOTIVE_DESIGN' ));
ENDSEC;

DATA;
#1 = CARTESIAN_POINT ( 'NONE',  ( -0.003936999999999995191, -6.267864782716068801E-18, 1.968503999999999809 ) ) ;
#2 = VERTEX_POINT ( 'NONE', #1 ) ;
#3 = ORIENTED_EDGE ( 'NONE', *, *, #124, .T. ) ;
#4 = CARTESIAN_POINT ( 'NONE',  ( 0.0000000000000000000, 0.0000000000000000000, 0.3526340167055667107 ) ) ;
#5 = PRODUCT_RELATED_PRODUCT_CATEGORY ( 'part', '', ( #88 ) ) ;
#6 = DIRECTION ( 'NONE',  ( 1.000000000000000000, 0.0000000000000000000, 0.0000000000000000000 ) ) ;
#7 = AXIS2_PLACEMENT_3D ( 'NONE', #166, #170, #37 ) ;
#8 = CARTESIAN_POINT ( 'NONE',  ( 0.0000000000000000000, 0.0000000000000000000, 1.968503999999999809 ) ) ;
#9 = UNCERTAINTY_MEASURE_WITH_UNIT (LENGTH_MEASURE( 1.000000000000000082E-05 ), #51, 'distance_accuracy_value', 'NONE');
#10 = CYLINDRICAL_SURFACE ( 'NONE', #171, 0.09842500000000001248 ) ;
#11 = DIRECTION ( 'NONE',  ( 0.0000000000000000000, 0.0000000000000000000, 1.000000000000000000 ) ) ;
#12 = CARTESIAN_POINT ( 'NONE',  ( 0.0000000000000000000, 0.0000000000000000000, 0.0000000000000000000 ) ) ;
#13 = DIMENSIONAL_EXPONENTS ( 1.000000000000000000, 0.0000000000000000000, 0.0000000000000000000, 0.0000000000000000000, 0.0000000000000000000, 0.0000000000000000000, 0.0000000000000000000 ) ;
#14 = ORIENTED_EDGE ( 'NONE', *, *, #107, .T. ) ;
#15 = CIRCLE ( 'NONE', #179, 0.003936999999999995191 ) ;
#16 = ORIENTED_EDGE ( 'NONE', *, *, #248, .F. ) ;
#17 = DIMENSIONAL_EXPONENTS ( 1.000000000000000000, 0.0000000000000000000, 0.0000000000000000000, 0.0000000000000000000, 0.0000000000000000000, 0.0000000000000000000, 0.0000000000000000000 ) ;
#18 = PRESENTATION_LAYER_ASSIGNMENT (  '', '', ( #128 ) ) ;
#19 = AXIS2_PLACEMENT_3D ( 'NONE', #43, #244, #114 ) ;
#20 = CARTESIAN_POINT ( 'NONE',  ( -0.09842500000000001248, 0.0000000000000000000, 1.968503999999999809 ) ) ;
#21 = FACE_OUTER_BOUND ( 'NONE', #150, .T. ) ;
#22 = ORIENTED_EDGE ( 'NONE', *, *, #154, .T. ) ;
#23 = ADVANCED_FACE ( 'NONE', ( #84 ), #215, .T. ) ;
#24 = CARTESIAN_POINT ( 'NONE',  ( 0.0000000000000000000, 0.0000000000000000000, 0.0000000000000000000 ) ) ;
#25 = DIRECTION ( 'NONE',  ( -0.0000000000000000000, -0.0000000000000000000, -1.000000000000000000 ) ) ;
#26 = ORIENTED_EDGE ( 'NONE', *, *, #75, .T. ) ;
#27 = EDGE_CURVE ( 'NONE', #185, #53, #207, .T. ) ;
#28 = CONICAL_SURFACE ( 'NONE', #236, 0.003936999999999995191, 0.2617993877991504625 ) ;
#29 =( CONVERSION_BASED_UNIT ( 'INCH', #142 ) LENGTH_UNIT ( ) NAMED_UNIT ( #17 ) );
#30 = PRODUCT_DEFINITION_CONTEXT ( 'detailed design', #226, 'design' ) ;
#31 = DIRECTION ( 'NONE',  ( -1.000000000000000000, 0.0000000000000000000, 0.0000000000000000000 ) ) ;
#32 = LENGTH_MEASURE_WITH_UNIT ( LENGTH_MEASURE( 0.02539999999999999897 ), #206 );
#33 = CARTESIAN_POINT ( 'NONE',  ( -0.003936999999999995191, 6.267864782716068801E-18, 0.0000000000000000000 ) ) ;
#34 = ORIENTED_EDGE ( 'NONE', *, *, #107, .F. ) ;
#35 = SURFACE_SIDE_STYLE ('',( #111 ) ) ;
#36 = ORIENTED_EDGE ( 'NONE', *, *, #229, .T. ) ;
#37 = DIRECTION ( 'NONE',  ( -1.000000000000000000, 0.0000000000000000000, 0.0000000000000000000 ) ) ;
#38 = AXIS2_PLACEMENT_3D ( 'NONE', #12, #11, #115 ) ;
#39 = DIRECTION ( 'NONE',  ( 0.0000000000000000000, 0.0000000000000000000, 1.000000000000000000 ) ) ;
#40 = DIRECTION ( 'NONE',  ( 0.2588190451025217387, 0.0000000000000000000, 0.9659258262890679791 ) ) ;
#41 = STYLED_ITEM ( 'NONE', ( #182 ), #195 ) ;
#42 = CARTESIAN_POINT ( 'NONE',  ( -0.003936999999999995191, -4.821434448243123477E-19, 1.968503999999999809 ) ) ;
#43 = CARTESIAN_POINT ( 'NONE',  ( 0.0000000000000000000, 0.0000000000000000000, 1.615869983294433210 ) ) ;
#44 = VECTOR ( 'NONE', #59, 39.37007874015748854 ) ;
#45 =( LENGTH_UNIT ( ) NAMED_UNIT ( * ) SI_UNIT ( $, .METRE. ) );
#46 = CARTESIAN_POINT ( 'NONE',  ( 0.0000000000000000000, 0.0000000000000000000, 0.0000000000000000000 ) ) ;
#47 = AXIS2_PLACEMENT_3D ( 'NONE', #92, #213, #209 ) ;
#48 = EDGE_CURVE ( 'NONE', #2, #49, #156, .T. ) ;
#49 = VERTEX_POINT ( 'NONE', #249 ) ;
#50 = AXIS2_PLACEMENT_3D ( 'NONE', #8, #110, #31 ) ;
#51 =( CONVERSION_BASED_UNIT ( 'INCH', #74 ) LENGTH_UNIT ( ) NAMED_UNIT ( #13 ) );
#52 =( NAMED_UNIT ( * ) SI_UNIT ( $, .STERADIAN. ) SOLID_ANGLE_UNIT ( ) );
#53 = VERTEX_POINT ( 'NONE', #82 ) ;
#54 = DIRECTION ( 'NONE',  ( -0.2588190451025217387, 3.169619151431776651E-17, 0.9659258262890679791 ) ) ;
#55 = SURFACE_STYLE_FILL_AREA ( #199 ) ;
#56 = EDGE_LOOP ( 'NONE', ( #118, #161, #34, #200 ) ) ;
#57 = EDGE_LOOP ( 'NONE', ( #91, #106 ) ) ;
#58 = DIRECTION ( 'NONE',  ( 0.0000000000000000000, 0.0000000000000000000, 1.000000000000000000 ) ) ;
#59 = DIRECTION ( 'NONE',  ( -0.2588190451025217387, -3.169619151431776651E-17, -0.9659258262890679791 ) ) ;
#60 = CIRCLE ( 'NONE', #129, 0.09842500000000001248 ) ;
#61 = FILL_AREA_STYLE_COLOUR ( '', #65 ) ;
#62 = VERTEX_POINT ( 'NONE', #78 ) ;
#63 = DIRECTION ( 'NONE',  ( 0.0000000000000000000, 0.0000000000000000000, -1.000000000000000000 ) ) ;
#64 = DIRECTION ( 'NONE',  ( -1.000000000000000000, 0.0000000000000000000, 0.0000000000000000000 ) ) ;
#65 = COLOUR_RGB ( '',0.7921568627450980005, 0.8196078431372548767, 0.9333333333333333481 ) ;
#66 = FACE_OUTER_BOUND ( 'NONE', #223, .T. ) ;
#67 = DIRECTION ( 'NONE',  ( 1.000000000000000000, 0.0000000000000000000, 0.0000000000000000000 ) ) ;
#68 = CIRCLE ( 'NONE', #47, 0.003936999999999995191 ) ;
#69 = ADVANCED_FACE ( 'NONE', ( #81 ), #134, .T. ) ;
#70 = LINE ( 'NONE', #144, #225 ) ;
#71 = DIRECTION ( 'NONE',  ( 0.0000000000000000000, 0.0000000000000000000, -1.000000000000000000 ) ) ;
#72 = APPLICATION_CONTEXT ( 'automotive_design' ) ;
#73 = CIRCLE ( 'NONE', #241, 0.09842500000000001248 ) ;
#74 = LENGTH_MEASURE_WITH_UNIT ( LENGTH_MEASURE( 0.02539999999999999897 ), #212 );
#75 = EDGE_CURVE ( 'NONE', #49, #133, #196, .T. ) ;
#76 = ORIENTED_EDGE ( 'NONE', *, *, #145, .F. ) ;
#77 = PRODUCT_CONTEXT ( 'NONE', #72, 'mechanical' ) ;
#78 = CARTESIAN_POINT ( 'NONE',  ( 0.09842500000000001248, 1.205358612060782468E-17, 1.615869983294433210 ) ) ;
#79 =( NAMED_UNIT ( * ) PLANE_ANGLE_UNIT ( ) SI_UNIT ( $, .RADIAN. ) );
#80 = ADVANCED_FACE ( 'NONE', ( #21 ), #192, .F. ) ;
#81 = FACE_OUTER_BOUND ( 'NONE', #57, .T. ) ;
#82 = CARTESIAN_POINT ( 'NONE',  ( 0.09842500000000001248, 1.205358612060782468E-17, 0.3526340167055667107 ) ) ;
#83 = FACE_OUTER_BOUND ( 'NONE', #56, .T. ) ;
#84 = FACE_OUTER_BOUND ( 'NONE', #169, .T. ) ;
#85 = CYLINDRICAL_SURFACE ( 'NONE', #50, 0.09842500000000001248 ) ;
#86 = MANIFOLD_SOLID_BREP ( 'Mirror1', #187 ) ;
#87 = VECTOR ( 'NONE', #54, 39.37007874015748854 ) ;
#88 = PRODUCT ( 'Micro_RTCM-050-2', 'Micro_RTCM-050-2', '', ( #77 ) ) ;
#89 = DIRECTION ( 'NONE',  ( 0.0000000000000000000, 0.0000000000000000000, 1.000000000000000000 ) ) ;
#90 = DIRECTION ( 'NONE',  ( -1.000000000000000000, 0.0000000000000000000, 0.0000000000000000000 ) ) ;
#91 = ORIENTED_EDGE ( 'NONE', *, *, #174, .F. ) ;
#92 = CARTESIAN_POINT ( 'NONE',  ( 0.0000000000000000000, 0.0000000000000000000, 1.968503999999999809 ) ) ;
#93 = FILL_AREA_STYLE ('',( #167 ) ) ;
#94 = EDGE_LOOP ( 'NONE', ( #100, #76, #155, #22 ) ) ;
#95 = CONICAL_SURFACE ( 'NONE', #109, 0.003936999999999995191, 0.2617993877991504625 ) ;
#96 = CIRCLE ( 'NONE', #7, 0.003936999999999995191 ) ;
#97 = SHAPE_DEFINITION_REPRESENTATION ( #119, #195 ) ;
#98 = PRESENTATION_STYLE_ASSIGNMENT (( #117 ) ) ;
#99 = EDGE_LOOP ( 'NONE', ( #122, #211, #197, #103 ) ) ;
#100 = ORIENTED_EDGE ( 'NONE', *, *, #229, .F. ) ;
#101 = DIRECTION ( 'NONE',  ( 0.0000000000000000000, 0.0000000000000000000, 1.000000000000000000 ) ) ;
#102 = PRESENTATION_LAYER_ASSIGNMENT (  '', '', ( #41 ) ) ;
#103 = ORIENTED_EDGE ( 'NONE', *, *, #124, .F. ) ;
#104 = CARTESIAN_POINT ( 'NONE',  ( 0.0000000000000000000, 0.0000000000000000000, 1.968503999999999809 ) ) ;
#105 = ADVANCED_FACE ( 'NONE', ( #181 ), #95, .T. ) ;
#106 = ORIENTED_EDGE ( 'NONE', *, *, #208, .F. ) ;
#107 = EDGE_CURVE ( 'NONE', #133, #53, #73, .T. ) ;
#108 = CARTESIAN_POINT ( 'NONE',  ( -0.09842500000000001248, 0.0000000000000000000, 0.3526340167055667107 ) ) ;
#109 = AXIS2_PLACEMENT_3D ( 'NONE', #232, #237, #202 ) ;
#110 = DIRECTION ( 'NONE',  ( -0.0000000000000000000, -0.0000000000000000000, -1.000000000000000000 ) ) ;
#111 = SURFACE_STYLE_FILL_AREA ( #93 ) ;
#112 = MECHANICAL_DESIGN_GEOMETRIC_PRESENTATION_REPRESENTATION (  '', ( #41 ), #231 ) ;
#113 = ORIENTED_EDGE ( 'NONE', *, *, #27, .F. ) ;
#114 = DIRECTION ( 'NONE',  ( -1.000000000000000000, 0.0000000000000000000, 0.0000000000000000000 ) ) ;
#115 = DIRECTION ( 'NONE',  ( 1.000000000000000000, 0.0000000000000000000, 0.0000000000000000000 ) ) ;
#116 = CIRCLE ( 'NONE', #242, 0.003936999999999995191 ) ;
#117 = SURFACE_STYLE_USAGE ( .BOTH. , #228 ) ;
#118 = ORIENTED_EDGE ( 'NONE', *, *, #168, .T. ) ;
#119 = PRODUCT_DEFINITION_SHAPE ( 'NONE', 'NONE',  #243 ) ;
#120 = CONICAL_SURFACE ( 'NONE', #38, 0.003936999999999995191, 0.2617993877991504625 ) ;
#121 = APPLICATION_PROTOCOL_DEFINITION ( 'draft international standard', 'automotive_design', 1998, #226 ) ;
#122 = ORIENTED_EDGE ( 'NONE', *, *, #174, .T. ) ;
#123 = VERTEX_POINT ( 'NONE', #201 ) ;
#124 = EDGE_CURVE ( 'NONE', #123, #62, #222, .T. ) ;
#125 =( NAMED_UNIT ( * ) PLANE_ANGLE_UNIT ( ) SI_UNIT ( $, .RADIAN. ) );
#126 = FACE_OUTER_BOUND ( 'NONE', #233, .T. ) ;
#127 = DIRECTION ( 'NONE',  ( -0.0000000000000000000, -0.0000000000000000000, -1.000000000000000000 ) ) ;
#128 = STYLED_ITEM ( 'NONE', ( #98 ), #86 ) ;
#129 = AXIS2_PLACEMENT_3D ( 'NONE', #238, #141, #234 ) ;
#130 =( CONVERSION_BASED_UNIT ( 'INCH', #32 ) LENGTH_UNIT ( ) NAMED_UNIT ( #191 ) );
#131 = ADVANCED_FACE ( 'NONE', ( #66 ), #85, .T. ) ;
#132 = SURFACE_STYLE_USAGE ( .BOTH. , #35 ) ;
#133 = VERTEX_POINT ( 'NONE', #108 ) ;
#134 = PLANE ( 'NONE',  #183 ) ;
#135 = VECTOR ( 'NONE', #176, 39.37007874015748854 ) ;
#136 = CARTESIAN_POINT ( 'NONE',  ( 0.0000000000000000000, 0.0000000000000000000, 1.968503999999999809 ) ) ;
#137 = CARTESIAN_POINT ( 'NONE',  ( 0.0000000000000000000, 0.0000000000000000000, 1.968503999999999809 ) ) ;
#138 = ADVANCED_FACE ( 'NONE', ( #83 ), #10, .T. ) ;
#139 = DIRECTION ( 'NONE',  ( -0.0000000000000000000, -0.0000000000000000000, -1.000000000000000000 ) ) ;
#140 = ORIENTED_EDGE ( 'NONE', *, *, #235, .F. ) ;
#141 = DIRECTION ( 'NONE',  ( 0.0000000000000000000, 0.0000000000000000000, -1.000000000000000000 ) ) ;
#142 = LENGTH_MEASURE_WITH_UNIT ( LENGTH_MEASURE( 0.02539999999999999897 ), #45 );
#143 =( GEOMETRIC_REPRESENTATION_CONTEXT ( 3 ) GLOBAL_UNCERTAINTY_ASSIGNED_CONTEXT ( ( #9 ) ) GLOBAL_UNIT_ASSIGNED_CONTEXT ( ( #51, #165, #52 ) ) REPRESENTATION_CONTEXT ( 'NONE', 'WORKASPACE' ) );
#144 = CARTESIAN_POINT ( 'NONE',  ( 0.09842500000000001248, 1.205358612060782468E-17, 1.968503999999999809 ) ) ;
#145 = EDGE_CURVE ( 'NONE', #185, #198, #116, .T. ) ;
#146 = ORIENTED_EDGE ( 'NONE', *, *, #248, .T. ) ;
#147 = DIRECTION ( 'NONE',  ( -0.0000000000000000000, -0.0000000000000000000, -1.000000000000000000 ) ) ;
#148 = COLOUR_RGB ( '',0.7921568627450980005, 0.8196078431372548767, 0.9333333333333333481 ) ;
#149 = CARTESIAN_POINT ( 'NONE',  ( -0.003936999999999995191, 4.821434448243123477E-19, 0.0000000000000000000 ) ) ;
#150 = EDGE_LOOP ( 'NONE', ( #205, #146 ) ) ;
#151 = CARTESIAN_POINT ( 'NONE',  ( 0.0000000000000000000, 0.0000000000000000000, 0.0000000000000000000 ) ) ;
#152 = VECTOR ( 'NONE', #40, 39.37007874015748854 ) ;
#153 = DIRECTION ( 'NONE',  ( 1.000000000000000000, 0.0000000000000000000, -0.0000000000000000000 ) ) ;
#154 = EDGE_CURVE ( 'NONE', #53, #133, #210, .T. ) ;
#155 = ORIENTED_EDGE ( 'NONE', *, *, #27, .T. ) ;
#156 = LINE ( 'NONE', #42, #44 ) ;
#157 = DIRECTION ( 'NONE',  ( -0.0000000000000000000, -0.0000000000000000000, -1.000000000000000000 ) ) ;
#158 = ADVANCED_FACE ( 'NONE', ( #126 ), #28, .T. ) ;
#159 = CARTESIAN_POINT ( 'NONE',  ( 0.0000000000000000000, 0.0000000000000000000, 1.968503999999999809 ) ) ;
#160 =( NAMED_UNIT ( * ) SI_UNIT ( $, .STERADIAN. ) SOLID_ANGLE_UNIT ( ) );
#161 = ORIENTED_EDGE ( 'NONE', *, *, #235, .T. ) ;
#162 = MECHANICAL_DESIGN_GEOMETRIC_PRESENTATION_REPRESENTATION (  '', ( #128 ), #193 ) ;
#163 = DIRECTION ( 'NONE',  ( -1.000000000000000000, 0.0000000000000000000, 0.0000000000000000000 ) ) ;
#164 = DIRECTION ( 'NONE',  ( -0.0000000000000000000, -0.0000000000000000000, -1.000000000000000000 ) ) ;
#165 =( NAMED_UNIT ( * ) PLANE_ANGLE_UNIT ( ) SI_UNIT ( $, .RADIAN. ) );
#166 = CARTESIAN_POINT ( 'NONE',  ( 0.0000000000000000000, 0.0000000000000000000, 0.0000000000000000000 ) ) ;
#167 = FILL_AREA_STYLE_COLOUR ( '', #148 ) ;
#168 = EDGE_CURVE ( 'NONE', #49, #62, #60, .T. ) ;
#169 = EDGE_LOOP ( 'NONE', ( #172, #178, #3, #214 ) ) ;
#170 = DIRECTION ( 'NONE',  ( -0.0000000000000000000, -0.0000000000000000000, -1.000000000000000000 ) ) ;
#171 = AXIS2_PLACEMENT_3D ( 'NONE', #137, #127, #90 ) ;
#172 = ORIENTED_EDGE ( 'NONE', *, *, #48, .F. ) ;
#173 = CARTESIAN_POINT ( 'NONE',  ( 0.0000000000000000000, 0.0000000000000000000, 0.0000000000000000000 ) ) ;
#174 = EDGE_CURVE ( 'NONE', #123, #2, #15, .T. ) ;
#175 = AXIS2_PLACEMENT_3D ( 'NONE', #159, #71, #6 ) ;
#176 = DIRECTION ( 'NONE',  ( 0.2588190451025217387, 0.0000000000000000000, -0.9659258262890679791 ) ) ;
#177 = CARTESIAN_POINT ( 'NONE',  ( 0.003936999999999995191, 0.0000000000000000000, 1.968503999999999809 ) ) ;
#178 = ORIENTED_EDGE ( 'NONE', *, *, #208, .T. ) ;
#179 = AXIS2_PLACEMENT_3D ( 'NONE', #104, #63, #219 ) ;
#180 = DIRECTION ( 'NONE',  ( -1.000000000000000000, 0.0000000000000000000, 0.0000000000000000000 ) ) ;
#181 = FACE_OUTER_BOUND ( 'NONE', #99, .T. ) ;
#182 = PRESENTATION_STYLE_ASSIGNMENT (( #132 ) ) ;
#183 = AXIS2_PLACEMENT_3D ( 'NONE', #136, #101, #188 ) ;
#184 = EDGE_CURVE ( 'NONE', #62, #49, #221, .T. ) ;
#185 = VERTEX_POINT ( 'NONE', #240 ) ;
#186 = APPLICATION_PROTOCOL_DEFINITION ( 'draft international standard', 'automotive_design', 1998, #72 ) ;
#187 = CLOSED_SHELL ( 'NONE', ( #105, #158, #138, #131, #246, #80, #23, #69 ) ) ;
#188 = DIRECTION ( 'NONE',  ( 1.000000000000000000, 0.0000000000000000000, -0.0000000000000000000 ) ) ;
#189 = UNCERTAINTY_MEASURE_WITH_UNIT (LENGTH_MEASURE( 1.000000000000000082E-05 ), #130, 'distance_accuracy_value', 'NONE');
#190 = ORIENTED_EDGE ( 'NONE', *, *, #184, .T. ) ;
#191 = DIMENSIONAL_EXPONENTS ( 1.000000000000000000, 0.0000000000000000000, 0.0000000000000000000, 0.0000000000000000000, 0.0000000000000000000, 0.0000000000000000000, 0.0000000000000000000 ) ;
#192 = PLANE ( 'NONE',  #220 ) ;
#193 =( GEOMETRIC_REPRESENTATION_CONTEXT ( 3 ) GLOBAL_UNCERTAINTY_ASSIGNED_CONTEXT ( ( #204 ) ) GLOBAL_UNIT_ASSIGNED_CONTEXT ( ( #29, #125, #160 ) ) REPRESENTATION_CONTEXT ( 'NONE', 'WORKASPACE' ) );
#194 = AXIS2_PLACEMENT_3D ( 'NONE', #203, #164, #163 ) ;
#195 = ADVANCED_BREP_SHAPE_REPRESENTATION ( 'Micro_RTCM-050-2', ( #86, #245 ), #143 ) ;
#196 = LINE ( 'NONE', #20, #230 ) ;
#197 = ORIENTED_EDGE ( 'NONE', *, *, #184, .F. ) ;
#198 = VERTEX_POINT ( 'NONE', #33 ) ;
#199 = FILL_AREA_STYLE ('',( #61 ) ) ;
#200 = ORIENTED_EDGE ( 'NONE', *, *, #75, .F. ) ;
#201 = CARTESIAN_POINT ( 'NONE',  ( 0.003936999999999995191, 0.0000000000000000000, 1.968503999999999809 ) ) ;
#202 = DIRECTION ( 'NONE',  ( 1.000000000000000000, 0.0000000000000000000, 0.0000000000000000000 ) ) ;
#203 = CARTESIAN_POINT ( 'NONE',  ( 0.0000000000000000000, 0.0000000000000000000, 0.3526340167055667107 ) ) ;
#204 = UNCERTAINTY_MEASURE_WITH_UNIT (LENGTH_MEASURE( 1.000000000000000082E-05 ), #29, 'distance_accuracy_value', 'NONE');
#205 = ORIENTED_EDGE ( 'NONE', *, *, #145, .T. ) ;
#206 =( LENGTH_UNIT ( ) NAMED_UNIT ( * ) SI_UNIT ( $, .METRE. ) );
#207 = LINE ( 'NONE', #217, #152 ) ;
#208 = EDGE_CURVE ( 'NONE', #2, #123, #68, .T. ) ;
#209 = DIRECTION ( 'NONE',  ( -1.000000000000000000, 0.0000000000000000000, 0.0000000000000000000 ) ) ;
#210 = CIRCLE ( 'NONE', #194, 0.09842500000000001248 ) ;
#211 = ORIENTED_EDGE ( 'NONE', *, *, #48, .T. ) ;
#212 =( LENGTH_UNIT ( ) NAMED_UNIT ( * ) SI_UNIT ( $, .METRE. ) );
#213 = DIRECTION ( 'NONE',  ( 0.0000000000000000000, 0.0000000000000000000, -1.000000000000000000 ) ) ;
#214 = ORIENTED_EDGE ( 'NONE', *, *, #168, .F. ) ;
#215 = CONICAL_SURFACE ( 'NONE', #175, 0.003936999999999995191, 0.2617993877991504625 ) ;
#216 = DIRECTION ( 'NONE',  ( 1.000000000000000000, 0.0000000000000000000, 0.0000000000000000000 ) ) ;
#217 = CARTESIAN_POINT ( 'NONE',  ( 0.003936999999999995191, 0.0000000000000000000, 0.0000000000000000000 ) ) ;
#218 = ORIENTED_EDGE ( 'NONE', *, *, #154, .F. ) ;
#219 = DIRECTION ( 'NONE',  ( -1.000000000000000000, 0.0000000000000000000, 0.0000000000000000000 ) ) ;
#220 = AXIS2_PLACEMENT_3D ( 'NONE', #151, #39, #153 ) ;
#221 = CIRCLE ( 'NONE', #19, 0.09842500000000001248 ) ;
#222 = LINE ( 'NONE', #177, #135 ) ;
#223 = EDGE_LOOP ( 'NONE', ( #140, #190, #26, #218 ) ) ;
#224 = FACE_OUTER_BOUND ( 'NONE', #94, .T. ) ;
#225 = VECTOR ( 'NONE', #147, 39.37007874015748143 ) ;
#226 = APPLICATION_CONTEXT ( 'automotive_design' ) ;
#227 = LINE ( 'NONE', #149, #87 ) ;
#228 = SURFACE_SIDE_STYLE ('',( #55 ) ) ;
#229 = EDGE_CURVE ( 'NONE', #198, #133, #227, .T. ) ;
#230 = VECTOR ( 'NONE', #157, 39.37007874015748143 ) ;
#231 =( GEOMETRIC_REPRESENTATION_CONTEXT ( 3 ) GLOBAL_UNCERTAINTY_ASSIGNED_CONTEXT ( ( #189 ) ) GLOBAL_UNIT_ASSIGNED_CONTEXT ( ( #130, #79, #247 ) ) REPRESENTATION_CONTEXT ( 'NONE', 'WORKASPACE' ) );
#232 = CARTESIAN_POINT ( 'NONE',  ( 0.0000000000000000000, 0.0000000000000000000, 1.968503999999999809 ) ) ;
#233 = EDGE_LOOP ( 'NONE', ( #16, #36, #14, #113 ) ) ;
#234 = DIRECTION ( 'NONE',  ( -1.000000000000000000, 0.0000000000000000000, 0.0000000000000000000 ) ) ;
#235 = EDGE_CURVE ( 'NONE', #62, #53, #70, .T. ) ;
#236 = AXIS2_PLACEMENT_3D ( 'NONE', #46, #89, #67 ) ;
#237 = DIRECTION ( 'NONE',  ( 0.0000000000000000000, 0.0000000000000000000, -1.000000000000000000 ) ) ;
#238 = CARTESIAN_POINT ( 'NONE',  ( 0.0000000000000000000, 0.0000000000000000000, 1.615869983294433210 ) ) ;
#239 = PRODUCT_DEFINITION_FORMATION_WITH_SPECIFIED_SOURCE ( 'ANY', '', #88, .NOT_KNOWN. ) ;
#240 = CARTESIAN_POINT ( 'NONE',  ( 0.003936999999999995191, 0.0000000000000000000, 0.0000000000000000000 ) ) ;
#241 = AXIS2_PLACEMENT_3D ( 'NONE', #4, #25, #64 ) ;
#242 = AXIS2_PLACEMENT_3D ( 'NONE', #24, #139, #180 ) ;
#243 = PRODUCT_DEFINITION ( 'UNKNOWN', '', #239, #30 ) ;
#244 = DIRECTION ( 'NONE',  ( 0.0000000000000000000, 0.0000000000000000000, -1.000000000000000000 ) ) ;
#245 = AXIS2_PLACEMENT_3D ( 'NONE', #173, #58, #216 ) ;
#246 = ADVANCED_FACE ( 'NONE', ( #224 ), #120, .T. ) ;
#247 =( NAMED_UNIT ( * ) SI_UNIT ( $, .STERADIAN. ) SOLID_ANGLE_UNIT ( ) );
#248 = EDGE_CURVE ( 'NONE', #198, #185, #96, .T. ) ;
#249 = CARTESIAN_POINT ( 'NONE',  ( -0.09842500000000001248, 0.0000000000000000000, 1.615869983294433210 ) ) ;
ENDSEC;
END-ISO-10303-21;
