ISO-10303-21;
HEADER;
FILE_DESCRIPTION (( 'STEP AP214' ),
    '1' );
FILE_NAME ('00765.STEP',
    '2023-06-22T14:15:55',
    ( '' ),
    ( '' ),
    'SwSTEP 2.0',
    'SolidWorks 2023',
    '' );
FILE_SCHEMA (( 'AUTOMOTIVE_DESIGN' ));
ENDSEC;

DATA;
#1 = FILL_AREA_STYLE ('',( #160 ) ) ;
#2 = AXIS2_PLACEMENT_3D ( 'NONE', #267, #291, #230 ) ;
#3 = CARTESIAN_POINT ( 'NONE',  ( 3.291653843976647826E-34, 2.625000000000000000, 0.000000000000000000 ) ) ;
#4 = ORIENTED_EDGE ( 'NONE', *, *, #191, .F. ) ;
#5 = FACE_OUTER_BOUND ( 'NONE', #221, .T. ) ;
#6 = EDGE_CURVE ( 'NONE', #145, #16, #194, .T. ) ;
#7 = ORIENTED_EDGE ( 'NONE', *, *, #139, .F. ) ;
#8 = DIRECTION ( 'NONE',  ( -1.000000000000000000, 0.000000000000000000, 0.000000000000000000 ) ) ;
#9 = CIRCLE ( 'NONE', #297, 0.5000000000000001110 ) ;
#10 = CARTESIAN_POINT ( 'NONE',  ( 1.516480271171051896E-32, 2.625000000000000000, 0.000000000000000000 ) ) ;
#11 = CARTESIAN_POINT ( 'NONE',  ( 0.5000000000000000000, 2.625000000000000000, 6.123233995736767268E-17 ) ) ;
#12 = SURFACE_SIDE_STYLE ('',( #108 ) ) ;
#13 = PRESENTATION_LAYER_ASSIGNMENT (  '', '', ( #41 ) ) ;
#14 = SURFACE_STYLE_FILL_AREA ( #207 ) ;
#15 = DIRECTION ( 'NONE',  ( -3.628583108584753553E-17, 1.000000000000000000, -0.000000000000000000 ) ) ;
#16 = VERTEX_POINT ( 'NONE', #301 ) ;
#17 = PRESENTATION_LAYER_ASSIGNMENT (  '', '', ( #300 ) ) ;
#18 = VECTOR ( 'NONE', #15, 39.37007874015748143 ) ;
#19 = AXIS2_PLACEMENT_3D ( 'NONE', #294, #205, #103 ) ;
#20 = DIRECTION ( 'NONE',  ( -0.000000000000000000, -1.000000000000000000, -0.000000000000000000 ) ) ;
#21 = CARTESIAN_POINT ( 'NONE',  ( 0.000000000000000000, 0.000000000000000000, 0.000000000000000000 ) ) ;
#22 = LENGTH_MEASURE_WITH_UNIT ( LENGTH_MEASURE( 0.02539999999999999897 ), #161 );
#23 = SURFACE_STYLE_FILL_AREA ( #66 ) ;
#24 =( LENGTH_UNIT ( ) NAMED_UNIT ( * ) SI_UNIT ( $, .METRE. ) );
#25 = PRESENTATION_LAYER_ASSIGNMENT (  '', '', ( #236 ) ) ;
#26 = DIRECTION ( 'NONE',  ( -1.000000000000000000, 0.000000000000000000, 0.000000000000000000 ) ) ;
#27 = SURFACE_STYLE_FILL_AREA ( #270 ) ;
#28 = UNCERTAINTY_MEASURE_WITH_UNIT (LENGTH_MEASURE( 1.000000000000000082E-05 ), #260, 'distance_accuracy_value', 'NONE');
#29 = CARTESIAN_POINT ( 'NONE',  ( 1.516480271171051896E-32, 2.625000000000000000, 0.000000000000000000 ) ) ;
#30 = ORIENTED_EDGE ( 'NONE', *, *, #216, .T. ) ;
#31 =( GEOMETRIC_REPRESENTATION_CONTEXT ( 3 ) GLOBAL_UNCERTAINTY_ASSIGNED_CONTEXT ( ( #111 ) ) GLOBAL_UNIT_ASSIGNED_CONTEXT ( ( #218, #259, #82 ) ) REPRESENTATION_CONTEXT ( 'NONE', 'WORKASPACE' ) );
#32 = LINE ( 'NONE', #224, #56 ) ;
#33 = PRODUCT_DEFINITION_CONTEXT ( 'detailed design', #264, 'design' ) ;
#34 =( NAMED_UNIT ( * ) PLANE_ANGLE_UNIT ( ) SI_UNIT ( $, .RADIAN. ) );
#35 = DIRECTION ( 'NONE',  ( 0.000000000000000000, 0.000000000000000000, -1.000000000000000000 ) ) ;
#36 =( LENGTH_UNIT ( ) NAMED_UNIT ( * ) SI_UNIT ( $, .METRE. ) );
#37 = ORIENTED_EDGE ( 'NONE', *, *, #255, .T. ) ;
#38 = DIRECTION ( 'NONE',  ( 1.000000000000000000, 0.000000000000000000, 0.000000000000000000 ) ) ;
#39 = ADVANCED_FACE ( 'NONE', ( #204 ), #79, .T. ) ;
#40 =( NAMED_UNIT ( * ) SI_UNIT ( $, .STERADIAN. ) SOLID_ANGLE_UNIT ( ) );
#41 = STYLED_ITEM ( 'NONE', ( #90 ), #122 ) ;
#42 = CARTESIAN_POINT ( 'NONE',  ( 0.000000000000000000, 0.000000000000000000, 0.000000000000000000 ) ) ;
#43 = ORIENTED_EDGE ( 'NONE', *, *, #96, .F. ) ;
#44 = MECHANICAL_DESIGN_GEOMETRIC_PRESENTATION_REPRESENTATION (  '', ( #300 ), #246 ) ;
#45 = PLANE ( 'NONE',  #89 ) ;
#46 = EDGE_CURVE ( 'NONE', #223, #16, #49, .T. ) ;
#47 = DIRECTION ( 'NONE',  ( -3.628583108584753553E-17, 1.000000000000000000, -0.000000000000000000 ) ) ;
#48 = CYLINDRICAL_SURFACE ( 'NONE', #2, 0.5000000000000000000 ) ;
#49 = CIRCLE ( 'NONE', #290, 0.5000000000000000000 ) ;
#50 = AXIS2_PLACEMENT_3D ( 'NONE', #29, #141, #55 ) ;
#51 = DIRECTION ( 'NONE',  ( 0.000000000000000000, 0.000000000000000000, -1.000000000000000000 ) ) ;
#52 = PLANE ( 'NONE',  #242 ) ;
#53 = ORIENTED_EDGE ( 'NONE', *, *, #191, .T. ) ;
#54 = ORIENTED_EDGE ( 'NONE', *, *, #271, .F. ) ;
#55 = DIRECTION ( 'NONE',  ( -1.000000000000000000, 0.000000000000000000, 0.000000000000000000 ) ) ;
#56 = VECTOR ( 'NONE', #172, 39.37007874015748143 ) ;
#57 = FILL_AREA_STYLE_COLOUR ( '', #81 ) ;
#58 = DIRECTION ( 'NONE',  ( -0.000000000000000000, -1.000000000000000000, -0.000000000000000000 ) ) ;
#59 = DIRECTION ( 'NONE',  ( -3.628583108584753553E-17, 1.000000000000000000, -0.000000000000000000 ) ) ;
#60 = ADVANCED_FACE ( 'NONE', ( #178 ), #48, .T. ) ;
#61 = LENGTH_MEASURE_WITH_UNIT ( LENGTH_MEASURE( 0.02539999999999999897 ), #156 );
#62 = ORIENTED_EDGE ( 'NONE', *, *, #216, .F. ) ;
#63 = CARTESIAN_POINT ( 'NONE',  ( 0.4999999999999999445, 6.000000000000000888, 6.123233995736767268E-17 ) ) ;
#64 = LENGTH_MEASURE_WITH_UNIT ( LENGTH_MEASURE( 0.02539999999999999897 ), #118 );
#65 = FACE_OUTER_BOUND ( 'NONE', #104, .T. ) ;
#66 = FILL_AREA_STYLE ('',( #166 ) ) ;
#67 = FILL_AREA_STYLE_COLOUR ( '', #309 ) ;
#68 = MECHANICAL_DESIGN_GEOMETRIC_PRESENTATION_REPRESENTATION (  '', ( #106 ), #149 ) ;
#69 = CARTESIAN_POINT ( 'NONE',  ( -0.5000000000000002220, 6.000000000000000888, 0.000000000000000000 ) ) ;
#70 = ORIENTED_EDGE ( 'NONE', *, *, #139, .T. ) ;
#71 = CARTESIAN_POINT ( 'NONE',  ( 6.123233995736766036E-17, 0.000000000000000000, 0.5000000000000000000 ) ) ;
#72 = EDGE_CURVE ( 'NONE', #280, #102, #180, .T. ) ;
#73 = CIRCLE ( 'NONE', #193, 0.5000000000000000000 ) ;
#74 = PRESENTATION_LAYER_ASSIGNMENT (  '', '', ( #93 ) ) ;
#75 = CARTESIAN_POINT ( 'NONE',  ( 6.123233995736766036E-17, 2.625000000000000000, 0.5000000000000000000 ) ) ;
#76 = LENGTH_MEASURE_WITH_UNIT ( LENGTH_MEASURE( 0.02539999999999999897 ), #36 );
#77 = DIRECTION ( 'NONE',  ( -1.000000000000000000, 0.000000000000000000, 0.000000000000000000 ) ) ;
#78 = EDGE_LOOP ( 'NONE', ( #120, #143 ) ) ;
#79 = PLANE ( 'NONE',  #227 ) ;
#80 = DIRECTION ( 'NONE',  ( -3.628583108584753553E-17, 1.000000000000000000, -0.000000000000000000 ) ) ;
#81 = COLOUR_RGB ( '',0.7921568627450980005, 0.8196078431372548767, 0.9333333333333333481 ) ;
#82 =( NAMED_UNIT ( * ) SI_UNIT ( $, .STERADIAN. ) SOLID_ANGLE_UNIT ( ) );
#83 = DIMENSIONAL_EXPONENTS ( 1.000000000000000000, 0.000000000000000000, 0.000000000000000000, 0.000000000000000000, 0.000000000000000000, 0.000000000000000000, 0.000000000000000000 ) ;
#84 = EDGE_CURVE ( 'NONE', #257, #273, #285, .T. ) ;
#85 = SURFACE_SIDE_STYLE ('',( #182 ) ) ;
#86 =( NAMED_UNIT ( * ) SI_UNIT ( $, .STERADIAN. ) SOLID_ANGLE_UNIT ( ) );
#87 =( CONVERSION_BASED_UNIT ( 'INCH', #61 ) LENGTH_UNIT ( ) NAMED_UNIT ( #83 ) );
#88 = SURFACE_SIDE_STYLE ('',( #184 ) ) ;
#89 = AXIS2_PLACEMENT_3D ( 'NONE', #272, #119, #35 ) ;
#90 = PRESENTATION_STYLE_ASSIGNMENT (( #241 ) ) ;
#91 = DIRECTION ( 'NONE',  ( -3.628583108584753553E-17, 1.000000000000000000, -0.000000000000000000 ) ) ;
#92 = MECHANICAL_DESIGN_GEOMETRIC_PRESENTATION_REPRESENTATION (  '', ( #209 ), #220 ) ;
#93 = STYLED_ITEM ( 'NONE', ( #288 ), #201 ) ;
#94 = SURFACE_STYLE_USAGE ( .BOTH. , #195 ) ;
#95 = PRODUCT_DEFINITION ( 'UNKNOWN', '', #282, #33 ) ;
#96 = EDGE_CURVE ( 'NONE', #280, #257, #157, .T. ) ;
#97 = CARTESIAN_POINT ( 'NONE',  ( 0.000000000000000000, 2.625000000000000000, 0.000000000000000000 ) ) ;
#98 = MANIFOLD_SOLID_BREP ( 'Revolve - Cutting Edge', #308 ) ;
#99 =( CONVERSION_BASED_UNIT ( 'INCH', #243 ) LENGTH_UNIT ( ) NAMED_UNIT ( #200 ) );
#100 = CLOSED_SHELL ( 'NONE', ( #153, #213, #117, #266 ) ) ;
#101 = DIRECTION ( 'NONE',  ( -3.628583108584753553E-17, 1.000000000000000000, 0.000000000000000000 ) ) ;
#102 = VERTEX_POINT ( 'NONE', #286 ) ;
#103 = DIRECTION ( 'NONE',  ( 0.000000000000000000, 0.000000000000000000, -1.000000000000000000 ) ) ;
#104 = EDGE_LOOP ( 'NONE', ( #70, #124 ) ) ;
#105 = SHAPE_DEFINITION_REPRESENTATION ( #127, #203 ) ;
#106 = STYLED_ITEM ( 'NONE', ( #215 ), #60 ) ;
#107 = CARTESIAN_POINT ( 'NONE',  ( 0.000000000000000000, 0.000000000000000000, 0.000000000000000000 ) ) ;
#108 = SURFACE_STYLE_FILL_AREA ( #197 ) ;
#109 = VECTOR ( 'NONE', #58, 39.37007874015748143 ) ;
#110 = DIMENSIONAL_EXPONENTS ( 1.000000000000000000, 0.000000000000000000, 0.000000000000000000, 0.000000000000000000, 0.000000000000000000, 0.000000000000000000, 0.000000000000000000 ) ;
#111 = UNCERTAINTY_MEASURE_WITH_UNIT (LENGTH_MEASURE( 1.000000000000000082E-05 ), #218, 'distance_accuracy_value', 'NONE');
#112 =( NAMED_UNIT ( * ) PLANE_ANGLE_UNIT ( ) SI_UNIT ( $, .RADIAN. ) );
#113 = CARTESIAN_POINT ( 'NONE',  ( -1.224646799147354440E-16, 6.000000000000000888, 0.000000000000000000 ) ) ;
#114 = FILL_AREA_STYLE_COLOUR ( '', #233 ) ;
#115 = EDGE_CURVE ( 'NONE', #273, #257, #9, .T. ) ;
#116 = PRESENTATION_STYLE_ASSIGNMENT (( #263 ) ) ;
#117 = ADVANCED_FACE ( 'NONE', ( #304 ), #307, .T. ) ;
#118 =( LENGTH_UNIT ( ) NAMED_UNIT ( * ) SI_UNIT ( $, .METRE. ) );
#119 = DIRECTION ( 'NONE',  ( 0.000000000000000000, -1.000000000000000000, -0.000000000000000000 ) ) ;
#120 = ORIENTED_EDGE ( 'NONE', *, *, #261, .F. ) ;
#121 = UNCERTAINTY_MEASURE_WITH_UNIT (LENGTH_MEASURE( 1.000000000000000082E-05 ), #152, 'distance_accuracy_value', 'NONE');
#122 = ADVANCED_FACE ( 'NONE', ( #183 ), #186, .T. ) ;
#123 = LINE ( 'NONE', #69, #150 ) ;
#124 = ORIENTED_EDGE ( 'NONE', *, *, #46, .T. ) ;
#125 = CARTESIAN_POINT ( 'NONE',  ( -1.224646799147354440E-16, 6.000000000000000888, 0.000000000000000000 ) ) ;
#126 =( GEOMETRIC_REPRESENTATION_CONTEXT ( 3 ) GLOBAL_UNCERTAINTY_ASSIGNED_CONTEXT ( ( #169 ) ) GLOBAL_UNIT_ASSIGNED_CONTEXT ( ( #248, #34, #245 ) ) REPRESENTATION_CONTEXT ( 'NONE', 'WORKASPACE' ) );
#127 = PRODUCT_DEFINITION_SHAPE ( 'NONE', 'NONE',  #95 ) ;
#128 = AXIS2_PLACEMENT_3D ( 'NONE', #21, #239, #185 ) ;
#129 = EDGE_LOOP ( 'NONE', ( #228, #53, #231, #293 ) ) ;
#130 = MECHANICAL_DESIGN_GEOMETRIC_PRESENTATION_REPRESENTATION (  '', ( #236 ), #163 ) ;
#131 = DIRECTION ( 'NONE',  ( -0.000000000000000000, -1.000000000000000000, -0.000000000000000000 ) ) ;
#132 =( GEOMETRIC_REPRESENTATION_CONTEXT ( 3 ) GLOBAL_UNCERTAINTY_ASSIGNED_CONTEXT ( ( #121 ) ) GLOBAL_UNIT_ASSIGNED_CONTEXT ( ( #152, #253, #279 ) ) REPRESENTATION_CONTEXT ( 'NONE', 'WORKASPACE' ) );
#133 = DIRECTION ( 'NONE',  ( -1.000000000000000000, 0.000000000000000000, 0.000000000000000000 ) ) ;
#134 = DIMENSIONAL_EXPONENTS ( 1.000000000000000000, 0.000000000000000000, 0.000000000000000000, 0.000000000000000000, 0.000000000000000000, 0.000000000000000000, 0.000000000000000000 ) ;
#135 = SURFACE_SIDE_STYLE ('',( #23 ) ) ;
#136 = COLOUR_RGB ( '',1.000000000000000000, 0.000000000000000000, 0.000000000000000000 ) ;
#137 = AXIS2_PLACEMENT_3D ( 'NONE', #107, #175, #38 ) ;
#138 = CARTESIAN_POINT ( 'NONE',  ( 0.5000000000000000000, 6.000000000000000888, 0.000000000000000000 ) ) ;
#139 = EDGE_CURVE ( 'NONE', #16, #223, #252, .T. ) ;
#140 =( NAMED_UNIT ( * ) SI_UNIT ( $, .STERADIAN. ) SOLID_ANGLE_UNIT ( ) );
#141 = DIRECTION ( 'NONE',  ( -3.628583108584753553E-17, 1.000000000000000000, -0.000000000000000000 ) ) ;
#142 = AXIS2_PLACEMENT_3D ( 'NONE', #296, #80, #77 ) ;
#143 = ORIENTED_EDGE ( 'NONE', *, *, #72, .F. ) ;
#144 = UNCERTAINTY_MEASURE_WITH_UNIT (LENGTH_MEASURE( 1.000000000000000082E-05 ), #298, 'distance_accuracy_value', 'NONE');
#145 = VERTEX_POINT ( 'NONE', #164 ) ;
#146 = ADVANCED_FACE ( 'NONE', ( #65 ), #45, .T. ) ;
#147 = FACE_OUTER_BOUND ( 'NONE', #158, .T. ) ;
#148 = DIRECTION ( 'NONE',  ( 3.628583108584753553E-17, -1.000000000000000000, 0.000000000000000000 ) ) ;
#149 =( GEOMETRIC_REPRESENTATION_CONTEXT ( 3 ) GLOBAL_UNCERTAINTY_ASSIGNED_CONTEXT ( ( #167 ) ) GLOBAL_UNIT_ASSIGNED_CONTEXT ( ( #87, #258, #140 ) ) REPRESENTATION_CONTEXT ( 'NONE', 'WORKASPACE' ) );
#150 = VECTOR ( 'NONE', #187, 39.37007874015748143 ) ;
#151 = CARTESIAN_POINT ( 'NONE',  ( -0.5000000000000002220, 6.000000000000000888, 0.000000000000000000 ) ) ;
#152 =( CONVERSION_BASED_UNIT ( 'INCH', #76 ) LENGTH_UNIT ( ) NAMED_UNIT ( #238 ) );
#153 = ADVANCED_FACE ( 'NONE', ( #5 ), #189, .T. ) ;
#154 = CARTESIAN_POINT ( 'NONE',  ( -1.224646799147354440E-16, 6.000000000000000888, 0.000000000000000000 ) ) ;
#155 = AXIS2_PLACEMENT_3D ( 'NONE', #10, #59, #176 ) ;
#156 =( LENGTH_UNIT ( ) NAMED_UNIT ( * ) SI_UNIT ( $, .METRE. ) );
#157 = LINE ( 'NONE', #63, #18 ) ;
#158 = EDGE_LOOP ( 'NONE', ( #249, #235 ) ) ;
#159 = FILL_AREA_STYLE_COLOUR ( '', #254 ) ;
#160 = FILL_AREA_STYLE_COLOUR ( '', #240 ) ;
#161 =( LENGTH_UNIT ( ) NAMED_UNIT ( * ) SI_UNIT ( $, .METRE. ) );
#162 = CARTESIAN_POINT ( 'NONE',  ( 0.000000000000000000, 2.625000000000000000, 0.000000000000000000 ) ) ;
#163 =( GEOMETRIC_REPRESENTATION_CONTEXT ( 3 ) GLOBAL_UNCERTAINTY_ASSIGNED_CONTEXT ( ( #144 ) ) GLOBAL_UNIT_ASSIGNED_CONTEXT ( ( #298, #265, #86 ) ) REPRESENTATION_CONTEXT ( 'NONE', 'WORKASPACE' ) );
#164 = CARTESIAN_POINT ( 'NONE',  ( 0.000000000000000000, 2.625000000000000000, -0.5000000000000000000 ) ) ;
#165 = CIRCLE ( 'NONE', #50, 0.5000000000000000000 ) ;
#166 = FILL_AREA_STYLE_COLOUR ( '', #136 ) ;
#167 = UNCERTAINTY_MEASURE_WITH_UNIT (LENGTH_MEASURE( 1.000000000000000082E-05 ), #87, 'distance_accuracy_value', 'NONE');
#168 =( LENGTH_UNIT ( ) NAMED_UNIT ( * ) SI_UNIT ( $, .METRE. ) );
#169 = UNCERTAINTY_MEASURE_WITH_UNIT (LENGTH_MEASURE( 1.000000000000000082E-05 ), #248, 'distance_accuracy_value', 'NONE');
#170 =( NAMED_UNIT ( * ) SI_UNIT ( $, .STERADIAN. ) SOLID_ANGLE_UNIT ( ) );
#171 = EDGE_LOOP ( 'NONE', ( #54, #4 ) ) ;
#172 = DIRECTION ( 'NONE',  ( -0.000000000000000000, -1.000000000000000000, -0.000000000000000000 ) ) ;
#173 = ORIENTED_EDGE ( 'NONE', *, *, #84, .F. ) ;
#174 = AXIS2_PLACEMENT_3D ( 'NONE', #262, #131, #237 ) ;
#175 = DIRECTION ( 'NONE',  ( 0.000000000000000000, 0.000000000000000000, 1.000000000000000000 ) ) ;
#176 = DIRECTION ( 'NONE',  ( -1.000000000000000000, 0.000000000000000000, 0.000000000000000000 ) ) ;
#177 = DIMENSIONAL_EXPONENTS ( 1.000000000000000000, 0.000000000000000000, 0.000000000000000000, 0.000000000000000000, 0.000000000000000000, 0.000000000000000000, 0.000000000000000000 ) ;
#178 = FACE_OUTER_BOUND ( 'NONE', #129, .T. ) ;
#179 = ORIENTED_EDGE ( 'NONE', *, *, #96, .T. ) ;
#180 = CIRCLE ( 'NONE', #155, 0.5000000000000000000 ) ;
#181 = SURFACE_STYLE_USAGE ( .BOTH. , #12 ) ;
#182 = SURFACE_STYLE_FILL_AREA ( #210 ) ;
#183 = FACE_OUTER_BOUND ( 'NONE', #247, .T. ) ;
#184 = SURFACE_STYLE_FILL_AREA ( #1 ) ;
#185 = DIRECTION ( 'NONE',  ( 0.000000000000000000, 0.000000000000000000, -1.000000000000000000 ) ) ;
#186 = CYLINDRICAL_SURFACE ( 'NONE', #174, 0.5000000000000000000 ) ;
#187 = DIRECTION ( 'NONE',  ( -3.628583108584753553E-17, 1.000000000000000000, -0.000000000000000000 ) ) ;
#188 = AXIS2_PLACEMENT_3D ( 'NONE', #125, #190, #8 ) ;
#189 = CYLINDRICAL_SURFACE ( 'NONE', #188, 0.5000000000000001110 ) ;
#190 = DIRECTION ( 'NONE',  ( -3.628583108584753553E-17, 1.000000000000000000, -0.000000000000000000 ) ) ;
#191 = EDGE_CURVE ( 'NONE', #277, #145, #73, .T. ) ;
#192 = EDGE_LOOP ( 'NONE', ( #43, #225, #30, #173 ) ) ;
#193 = AXIS2_PLACEMENT_3D ( 'NONE', #97, #289, #51 ) ;
#194 = LINE ( 'NONE', #234, #109 ) ;
#195 = SURFACE_SIDE_STYLE ('',( #27 ) ) ;
#196 = ORIENTED_EDGE ( 'NONE', *, *, #261, .T. ) ;
#197 = FILL_AREA_STYLE ('',( #57 ) ) ;
#198 = APPLICATION_PROTOCOL_DEFINITION ( 'draft international standard', 'automotive_design', 1998, #214 ) ;
#199 = PRESENTATION_LAYER_ASSIGNMENT (  '', '', ( #106 ) ) ;
#200 = DIMENSIONAL_EXPONENTS ( 1.000000000000000000, 0.000000000000000000, 0.000000000000000000, 0.000000000000000000, 0.000000000000000000, 0.000000000000000000, 0.000000000000000000 ) ;
#201 = MANIFOLD_SOLID_BREP ( 'Revolve - Tool Body (Straight Shanked)', #100 ) ;
#202 = PRESENTATION_STYLE_ASSIGNMENT (( #181 ) ) ;
#203 = ADVANCED_BREP_SHAPE_REPRESENTATION ( '00765', ( #98, #201, #137 ), #132 ) ;
#204 = FACE_OUTER_BOUND ( 'NONE', #171, .T. ) ;
#205 = DIRECTION ( 'NONE',  ( -0.000000000000000000, -1.000000000000000000, -0.000000000000000000 ) ) ;
#206 = ORIENTED_EDGE ( 'NONE', *, *, #271, .T. ) ;
#207 = FILL_AREA_STYLE ('',( #114 ) ) ;
#208 = PRODUCT ( '00765', '00765', '', ( #276 ) ) ;
#209 = STYLED_ITEM ( 'NONE', ( #283 ), #39 ) ;
#210 = FILL_AREA_STYLE ('',( #159 ) ) ;
#211 = CIRCLE ( 'NONE', #19, 0.5000000000000000000 ) ;
#212 = DIRECTION ( 'NONE',  ( 0.000000000000000000, 0.000000000000000000, -1.000000000000000000 ) ) ;
#213 = ADVANCED_FACE ( 'NONE', ( #269 ), #52, .F. ) ;
#214 = APPLICATION_CONTEXT ( 'automotive_design' ) ;
#215 = PRESENTATION_STYLE_ASSIGNMENT (( #256 ) ) ;
#216 = EDGE_CURVE ( 'NONE', #102, #273, #123, .T. ) ;
#217 = MECHANICAL_DESIGN_GEOMETRIC_PRESENTATION_REPRESENTATION (  '', ( #93 ), #126 ) ;
#218 =( CONVERSION_BASED_UNIT ( 'INCH', #64 ) LENGTH_UNIT ( ) NAMED_UNIT ( #134 ) );
#219 = LENGTH_MEASURE_WITH_UNIT ( LENGTH_MEASURE( 0.02539999999999999897 ), #168 );
#220 =( GEOMETRIC_REPRESENTATION_CONTEXT ( 3 ) GLOBAL_UNCERTAINTY_ASSIGNED_CONTEXT ( ( #28 ) ) GLOBAL_UNIT_ASSIGNED_CONTEXT ( ( #260, #112, #40 ) ) REPRESENTATION_CONTEXT ( 'NONE', 'WORKASPACE' ) );
#221 = EDGE_LOOP ( 'NONE', ( #196, #179, #244, #62 ) ) ;
#222 = DIRECTION ( 'NONE',  ( -1.000000000000000000, -3.628583108584753553E-17, 0.000000000000000000 ) ) ;
#223 = VERTEX_POINT ( 'NONE', #71 ) ;
#224 = CARTESIAN_POINT ( 'NONE',  ( 6.123233995736766036E-17, 0.000000000000000000, 0.5000000000000000000 ) ) ;
#225 = ORIENTED_EDGE ( 'NONE', *, *, #72, .T. ) ;
#226 =( NAMED_UNIT ( * ) PLANE_ANGLE_UNIT ( ) SI_UNIT ( $, .RADIAN. ) );
#227 = AXIS2_PLACEMENT_3D ( 'NONE', #162, #306, #284 ) ;
#228 = ORIENTED_EDGE ( 'NONE', *, *, #255, .F. ) ;
#229 = PRODUCT_RELATED_PRODUCT_CATEGORY ( 'part', '', ( #208 ) ) ;
#230 = DIRECTION ( 'NONE',  ( 0.000000000000000000, 0.000000000000000000, -1.000000000000000000 ) ) ;
#231 = ORIENTED_EDGE ( 'NONE', *, *, #6, .T. ) ;
#232 = LENGTH_MEASURE_WITH_UNIT ( LENGTH_MEASURE( 0.02539999999999999897 ), #295 );
#233 = COLOUR_RGB ( '',1.000000000000000000, 0.000000000000000000, 0.000000000000000000 ) ;
#234 = CARTESIAN_POINT ( 'NONE',  ( 0.000000000000000000, 0.000000000000000000, -0.5000000000000000000 ) ) ;
#235 = ORIENTED_EDGE ( 'NONE', *, *, #84, .T. ) ;
#236 = STYLED_ITEM ( 'NONE', ( #202 ), #98 ) ;
#237 = DIRECTION ( 'NONE',  ( 0.000000000000000000, 0.000000000000000000, -1.000000000000000000 ) ) ;
#238 = DIMENSIONAL_EXPONENTS ( 1.000000000000000000, 0.000000000000000000, 0.000000000000000000, 0.000000000000000000, 0.000000000000000000, 0.000000000000000000, 0.000000000000000000 ) ;
#239 = DIRECTION ( 'NONE',  ( -0.000000000000000000, -1.000000000000000000, -0.000000000000000000 ) ) ;
#240 = COLOUR_RGB ( '',1.000000000000000000, 0.000000000000000000, 0.000000000000000000 ) ;
#241 = SURFACE_STYLE_USAGE ( .BOTH. , #88 ) ;
#242 = AXIS2_PLACEMENT_3D ( 'NONE', #3, #101, #222 ) ;
#243 = LENGTH_MEASURE_WITH_UNIT ( LENGTH_MEASURE( 0.02539999999999999897 ), #24 );
#244 = ORIENTED_EDGE ( 'NONE', *, *, #115, .F. ) ;
#245 =( NAMED_UNIT ( * ) SI_UNIT ( $, .STERADIAN. ) SOLID_ANGLE_UNIT ( ) );
#246 =( GEOMETRIC_REPRESENTATION_CONTEXT ( 3 ) GLOBAL_UNCERTAINTY_ASSIGNED_CONTEXT ( ( #302 ) ) GLOBAL_UNIT_ASSIGNED_CONTEXT ( ( #99, #226, #170 ) ) REPRESENTATION_CONTEXT ( 'NONE', 'WORKASPACE' ) );
#247 = EDGE_LOOP ( 'NONE', ( #206, #37, #7, #250 ) ) ;
#248 =( CONVERSION_BASED_UNIT ( 'INCH', #219 ) LENGTH_UNIT ( ) NAMED_UNIT ( #305 ) );
#249 = ORIENTED_EDGE ( 'NONE', *, *, #115, .T. ) ;
#250 = ORIENTED_EDGE ( 'NONE', *, *, #6, .F. ) ;
#251 = DIRECTION ( 'NONE',  ( 1.000000000000000000, 3.628583108584753553E-17, 0.000000000000000000 ) ) ;
#252 = CIRCLE ( 'NONE', #128, 0.5000000000000000000 ) ;
#253 =( NAMED_UNIT ( * ) PLANE_ANGLE_UNIT ( ) SI_UNIT ( $, .RADIAN. ) );
#254 = COLOUR_RGB ( '',1.000000000000000000, 0.000000000000000000, 0.000000000000000000 ) ;
#255 = EDGE_CURVE ( 'NONE', #277, #223, #32, .T. ) ;
#256 = SURFACE_STYLE_USAGE ( .BOTH. , #85 ) ;
#257 = VERTEX_POINT ( 'NONE', #275 ) ;
#258 =( NAMED_UNIT ( * ) PLANE_ANGLE_UNIT ( ) SI_UNIT ( $, .RADIAN. ) );
#259 =( NAMED_UNIT ( * ) PLANE_ANGLE_UNIT ( ) SI_UNIT ( $, .RADIAN. ) );
#260 =( CONVERSION_BASED_UNIT ( 'INCH', #22 ) LENGTH_UNIT ( ) NAMED_UNIT ( #177 ) );
#261 = EDGE_CURVE ( 'NONE', #102, #280, #165, .T. ) ;
#262 = CARTESIAN_POINT ( 'NONE',  ( 0.000000000000000000, 0.000000000000000000, 0.000000000000000000 ) ) ;
#263 = SURFACE_STYLE_USAGE ( .BOTH. , #135 ) ;
#264 = APPLICATION_CONTEXT ( 'automotive_design' ) ;
#265 =( NAMED_UNIT ( * ) PLANE_ANGLE_UNIT ( ) SI_UNIT ( $, .RADIAN. ) );
#266 = ADVANCED_FACE ( 'NONE', ( #147 ), #287, .F. ) ;
#267 = CARTESIAN_POINT ( 'NONE',  ( 0.000000000000000000, 0.000000000000000000, 0.000000000000000000 ) ) ;
#268 = AXIS2_PLACEMENT_3D ( 'NONE', #113, #47, #26 ) ;
#269 = FACE_OUTER_BOUND ( 'NONE', #78, .T. ) ;
#270 = FILL_AREA_STYLE ('',( #67 ) ) ;
#271 = EDGE_CURVE ( 'NONE', #145, #277, #211, .T. ) ;
#272 = CARTESIAN_POINT ( 'NONE',  ( 0.000000000000000000, 0.000000000000000000, 0.000000000000000000 ) ) ;
#273 = VERTEX_POINT ( 'NONE', #151 ) ;
#274 = PRESENTATION_LAYER_ASSIGNMENT (  '', '', ( #209 ) ) ;
#275 = CARTESIAN_POINT ( 'NONE',  ( 0.5000000000000000000, 6.000000000000000888, 6.123233995736767268E-17 ) ) ;
#276 = PRODUCT_CONTEXT ( 'NONE', #214, 'mechanical' ) ;
#277 = VERTEX_POINT ( 'NONE', #75 ) ;
#278 = AXIS2_PLACEMENT_3D ( 'NONE', #138, #148, #251 ) ;
#279 =( NAMED_UNIT ( * ) SI_UNIT ( $, .STERADIAN. ) SOLID_ANGLE_UNIT ( ) );
#280 = VERTEX_POINT ( 'NONE', #11 ) ;
#281 = MECHANICAL_DESIGN_GEOMETRIC_PRESENTATION_REPRESENTATION (  '', ( #41 ), #31 ) ;
#282 = PRODUCT_DEFINITION_FORMATION_WITH_SPECIFIED_SOURCE ( 'ANY', '', #208, .NOT_KNOWN. ) ;
#283 = PRESENTATION_STYLE_ASSIGNMENT (( #303 ) ) ;
#284 = DIRECTION ( 'NONE',  ( 0.000000000000000000, -0.000000000000000000, 1.000000000000000000 ) ) ;
#285 = CIRCLE ( 'NONE', #142, 0.5000000000000001110 ) ;
#286 = CARTESIAN_POINT ( 'NONE',  ( -0.5000000000000000000, 2.625000000000000000, 0.000000000000000000 ) ) ;
#287 = PLANE ( 'NONE',  #278 ) ;
#288 = PRESENTATION_STYLE_ASSIGNMENT (( #94 ) ) ;
#289 = DIRECTION ( 'NONE',  ( -0.000000000000000000, -1.000000000000000000, -0.000000000000000000 ) ) ;
#290 = AXIS2_PLACEMENT_3D ( 'NONE', #42, #20, #212 ) ;
#291 = DIRECTION ( 'NONE',  ( -0.000000000000000000, -1.000000000000000000, -0.000000000000000000 ) ) ;
#292 = APPLICATION_PROTOCOL_DEFINITION ( 'draft international standard', 'automotive_design', 1998, #264 ) ;
#293 = ORIENTED_EDGE ( 'NONE', *, *, #46, .F. ) ;
#294 = CARTESIAN_POINT ( 'NONE',  ( 0.000000000000000000, 2.625000000000000000, 0.000000000000000000 ) ) ;
#295 =( LENGTH_UNIT ( ) NAMED_UNIT ( * ) SI_UNIT ( $, .METRE. ) );
#296 = CARTESIAN_POINT ( 'NONE',  ( -1.224646799147354440E-16, 6.000000000000000888, 0.000000000000000000 ) ) ;
#297 = AXIS2_PLACEMENT_3D ( 'NONE', #154, #91, #133 ) ;
#298 =( CONVERSION_BASED_UNIT ( 'INCH', #232 ) LENGTH_UNIT ( ) NAMED_UNIT ( #110 ) );
#299 = SURFACE_SIDE_STYLE ('',( #14 ) ) ;
#300 = STYLED_ITEM ( 'NONE', ( #116 ), #146 ) ;
#301 = CARTESIAN_POINT ( 'NONE',  ( 0.000000000000000000, 0.000000000000000000, -0.5000000000000000000 ) ) ;
#302 = UNCERTAINTY_MEASURE_WITH_UNIT (LENGTH_MEASURE( 1.000000000000000082E-05 ), #99, 'distance_accuracy_value', 'NONE');
#303 = SURFACE_STYLE_USAGE ( .BOTH. , #299 ) ;
#304 = FACE_OUTER_BOUND ( 'NONE', #192, .T. ) ;
#305 = DIMENSIONAL_EXPONENTS ( 1.000000000000000000, 0.000000000000000000, 0.000000000000000000, 0.000000000000000000, 0.000000000000000000, 0.000000000000000000, 0.000000000000000000 ) ;
#306 = DIRECTION ( 'NONE',  ( 0.000000000000000000, 1.000000000000000000, 0.000000000000000000 ) ) ;
#307 = CYLINDRICAL_SURFACE ( 'NONE', #268, 0.5000000000000001110 ) ;
#308 = CLOSED_SHELL ( 'NONE', ( #122, #39, #60, #146 ) ) ;
#309 = COLOUR_RGB ( '',0.7921568627450980005, 0.8196078431372548767, 0.9333333333333333481 ) ;
ENDSEC;
END-ISO-10303-21;
