ISO-10303-21;
HEADER;
FILE_DESCRIPTION (( 'STEP AP214' ),
    '1' );
FILE_NAME ('84783.STEP',
    '2023-07-05T16:26:53',
    ( '' ),
    ( '' ),
    'SwSTEP 2.0',
    'SolidWorks 2023',
    '' );
FILE_SCHEMA (( 'AUTOMOTIVE_DESIGN' ));
ENDSEC;

DATA;
#1 = ORIENTED_EDGE ( 'NONE', *, *, #42, .F. ) ;
#2 = CARTESIAN_POINT ( 'NONE',  ( 0.000000000000000000, 0.000000000000000000, 0.000000000000000000 ) ) ;
#3 = VERTEX_POINT ( 'NONE', #2 ) ;
#4 = ADVANCED_FACE ( 'NONE', ( #113 ), #94, .T. ) ;
#5 = SURFACE_STYLE_USAGE ( .BOTH. , #49 ) ;
#6 =( LENGTH_UNIT ( ) NAMED_UNIT ( * ) SI_UNIT ( $, .METRE. ) );
#7 = CLOSED_SHELL ( 'NONE', ( #106, #176, #55, #29 ) ) ;
#8 =( NAMED_UNIT ( * ) PLANE_ANGLE_UNIT ( ) SI_UNIT ( $, .RADIAN. ) );
#9 = UNCERTAINTY_MEASURE_WITH_UNIT (LENGTH_MEASURE( 1.000000000000000082E-05 ), #40, 'distance_accuracy_value', 'NONE');
#10 = ORIENTED_EDGE ( 'NONE', *, *, #39, .F. ) ;
#11 = LINE ( 'NONE', #43, #16 ) ;
#12 = AXIS2_PLACEMENT_3D ( 'NONE', #35, #98, #250 ) ;
#13 =( CONVERSION_BASED_UNIT ( 'INCH', #80 ) LENGTH_UNIT ( ) NAMED_UNIT ( #81 ) );
#14 = DIRECTION ( 'NONE',  ( 0.000000000000000000, 0.000000000000000000, 1.000000000000000000 ) ) ;
#15 = CARTESIAN_POINT ( 'NONE',  ( -0.3124999999999999445, 3.000000000000000444, 0.000000000000000000 ) ) ;
#16 = VECTOR ( 'NONE', #215, 39.37007874015748143 ) ;
#17 = VERTEX_POINT ( 'NONE', #165 ) ;
#18 =( CONVERSION_BASED_UNIT ( 'INCH', #204 ) LENGTH_UNIT ( ) NAMED_UNIT ( #71 ) );
#19 = PRODUCT ( '84783', '84783', '', ( #180 ) ) ;
#20 = PLANE ( 'NONE',  #217 ) ;
#21 = ORIENTED_EDGE ( 'NONE', *, *, #135, .F. ) ;
#22 = DIRECTION ( 'NONE',  ( -1.000000000000000000, 0.000000000000000000, 0.000000000000000000 ) ) ;
#23 = UNCERTAINTY_MEASURE_WITH_UNIT (LENGTH_MEASURE( 1.000000000000000082E-05 ), #28, 'distance_accuracy_value', 'NONE');
#24 = ORIENTED_EDGE ( 'NONE', *, *, #48, .T. ) ;
#25 = PRESENTATION_LAYER_ASSIGNMENT (  '', '', ( #199 ) ) ;
#26 = EDGE_LOOP ( 'NONE', ( #30, #24 ) ) ;
#27 = EDGE_CURVE ( 'NONE', #186, #17, #63, .T. ) ;
#28 =( CONVERSION_BASED_UNIT ( 'INCH', #133 ) LENGTH_UNIT ( ) NAMED_UNIT ( #191 ) );
#29 = ADVANCED_FACE ( 'NONE', ( #147 ), #20, .F. ) ;
#30 = ORIENTED_EDGE ( 'NONE', *, *, #42, .T. ) ;
#31 = AXIS2_PLACEMENT_3D ( 'NONE', #69, #188, #194 ) ;
#32 = FILL_AREA_STYLE_COLOUR ( '', #95 ) ;
#33 = FILL_AREA_STYLE ('',( #73 ) ) ;
#34 =( LENGTH_UNIT ( ) NAMED_UNIT ( * ) SI_UNIT ( $, .METRE. ) );
#35 = CARTESIAN_POINT ( 'NONE',  ( 0.000000000000000000, 0.5412658773652725408, 0.000000000000000000 ) ) ;
#36 =( GEOMETRIC_REPRESENTATION_CONTEXT ( 3 ) GLOBAL_UNCERTAINTY_ASSIGNED_CONTEXT ( ( #151 ) ) GLOBAL_UNIT_ASSIGNED_CONTEXT ( ( #52, #79, #88 ) ) REPRESENTATION_CONTEXT ( 'NONE', 'WORKASPACE' ) );
#37 =( LENGTH_UNIT ( ) NAMED_UNIT ( * ) SI_UNIT ( $, .METRE. ) );
#38 = ORIENTED_EDGE ( 'NONE', *, *, #48, .F. ) ;
#39 = EDGE_CURVE ( 'NONE', #3, #126, #183, .T. ) ;
#40 =( CONVERSION_BASED_UNIT ( 'INCH', #41 ) LENGTH_UNIT ( ) NAMED_UNIT ( #213 ) );
#41 = LENGTH_MEASURE_WITH_UNIT ( LENGTH_MEASURE( 0.02539999999999999897 ), #37 );
#42 = EDGE_CURVE ( 'NONE', #93, #220, #156, .T. ) ;
#43 = CARTESIAN_POINT ( 'NONE',  ( 0.000000000000000000, 0.000000000000000000, 0.000000000000000000 ) ) ;
#44 = DIRECTION ( 'NONE',  ( -1.277530704499805038E-16, 1.000000000000000000, -0.000000000000000000 ) ) ;
#45 = CARTESIAN_POINT ( 'NONE',  ( 0.000000000000000000, 0.000000000000000000, 0.000000000000000000 ) ) ;
#46 = SURFACE_STYLE_FILL_AREA ( #60 ) ;
#47 = UNCERTAINTY_MEASURE_WITH_UNIT (LENGTH_MEASURE( 1.000000000000000082E-05 ), #13, 'distance_accuracy_value', 'NONE');
#48 = EDGE_CURVE ( 'NONE', #220, #93, #91, .T. ) ;
#49 = SURFACE_SIDE_STYLE ('',( #252 ) ) ;
#50 = DIRECTION ( 'NONE',  ( -1.277530704499805038E-16, 1.000000000000000000, -0.000000000000000000 ) ) ;
#51 = AXIS2_PLACEMENT_3D ( 'NONE', #169, #210, #75 ) ;
#52 =( CONVERSION_BASED_UNIT ( 'INCH', #235 ) LENGTH_UNIT ( ) NAMED_UNIT ( #171 ) );
#53 = APPLICATION_PROTOCOL_DEFINITION ( 'draft international standard', 'automotive_design', 1998, #143 ) ;
#54 = ADVANCED_BREP_SHAPE_REPRESENTATION ( '84783', ( #116, #195, #221 ), #226 ) ;
#55 = ADVANCED_FACE ( 'NONE', ( #260 ), #161, .T. ) ;
#56 =( NAMED_UNIT ( * ) SI_UNIT ( $, .STERADIAN. ) SOLID_ANGLE_UNIT ( ) );
#57 = DIRECTION ( 'NONE',  ( 0.000000000000000000, -0.000000000000000000, 1.000000000000000000 ) ) ;
#58 = ORIENTED_EDGE ( 'NONE', *, *, #27, .F. ) ;
#59 = MECHANICAL_DESIGN_GEOMETRIC_PRESENTATION_REPRESENTATION (  '', ( #219 ), #107 ) ;
#60 = FILL_AREA_STYLE ('',( #244 ) ) ;
#61 = EDGE_CURVE ( 'NONE', #17, #186, #192, .T. ) ;
#62 = DIRECTION ( 'NONE',  ( 1.277530704499805038E-16, -1.000000000000000000, 0.000000000000000000 ) ) ;
#63 = CIRCLE ( 'NONE', #160, 0.3124999999999996669 ) ;
#64 = ORIENTED_EDGE ( 'NONE', *, *, #61, .T. ) ;
#65 = CARTESIAN_POINT ( 'NONE',  ( 0.3124999999999999445, 3.000000000000000444, 0.000000000000000000 ) ) ;
#66 =( NAMED_UNIT ( * ) SI_UNIT ( $, .STERADIAN. ) SOLID_ANGLE_UNIT ( ) );
#67 = MECHANICAL_DESIGN_GEOMETRIC_PRESENTATION_REPRESENTATION (  '', ( #257 ), #209 ) ;
#68 =( LENGTH_UNIT ( ) NAMED_UNIT ( * ) SI_UNIT ( $, .METRE. ) );
#69 = CARTESIAN_POINT ( 'NONE',  ( 2.528784936293576816E-16, 0.5412658773652725408, 0.000000000000000000 ) ) ;
#70 = UNCERTAINTY_MEASURE_WITH_UNIT (LENGTH_MEASURE( 1.000000000000000082E-05 ), #18, 'distance_accuracy_value', 'NONE');
#71 = DIMENSIONAL_EXPONENTS ( 1.000000000000000000, 0.000000000000000000, 0.000000000000000000, 0.000000000000000000, 0.000000000000000000, 0.000000000000000000, 0.000000000000000000 ) ;
#72 =( LENGTH_UNIT ( ) NAMED_UNIT ( * ) SI_UNIT ( $, .METRE. ) );
#73 = FILL_AREA_STYLE_COLOUR ( '', #149 ) ;
#74 =( GEOMETRIC_REPRESENTATION_CONTEXT ( 3 ) GLOBAL_UNCERTAINTY_ASSIGNED_CONTEXT ( ( #134 ) ) GLOBAL_UNIT_ASSIGNED_CONTEXT ( ( #158, #8, #56 ) ) REPRESENTATION_CONTEXT ( 'NONE', 'WORKASPACE' ) );
#75 = DIRECTION ( 'NONE',  ( 0.000000000000000000, 0.000000000000000000, -1.000000000000000000 ) ) ;
#76 =( NAMED_UNIT ( * ) PLANE_ANGLE_UNIT ( ) SI_UNIT ( $, .RADIAN. ) );
#77 =( NAMED_UNIT ( * ) PLANE_ANGLE_UNIT ( ) SI_UNIT ( $, .RADIAN. ) );
#78 = DIRECTION ( 'NONE',  ( 0.000000000000000000, 0.000000000000000000, 1.000000000000000000 ) ) ;
#79 =( NAMED_UNIT ( * ) PLANE_ANGLE_UNIT ( ) SI_UNIT ( $, .RADIAN. ) );
#80 = LENGTH_MEASURE_WITH_UNIT ( LENGTH_MEASURE( 0.02539999999999999897 ), #68 );
#81 = DIMENSIONAL_EXPONENTS ( 1.000000000000000000, 0.000000000000000000, 0.000000000000000000, 0.000000000000000000, 0.000000000000000000, 0.000000000000000000, 0.000000000000000000 ) ;
#82 = CONICAL_SURFACE ( 'NONE', #115, 22.73032555864674364, 0.5235987755983000369 ) ;
#83 =( NAMED_UNIT ( * ) SI_UNIT ( $, .STERADIAN. ) SOLID_ANGLE_UNIT ( ) );
#84 = DIRECTION ( 'NONE',  ( -1.277530704499805038E-16, 1.000000000000000000, -0.000000000000000000 ) ) ;
#85 = AXIS2_PLACEMENT_3D ( 'NONE', #159, #240, #57 ) ;
#86 = FACE_OUTER_BOUND ( 'NONE', #229, .T. ) ;
#87 = EDGE_CURVE ( 'NONE', #17, #93, #205, .T. ) ;
#88 =( NAMED_UNIT ( * ) SI_UNIT ( $, .STERADIAN. ) SOLID_ANGLE_UNIT ( ) );
#89 =( NAMED_UNIT ( * ) PLANE_ANGLE_UNIT ( ) SI_UNIT ( $, .RADIAN. ) );
#90 = ORIENTED_EDGE ( 'NONE', *, *, #87, .F. ) ;
#91 = CIRCLE ( 'NONE', #179, 0.3125000000000000000 ) ;
#92 = ORIENTED_EDGE ( 'NONE', *, *, #223, .T. ) ;
#93 = VERTEX_POINT ( 'NONE', #261 ) ;
#94 = PLANE ( 'NONE',  #85 ) ;
#95 = COLOUR_RGB ( '',0.7921568627450980005, 0.8196078431372548767, 0.9333333333333333481 ) ;
#96 = DIRECTION ( 'NONE',  ( -1.277530704499805038E-16, 1.000000000000000000, -0.000000000000000000 ) ) ;
#97 = CARTESIAN_POINT ( 'NONE',  ( 0.3124999999999998335, 3.000000000000000444, 3.827021247335477078E-17 ) ) ;
#98 = DIRECTION ( 'NONE',  ( -0.000000000000000000, -1.000000000000000000, -0.000000000000000000 ) ) ;
#99 = CARTESIAN_POINT ( 'NONE',  ( 0.000000000000000000, 0.5412658773652724298, 0.3124999999999998890 ) ) ;
#100 = ADVANCED_FACE ( 'NONE', ( #86 ), #251, .T. ) ;
#101 = DIRECTION ( 'NONE',  ( -1.000000000000000000, 0.000000000000000000, 0.000000000000000000 ) ) ;
#102 = PRESENTATION_STYLE_ASSIGNMENT (( #157 ) ) ;
#103 = MECHANICAL_DESIGN_GEOMETRIC_PRESENTATION_REPRESENTATION (  '', ( #199 ), #36 ) ;
#104 = MECHANICAL_DESIGN_GEOMETRIC_PRESENTATION_REPRESENTATION (  '', ( #236 ), #163 ) ;
#105 = DIRECTION ( 'NONE',  ( 1.000000000000000000, 1.277530704499805038E-16, 0.000000000000000000 ) ) ;
#106 = ADVANCED_FACE ( 'NONE', ( #214 ), #177, .T. ) ;
#107 =( GEOMETRIC_REPRESENTATION_CONTEXT ( 3 ) GLOBAL_UNCERTAINTY_ASSIGNED_CONTEXT ( ( #47 ) ) GLOBAL_UNIT_ASSIGNED_CONTEXT ( ( #13, #77, #140 ) ) REPRESENTATION_CONTEXT ( 'NONE', 'WORKASPACE' ) );
#108 = DIRECTION ( 'NONE',  ( -1.000000000000000000, -2.185478394931412793E-16, 0.000000000000000000 ) ) ;
#109 = ORIENTED_EDGE ( 'NONE', *, *, #61, .F. ) ;
#110 = PRESENTATION_LAYER_ASSIGNMENT (  '', '', ( #219 ) ) ;
#111 = VECTOR ( 'NONE', #150, 39.37007874015748143 ) ;
#112 = ORIENTED_EDGE ( 'NONE', *, *, #135, .T. ) ;
#113 = FACE_OUTER_BOUND ( 'NONE', #247, .T. ) ;
#114 = PRESENTATION_STYLE_ASSIGNMENT (( #190 ) ) ;
#115 = AXIS2_PLACEMENT_3D ( 'NONE', #138, #120, #174 ) ;
#116 = MANIFOLD_SOLID_BREP ( 'Revolve - Cutting Edge', #230 ) ;
#117 = SURFACE_STYLE_FILL_AREA ( #33 ) ;
#118 = CARTESIAN_POINT ( 'NONE',  ( 0.3124999999999999445, 0.5412658773652724298, 3.827021247335477694E-17 ) ) ;
#119 = SURFACE_SIDE_STYLE ('',( #238 ) ) ;
#120 = DIRECTION ( 'NONE',  ( 0.000000000000000000, 1.000000000000000000, 0.000000000000000000 ) ) ;
#121 = MECHANICAL_DESIGN_GEOMETRIC_PRESENTATION_REPRESENTATION (  '', ( #243 ), #74 ) ;
#122 = SHAPE_DEFINITION_REPRESENTATION ( #132, #54 ) ;
#123 = VECTOR ( 'NONE', #208, 39.37007874015748143 ) ;
#124 = DIRECTION ( 'NONE',  ( -1.000000000000000000, 0.000000000000000000, 0.000000000000000000 ) ) ;
#125 = SURFACE_SIDE_STYLE ('',( #46 ) ) ;
#126 = VERTEX_POINT ( 'NONE', #99 ) ;
#127 = EDGE_LOOP ( 'NONE', ( #64, #253, #1, #90 ) ) ;
#128 =( NAMED_UNIT ( * ) SI_UNIT ( $, .STERADIAN. ) SOLID_ANGLE_UNIT ( ) );
#129 = APPLICATION_CONTEXT ( 'automotive_design' ) ;
#130 = ORIENTED_EDGE ( 'NONE', *, *, #178, .T. ) ;
#131 = DIRECTION ( 'NONE',  ( -1.000000000000000000, -2.185478394931412793E-16, 0.000000000000000000 ) ) ;
#132 = PRODUCT_DEFINITION_SHAPE ( 'NONE', 'NONE',  #207 ) ;
#133 = LENGTH_MEASURE_WITH_UNIT ( LENGTH_MEASURE( 0.02539999999999999897 ), #6 );
#134 = UNCERTAINTY_MEASURE_WITH_UNIT (LENGTH_MEASURE( 1.000000000000000082E-05 ), #158, 'distance_accuracy_value', 'NONE');
#135 = EDGE_CURVE ( 'NONE', #206, #126, #153, .T. ) ;
#136 =( NAMED_UNIT ( * ) PLANE_ANGLE_UNIT ( ) SI_UNIT ( $, .RADIAN. ) );
#137 = CARTESIAN_POINT ( 'NONE',  ( -6.123233995736772199E-17, 3.000000000000000444, 0.000000000000000000 ) ) ;
#138 = CARTESIAN_POINT ( 'NONE',  ( 0.000000000000000000, 39.37007874015748143, 0.000000000000000000 ) ) ;
#139 = FILL_AREA_STYLE ('',( #142 ) ) ;
#140 =( NAMED_UNIT ( * ) SI_UNIT ( $, .STERADIAN. ) SOLID_ANGLE_UNIT ( ) );
#141 = AXIS2_PLACEMENT_3D ( 'NONE', #137, #50, #101 ) ;
#142 = FILL_AREA_STYLE_COLOUR ( '', #259 ) ;
#143 = APPLICATION_CONTEXT ( 'automotive_design' ) ;
#144 = AXIS2_PLACEMENT_3D ( 'NONE', #162, #255, #14 ) ;
#145 = EDGE_CURVE ( 'NONE', #186, #220, #256, .T. ) ;
#146 = DIRECTION ( 'NONE',  ( -1.277530704499805038E-16, 1.000000000000000000, -0.000000000000000000 ) ) ;
#147 = FACE_OUTER_BOUND ( 'NONE', #26, .T. ) ;
#148 = CARTESIAN_POINT ( 'NONE',  ( -6.123233995736770966E-17, 3.000000000000000444, 0.000000000000000000 ) ) ;
#149 = COLOUR_RGB ( '',1.000000000000000000, 0.000000000000000000, 0.000000000000000000 ) ;
#150 = DIRECTION ( 'NONE',  ( -1.277530704499805038E-16, 1.000000000000000000, -0.000000000000000000 ) ) ;
#151 = UNCERTAINTY_MEASURE_WITH_UNIT (LENGTH_MEASURE( 1.000000000000000082E-05 ), #52, 'distance_accuracy_value', 'NONE');
#152 = ORIENTED_EDGE ( 'NONE', *, *, #145, .F. ) ;
#153 = CIRCLE ( 'NONE', #51, 0.3124999999999999445 ) ;
#154 = CARTESIAN_POINT ( 'NONE',  ( 3.827021247335477078E-17, 0.5412658773652724298, -0.3124999999999998890 ) ) ;
#155 = FILL_AREA_STYLE ('',( #32 ) ) ;
#156 = CIRCLE ( 'NONE', #168, 0.3125000000000000000 ) ;
#157 = SURFACE_STYLE_USAGE ( .BOTH. , #119 ) ;
#158 =( CONVERSION_BASED_UNIT ( 'INCH', #233 ) LENGTH_UNIT ( ) NAMED_UNIT ( #239 ) );
#159 = CARTESIAN_POINT ( 'NONE',  ( 0.000000000000000000, 0.5412658773652725408, 0.000000000000000000 ) ) ;
#160 = AXIS2_PLACEMENT_3D ( 'NONE', #245, #228, #131 ) ;
#161 = CYLINDRICAL_SURFACE ( 'NONE', #231, 0.3124999999999998890 ) ;
#162 = CARTESIAN_POINT ( 'NONE',  ( 0.000000000000000000, 39.37007874015748143, 0.000000000000000000 ) ) ;
#163 =( GEOMETRIC_REPRESENTATION_CONTEXT ( 3 ) GLOBAL_UNCERTAINTY_ASSIGNED_CONTEXT ( ( #70 ) ) GLOBAL_UNIT_ASSIGNED_CONTEXT ( ( #18, #89, #128 ) ) REPRESENTATION_CONTEXT ( 'NONE', 'WORKASPACE' ) );
#164 = ORIENTED_EDGE ( 'NONE', *, *, #39, .T. ) ;
#165 = CARTESIAN_POINT ( 'NONE',  ( -0.3124999999999993894, 0.5412658773652723188, 0.000000000000000000 ) ) ;
#166 = ORIENTED_EDGE ( 'NONE', *, *, #223, .F. ) ;
#167 = CARTESIAN_POINT ( 'NONE',  ( 0.3124999999999999445, 3.000000000000000444, 3.827021247335477694E-17 ) ) ;
#168 = AXIS2_PLACEMENT_3D ( 'NONE', #225, #44, #22 ) ;
#169 = CARTESIAN_POINT ( 'NONE',  ( 0.000000000000000000, 0.5412658773652725408, 0.000000000000000000 ) ) ;
#170 = SURFACE_STYLE_USAGE ( .BOTH. , #172 ) ;
#171 = DIMENSIONAL_EXPONENTS ( 1.000000000000000000, 0.000000000000000000, 0.000000000000000000, 0.000000000000000000, 0.000000000000000000, 0.000000000000000000, 0.000000000000000000 ) ;
#172 = SURFACE_SIDE_STYLE ('',( #212 ) ) ;
#173 = PRESENTATION_LAYER_ASSIGNMENT (  '', '', ( #257 ) ) ;
#174 = DIRECTION ( 'NONE',  ( 0.000000000000000000, 0.000000000000000000, 1.000000000000000000 ) ) ;
#175 = ORIENTED_EDGE ( 'NONE', *, *, #178, .F. ) ;
#176 = ADVANCED_FACE ( 'NONE', ( #254 ), #189, .F. ) ;
#177 = CYLINDRICAL_SURFACE ( 'NONE', #141, 0.3124999999999998890 ) ;
#178 = EDGE_CURVE ( 'NONE', #3, #206, #11, .T. ) ;
#179 = AXIS2_PLACEMENT_3D ( 'NONE', #148, #84, #124 ) ;
#180 = PRODUCT_CONTEXT ( 'NONE', #129, 'mechanical' ) ;
#181 = DIRECTION ( 'NONE',  ( -1.277530704499805038E-16, 1.000000000000000000, -0.000000000000000000 ) ) ;
#182 = CIRCLE ( 'NONE', #12, 0.3124999999999999445 ) ;
#183 = LINE ( 'NONE', #45, #123 ) ;
#184 = AXIS2_PLACEMENT_3D ( 'NONE', #200, #181, #108 ) ;
#185 = PRODUCT_DEFINITION_CONTEXT ( 'detailed design', #143, 'design' ) ;
#186 = VERTEX_POINT ( 'NONE', #118 ) ;
#187 = FILL_AREA_STYLE_COLOUR ( '', #196 ) ;
#188 = DIRECTION ( 'NONE',  ( -1.277530704499805038E-16, 1.000000000000000000, 0.000000000000000000 ) ) ;
#189 = PLANE ( 'NONE',  #31 ) ;
#190 = SURFACE_STYLE_USAGE ( .BOTH. , #248 ) ;
#191 = DIMENSIONAL_EXPONENTS ( 1.000000000000000000, 0.000000000000000000, 0.000000000000000000, 0.000000000000000000, 0.000000000000000000, 0.000000000000000000, 0.000000000000000000 ) ;
#192 = CIRCLE ( 'NONE', #184, 0.3124999999999996669 ) ;
#193 = DIRECTION ( 'NONE',  ( 1.000000000000000000, 0.000000000000000000, 0.000000000000000000 ) ) ;
#194 = DIRECTION ( 'NONE',  ( -1.000000000000000000, -1.277530704499805038E-16, 0.000000000000000000 ) ) ;
#195 = MANIFOLD_SOLID_BREP ( 'Revolve - Tool Body (Pointed)', #7 ) ;
#196 = COLOUR_RGB ( '',1.000000000000000000, 0.000000000000000000, 0.000000000000000000 ) ;
#197 = CARTESIAN_POINT ( 'NONE',  ( 0.000000000000000000, 0.000000000000000000, 0.000000000000000000 ) ) ;
#198 = EDGE_LOOP ( 'NONE', ( #175, #164, #92 ) ) ;
#199 = STYLED_ITEM ( 'NONE', ( #102 ), #195 ) ;
#200 = CARTESIAN_POINT ( 'NONE',  ( 2.528784936293576816E-16, 0.5412658773652724298, 0.000000000000000000 ) ) ;
#201 = SURFACE_STYLE_USAGE ( .BOTH. , #125 ) ;
#202 = VECTOR ( 'NONE', #96, 39.37007874015748143 ) ;
#203 = ORIENTED_EDGE ( 'NONE', *, *, #87, .T. ) ;
#204 = LENGTH_MEASURE_WITH_UNIT ( LENGTH_MEASURE( 0.02539999999999999897 ), #263 );
#205 = LINE ( 'NONE', #15, #111 ) ;
#206 = VERTEX_POINT ( 'NONE', #154 ) ;
#207 = PRODUCT_DEFINITION ( 'UNKNOWN', '', #237, #185 ) ;
#208 = DIRECTION ( 'NONE',  ( 0.000000000000000000, 0.8660254037844380415, 0.5000000000000009992 ) ) ;
#209 =( GEOMETRIC_REPRESENTATION_CONTEXT ( 3 ) GLOBAL_UNCERTAINTY_ASSIGNED_CONTEXT ( ( #23 ) ) GLOBAL_UNIT_ASSIGNED_CONTEXT ( ( #28, #136, #66 ) ) REPRESENTATION_CONTEXT ( 'NONE', 'WORKASPACE' ) );
#210 = DIRECTION ( 'NONE',  ( -0.000000000000000000, -1.000000000000000000, -0.000000000000000000 ) ) ;
#211 = PRESENTATION_LAYER_ASSIGNMENT (  '', '', ( #236 ) ) ;
#212 = SURFACE_STYLE_FILL_AREA ( #139 ) ;
#213 = DIMENSIONAL_EXPONENTS ( 1.000000000000000000, 0.000000000000000000, 0.000000000000000000, 0.000000000000000000, 0.000000000000000000, 0.000000000000000000, 0.000000000000000000 ) ;
#214 = FACE_OUTER_BOUND ( 'NONE', #127, .T. ) ;
#215 = DIRECTION ( 'NONE',  ( 6.123233995736778362E-17, 0.8660254037844380415, -0.5000000000000009992 ) ) ;
#216 = PRESENTATION_STYLE_ASSIGNMENT (( #5 ) ) ;
#217 = AXIS2_PLACEMENT_3D ( 'NONE', #65, #62, #105 ) ;
#218 = EDGE_LOOP ( 'NONE', ( #109, #58 ) ) ;
#219 = STYLED_ITEM ( 'NONE', ( #216 ), #4 ) ;
#220 = VERTEX_POINT ( 'NONE', #167 ) ;
#221 = AXIS2_PLACEMENT_3D ( 'NONE', #197, #78, #193 ) ;
#222 = DIRECTION ( 'NONE',  ( -1.000000000000000000, 0.000000000000000000, 0.000000000000000000 ) ) ;
#223 = EDGE_CURVE ( 'NONE', #126, #206, #182, .T. ) ;
#224 = ADVANCED_FACE ( 'NONE', ( #234 ), #82, .T. ) ;
#225 = CARTESIAN_POINT ( 'NONE',  ( -6.123233995736770966E-17, 3.000000000000000444, 0.000000000000000000 ) ) ;
#226 =( GEOMETRIC_REPRESENTATION_CONTEXT ( 3 ) GLOBAL_UNCERTAINTY_ASSIGNED_CONTEXT ( ( #9 ) ) GLOBAL_UNIT_ASSIGNED_CONTEXT ( ( #40, #76, #83 ) ) REPRESENTATION_CONTEXT ( 'NONE', 'WORKASPACE' ) );
#227 = PRESENTATION_STYLE_ASSIGNMENT (( #201 ) ) ;
#228 = DIRECTION ( 'NONE',  ( -1.277530704499805038E-16, 1.000000000000000000, -0.000000000000000000 ) ) ;
#229 = EDGE_LOOP ( 'NONE', ( #10, #130, #112 ) ) ;
#230 = CLOSED_SHELL ( 'NONE', ( #100, #4, #224 ) ) ;
#231 = AXIS2_PLACEMENT_3D ( 'NONE', #242, #146, #222 ) ;
#232 = ORIENTED_EDGE ( 'NONE', *, *, #27, .T. ) ;
#233 = LENGTH_MEASURE_WITH_UNIT ( LENGTH_MEASURE( 0.02539999999999999897 ), #34 );
#234 = FACE_OUTER_BOUND ( 'NONE', #198, .T. ) ;
#235 = LENGTH_MEASURE_WITH_UNIT ( LENGTH_MEASURE( 0.02539999999999999897 ), #72 );
#236 = STYLED_ITEM ( 'NONE', ( #227 ), #100 ) ;
#237 = PRODUCT_DEFINITION_FORMATION_WITH_SPECIFIED_SOURCE ( 'ANY', '', #19, .NOT_KNOWN. ) ;
#238 = SURFACE_STYLE_FILL_AREA ( #155 ) ;
#239 = DIMENSIONAL_EXPONENTS ( 1.000000000000000000, 0.000000000000000000, 0.000000000000000000, 0.000000000000000000, 0.000000000000000000, 0.000000000000000000, 0.000000000000000000 ) ;
#240 = DIRECTION ( 'NONE',  ( 0.000000000000000000, 1.000000000000000000, 0.000000000000000000 ) ) ;
#241 = APPLICATION_PROTOCOL_DEFINITION ( 'draft international standard', 'automotive_design', 1998, #129 ) ;
#242 = CARTESIAN_POINT ( 'NONE',  ( -6.123233995736772199E-17, 3.000000000000000444, 0.000000000000000000 ) ) ;
#243 = STYLED_ITEM ( 'NONE', ( #258 ), #116 ) ;
#244 = FILL_AREA_STYLE_COLOUR ( '', #246 ) ;
#245 = CARTESIAN_POINT ( 'NONE',  ( 2.528784936293576816E-16, 0.5412658773652724298, 0.000000000000000000 ) ) ;
#246 = COLOUR_RGB ( '',1.000000000000000000, 0.000000000000000000, 0.000000000000000000 ) ;
#247 = EDGE_LOOP ( 'NONE', ( #166, #21 ) ) ;
#248 = SURFACE_SIDE_STYLE ('',( #117 ) ) ;
#249 = FILL_AREA_STYLE ('',( #187 ) ) ;
#250 = DIRECTION ( 'NONE',  ( 0.000000000000000000, 0.000000000000000000, -1.000000000000000000 ) ) ;
#251 = CONICAL_SURFACE ( 'NONE', #144, 22.73032555864674364, 0.5235987755983000369 ) ;
#252 = SURFACE_STYLE_FILL_AREA ( #249 ) ;
#253 = ORIENTED_EDGE ( 'NONE', *, *, #145, .T. ) ;
#254 = FACE_OUTER_BOUND ( 'NONE', #218, .T. ) ;
#255 = DIRECTION ( 'NONE',  ( 0.000000000000000000, 1.000000000000000000, 0.000000000000000000 ) ) ;
#256 = LINE ( 'NONE', #97, #202 ) ;
#257 = STYLED_ITEM ( 'NONE', ( #114 ), #224 ) ;
#258 = PRESENTATION_STYLE_ASSIGNMENT (( #170 ) ) ;
#259 = COLOUR_RGB ( '',0.7921568627450980005, 0.8196078431372548767, 0.9333333333333333481 ) ;
#260 = FACE_OUTER_BOUND ( 'NONE', #264, .T. ) ;
#261 = CARTESIAN_POINT ( 'NONE',  ( -0.3125000000000000555, 3.000000000000000444, 0.000000000000000000 ) ) ;
#262 = PRODUCT_RELATED_PRODUCT_CATEGORY ( 'part', '', ( #19 ) ) ;
#263 =( LENGTH_UNIT ( ) NAMED_UNIT ( * ) SI_UNIT ( $, .METRE. ) );
#264 = EDGE_LOOP ( 'NONE', ( #152, #232, #203, #38 ) ) ;
#265 = PRESENTATION_LAYER_ASSIGNMENT (  '', '', ( #243 ) ) ;
ENDSEC;
END-ISO-10303-21;
