ISO-10303-21;
HEADER;
FILE_DESCRIPTION (( 'STEP AP214' ),
    '1' );
FILE_NAME ('81642.STEP',
    '2023-06-23T02:19:26',
    ( '' ),
    ( '' ),
    'SwSTEP 2.0',
    'SolidWorks 2023',
    '' );
FILE_SCHEMA (( 'AUTOMOTIVE_DESIGN' ));
ENDSEC;

DATA;
#1 = DIRECTION ( 'NONE',  ( 0.000000000000000000, 0.000000000000000000, -1.000000000000000000 ) ) ;
#2 = DIRECTION ( 'NONE',  ( 0.000000000000000000, -0.000000000000000000, 1.000000000000000000 ) ) ;
#3 = DIRECTION ( 'NONE',  ( 0.000000000000000000, 0.000000000000000000, -1.000000000000000000 ) ) ;
#4 = ORIENTED_EDGE ( 'NONE', *, *, #150, .T. ) ;
#5 =( LENGTH_UNIT ( ) NAMED_UNIT ( * ) SI_UNIT ( $, .METRE. ) );
#6 = AXIS2_PLACEMENT_3D ( 'NONE', #92, #298, #70 ) ;
#7 = VERTEX_POINT ( 'NONE', #63 ) ;
#8 = ORIENTED_EDGE ( 'NONE', *, *, #268, .T. ) ;
#9 = FILL_AREA_STYLE ('',( #120 ) ) ;
#10 = EDGE_LOOP ( 'NONE', ( #61, #280, #299, #164 ) ) ;
#11 = PLANE ( 'NONE',  #292 ) ;
#12 = MECHANICAL_DESIGN_GEOMETRIC_PRESENTATION_REPRESENTATION (  '', ( #210 ), #60 ) ;
#13 =( NAMED_UNIT ( * ) PLANE_ANGLE_UNIT ( ) SI_UNIT ( $, .RADIAN. ) );
#14 = DIRECTION ( 'NONE',  ( -4.082155997157848133E-17, 1.000000000000000000, -0.000000000000000000 ) ) ;
#15 = STYLED_ITEM ( 'NONE', ( #20 ), #27 ) ;
#16 = ADVANCED_BREP_SHAPE_REPRESENTATION ( '81642', ( #195, #291, #217 ), #81 ) ;
#17 = SURFACE_STYLE_USAGE ( .BOTH. , #46 ) ;
#18 = SURFACE_SIDE_STYLE ('',( #267 ) ) ;
#19 = CYLINDRICAL_SURFACE ( 'NONE', #202, 0.1250000000000000000 ) ;
#20 = PRESENTATION_STYLE_ASSIGNMENT (( #256 ) ) ;
#21 = EDGE_CURVE ( 'NONE', #188, #7, #234, .T. ) ;
#22 = MECHANICAL_DESIGN_GEOMETRIC_PRESENTATION_REPRESENTATION (  '', ( #173 ), #226 ) ;
#23 = DIRECTION ( 'NONE',  ( -1.000000000000000000, 0.000000000000000000, 0.000000000000000000 ) ) ;
#24 = DIMENSIONAL_EXPONENTS ( 1.000000000000000000, 0.000000000000000000, 0.000000000000000000, 0.000000000000000000, 0.000000000000000000, 0.000000000000000000, 0.000000000000000000 ) ;
#25 = SURFACE_SIDE_STYLE ('',( #67 ) ) ;
#26 = DIMENSIONAL_EXPONENTS ( 1.000000000000000000, 0.000000000000000000, 0.000000000000000000, 0.000000000000000000, 0.000000000000000000, 0.000000000000000000, 0.000000000000000000 ) ;
#27 = ADVANCED_FACE ( 'NONE', ( #140 ), #236, .T. ) ;
#28 = AXIS2_PLACEMENT_3D ( 'NONE', #307, #206, #146 ) ;
#29 = UNCERTAINTY_MEASURE_WITH_UNIT (LENGTH_MEASURE( 1.000000000000000082E-05 ), #53, 'distance_accuracy_value', 'NONE');
#30 = APPLICATION_CONTEXT ( 'automotive_design' ) ;
#31 = EDGE_LOOP ( 'NONE', ( #193, #161 ) ) ;
#32 =( NAMED_UNIT ( * ) PLANE_ANGLE_UNIT ( ) SI_UNIT ( $, .RADIAN. ) );
#33 = ORIENTED_EDGE ( 'NONE', *, *, #208, .T. ) ;
#34 = DIMENSIONAL_EXPONENTS ( 1.000000000000000000, 0.000000000000000000, 0.000000000000000000, 0.000000000000000000, 0.000000000000000000, 0.000000000000000000, 0.000000000000000000 ) ;
#35 = PRODUCT_DEFINITION ( 'UNKNOWN', '', #240, #252 ) ;
#36 = EDGE_LOOP ( 'NONE', ( #87, #148, #278, #209 ) ) ;
#37 = DIRECTION ( 'NONE',  ( 1.000000000000000000, 0.000000000000000000, 0.000000000000000000 ) ) ;
#38 =( NAMED_UNIT ( * ) SI_UNIT ( $, .STERADIAN. ) SOLID_ANGLE_UNIT ( ) );
#39 = ADVANCED_FACE ( 'NONE', ( #154 ), #19, .T. ) ;
#40 =( NAMED_UNIT ( * ) SI_UNIT ( $, .STERADIAN. ) SOLID_ANGLE_UNIT ( ) );
#41 = ORIENTED_EDGE ( 'NONE', *, *, #208, .F. ) ;
#42 = VECTOR ( 'NONE', #264, 39.37007874015748143 ) ;
#43 = SURFACE_STYLE_USAGE ( .BOTH. , #25 ) ;
#44 = LINE ( 'NONE', #260, #216 ) ;
#45 = SURFACE_STYLE_FILL_AREA ( #302 ) ;
#46 = SURFACE_SIDE_STYLE ('',( #45 ) ) ;
#47 = CARTESIAN_POINT ( 'NONE',  ( 0.1249999999999999584, 3.000000000000000444, 1.530808498934191817E-17 ) ) ;
#48 = CIRCLE ( 'NONE', #294, 0.1249999999999999861 ) ;
#49 = LENGTH_MEASURE_WITH_UNIT ( LENGTH_MEASURE( 0.02539999999999999897 ), #147 );
#50 = DIRECTION ( 'NONE',  ( 0.000000000000000000, 0.000000000000000000, -1.000000000000000000 ) ) ;
#51 = FACE_OUTER_BOUND ( 'NONE', #36, .T. ) ;
#52 = PRODUCT ( '81642', '81642', '', ( #117 ) ) ;
#53 =( CONVERSION_BASED_UNIT ( 'INCH', #49 ) LENGTH_UNIT ( ) NAMED_UNIT ( #55 ) );
#54 = CLOSED_SHELL ( 'NONE', ( #104, #305, #39, #27 ) ) ;
#55 = DIMENSIONAL_EXPONENTS ( 1.000000000000000000, 0.000000000000000000, 0.000000000000000000, 0.000000000000000000, 0.000000000000000000, 0.000000000000000000, 0.000000000000000000 ) ;
#56 = DIRECTION ( 'NONE',  ( -0.000000000000000000, -1.000000000000000000, -0.000000000000000000 ) ) ;
#57 = AXIS2_PLACEMENT_3D ( 'NONE', #177, #306, #23 ) ;
#58 = DIRECTION ( 'NONE',  ( -4.082155997157848133E-17, 1.000000000000000000, 0.000000000000000000 ) ) ;
#59 = LENGTH_MEASURE_WITH_UNIT ( LENGTH_MEASURE( 0.02539999999999999897 ), #88 );
#60 =( GEOMETRIC_REPRESENTATION_CONTEXT ( 3 ) GLOBAL_UNCERTAINTY_ASSIGNED_CONTEXT ( ( #29 ) ) GLOBAL_UNIT_ASSIGNED_CONTEXT ( ( #53, #212, #227 ) ) REPRESENTATION_CONTEXT ( 'NONE', 'WORKASPACE' ) );
#61 = ORIENTED_EDGE ( 'NONE', *, *, #80, .F. ) ;
#62 = SURFACE_STYLE_FILL_AREA ( #91 ) ;
#63 = CARTESIAN_POINT ( 'NONE',  ( 1.530808498934191509E-17, 0.000000000000000000, 0.1250000000000000000 ) ) ;
#64 = STYLED_ITEM ( 'NONE', ( #200 ), #195 ) ;
#65 = ORIENTED_EDGE ( 'NONE', *, *, #163, .F. ) ;
#66 =( CONVERSION_BASED_UNIT ( 'INCH', #157 ) LENGTH_UNIT ( ) NAMED_UNIT ( #159 ) );
#67 = SURFACE_STYLE_FILL_AREA ( #9 ) ;
#68 = ORIENTED_EDGE ( 'NONE', *, *, #251, .F. ) ;
#69 = CARTESIAN_POINT ( 'NONE',  ( -0.1250000000000001110, 3.000000000000000444, 0.000000000000000000 ) ) ;
#70 = DIRECTION ( 'NONE',  ( 0.000000000000000000, 0.000000000000000000, -1.000000000000000000 ) ) ;
#71 = CARTESIAN_POINT ( 'NONE',  ( 0.000000000000000000, 1.500000000000000222, 0.000000000000000000 ) ) ;
#72 = FACE_OUTER_BOUND ( 'NONE', #142, .T. ) ;
#73 = AXIS2_PLACEMENT_3D ( 'NONE', #141, #279, #165 ) ;
#74 = PRESENTATION_LAYER_ASSIGNMENT (  '', '', ( #235 ) ) ;
#75 =( CONVERSION_BASED_UNIT ( 'INCH', #59 ) LENGTH_UNIT ( ) NAMED_UNIT ( #275 ) );
#76 = SURFACE_STYLE_FILL_AREA ( #83 ) ;
#77 = DIRECTION ( 'NONE',  ( -1.000000000000000000, 0.000000000000000000, 0.000000000000000000 ) ) ;
#78 = CARTESIAN_POINT ( 'NONE',  ( 0.000000000000000000, 1.500000000000000222, -0.1249999999999999861 ) ) ;
#79 = UNCERTAINTY_MEASURE_WITH_UNIT (LENGTH_MEASURE( 1.000000000000000082E-05 ), #75, 'distance_accuracy_value', 'NONE');
#80 = EDGE_CURVE ( 'NONE', #89, #119, #296, .T. ) ;
#81 =( GEOMETRIC_REPRESENTATION_CONTEXT ( 3 ) GLOBAL_UNCERTAINTY_ASSIGNED_CONTEXT ( ( #309 ) ) GLOBAL_UNIT_ASSIGNED_CONTEXT ( ( #174, #271, #38 ) ) REPRESENTATION_CONTEXT ( 'NONE', 'WORKASPACE' ) );
#82 =( NAMED_UNIT ( * ) SI_UNIT ( $, .STERADIAN. ) SOLID_ANGLE_UNIT ( ) );
#83 = FILL_AREA_STYLE ('',( #135 ) ) ;
#84 = DIMENSIONAL_EXPONENTS ( 1.000000000000000000, 0.000000000000000000, 0.000000000000000000, 0.000000000000000000, 0.000000000000000000, 0.000000000000000000, 0.000000000000000000 ) ;
#85 = CARTESIAN_POINT ( 'NONE',  ( 7.582401355855259480E-33, 1.500000000000000222, 0.000000000000000000 ) ) ;
#86 = VECTOR ( 'NONE', #136, 39.37007874015748143 ) ;
#87 = ORIENTED_EDGE ( 'NONE', *, *, #241, .T. ) ;
#88 =( LENGTH_UNIT ( ) NAMED_UNIT ( * ) SI_UNIT ( $, .METRE. ) );
#89 = VERTEX_POINT ( 'NONE', #145 ) ;
#90 = CYLINDRICAL_SURFACE ( 'NONE', #57, 0.1250000000000000278 ) ;
#91 = FILL_AREA_STYLE ('',( #224 ) ) ;
#92 = CARTESIAN_POINT ( 'NONE',  ( 0.000000000000000000, 0.000000000000000000, 0.000000000000000000 ) ) ;
#93 = CIRCLE ( 'NONE', #304, 0.1249999999999999861 ) ;
#94 = CYLINDRICAL_SURFACE ( 'NONE', #6, 0.1250000000000000000 ) ;
#95 = LINE ( 'NONE', #99, #86 ) ;
#96 = ORIENTED_EDGE ( 'NONE', *, *, #150, .F. ) ;
#97 = DIRECTION ( 'NONE',  ( 0.000000000000000000, 0.000000000000000000, 1.000000000000000000 ) ) ;
#98 =( NAMED_UNIT ( * ) SI_UNIT ( $, .STERADIAN. ) SOLID_ANGLE_UNIT ( ) );
#99 = CARTESIAN_POINT ( 'NONE',  ( 1.530808498934191509E-17, 0.000000000000000000, 0.1250000000000000000 ) ) ;
#100 = DIRECTION ( 'NONE',  ( -0.000000000000000000, -1.000000000000000000, -0.000000000000000000 ) ) ;
#101 = CARTESIAN_POINT ( 'NONE',  ( 0.1250000000000000278, 3.000000000000000444, 1.530808498934192125E-17 ) ) ;
#102 = COLOUR_RGB ( '',1.000000000000000000, 0.000000000000000000, 0.000000000000000000 ) ;
#103 = PRESENTATION_LAYER_ASSIGNMENT (  '', '', ( #210 ) ) ;
#104 = ADVANCED_FACE ( 'NONE', ( #72 ), #94, .T. ) ;
#105 = CARTESIAN_POINT ( 'NONE',  ( 0.1250000000000000278, 3.000000000000000444, 0.000000000000000000 ) ) ;
#106 = PRESENTATION_LAYER_ASSIGNMENT (  '', '', ( #15 ) ) ;
#107 = COLOUR_RGB ( '',1.000000000000000000, 0.000000000000000000, 0.000000000000000000 ) ;
#108 = PRODUCT_DEFINITION_SHAPE ( 'NONE', 'NONE',  #35 ) ;
#109 = AXIS2_PLACEMENT_3D ( 'NONE', #85, #149, #77 ) ;
#110 = UNCERTAINTY_MEASURE_WITH_UNIT (LENGTH_MEASURE( 1.000000000000000082E-05 ), #303, 'distance_accuracy_value', 'NONE');
#111 = DIRECTION ( 'NONE',  ( -1.000000000000000000, 0.000000000000000000, 0.000000000000000000 ) ) ;
#112 = EDGE_LOOP ( 'NONE', ( #229, #68 ) ) ;
#113 = MECHANICAL_DESIGN_GEOMETRIC_PRESENTATION_REPRESENTATION (  '', ( #190 ), #222 ) ;
#114 = AXIS2_PLACEMENT_3D ( 'NONE', #105, #181, #176 ) ;
#115 = SURFACE_STYLE_USAGE ( .BOTH. , #225 ) ;
#116 = VERTEX_POINT ( 'NONE', #259 ) ;
#117 = PRODUCT_CONTEXT ( 'NONE', #123, 'mechanical' ) ;
#118 = CARTESIAN_POINT ( 'NONE',  ( 0.000000000000000000, 1.500000000000000222, 0.000000000000000000 ) ) ;
#119 = VERTEX_POINT ( 'NONE', #101 ) ;
#120 = FILL_AREA_STYLE_COLOUR ( '', #107 ) ;
#121 = MECHANICAL_DESIGN_GEOMETRIC_PRESENTATION_REPRESENTATION (  '', ( #235 ), #255 ) ;
#122 = DIRECTION ( 'NONE',  ( -0.000000000000000000, -1.000000000000000000, -0.000000000000000000 ) ) ;
#123 = APPLICATION_CONTEXT ( 'automotive_design' ) ;
#124 = ADVANCED_FACE ( 'NONE', ( #288 ), #90, .T. ) ;
#125 = FILL_AREA_STYLE_COLOUR ( '', #186 ) ;
#126 = SURFACE_SIDE_STYLE ('',( #152 ) ) ;
#127 = CARTESIAN_POINT ( 'NONE',  ( 0.000000000000000000, 1.500000000000000222, 0.000000000000000000 ) ) ;
#128 = CIRCLE ( 'NONE', #282, 0.1250000000000000000 ) ;
#129 = UNCERTAINTY_MEASURE_WITH_UNIT (LENGTH_MEASURE( 1.000000000000000082E-05 ), #189, 'distance_accuracy_value', 'NONE');
#130 = DIRECTION ( 'NONE',  ( -4.082155997157848133E-17, 1.000000000000000000, -0.000000000000000000 ) ) ;
#131 = PLANE ( 'NONE',  #114 ) ;
#132 = CYLINDRICAL_SURFACE ( 'NONE', #28, 0.1250000000000000278 ) ;
#133 =( GEOMETRIC_REPRESENTATION_CONTEXT ( 3 ) GLOBAL_UNCERTAINTY_ASSIGNED_CONTEXT ( ( #153 ) ) GLOBAL_UNIT_ASSIGNED_CONTEXT ( ( #300, #32, #98 ) ) REPRESENTATION_CONTEXT ( 'NONE', 'WORKASPACE' ) );
#134 = CIRCLE ( 'NONE', #109, 0.1249999999999999861 ) ;
#135 = FILL_AREA_STYLE_COLOUR ( '', #274 ) ;
#136 = DIRECTION ( 'NONE',  ( -0.000000000000000000, -1.000000000000000000, -0.000000000000000000 ) ) ;
#137 = PRESENTATION_LAYER_ASSIGNMENT (  '', '', ( #173 ) ) ;
#138 = PRESENTATION_STYLE_ASSIGNMENT (( #115 ) ) ;
#139 = PRODUCT_RELATED_PRODUCT_CATEGORY ( 'part', '', ( #52 ) ) ;
#140 = FACE_OUTER_BOUND ( 'NONE', #295, .T. ) ;
#141 = CARTESIAN_POINT ( 'NONE',  ( 0.000000000000000000, 0.000000000000000000, 0.000000000000000000 ) ) ;
#142 = EDGE_LOOP ( 'NONE', ( #8, #33, #191, #65 ) ) ;
#143 = ADVANCED_FACE ( 'NONE', ( #219 ), #11, .F. ) ;
#144 = AXIS2_PLACEMENT_3D ( 'NONE', #118, #223, #2 ) ;
#145 = CARTESIAN_POINT ( 'NONE',  ( 0.1250000000000000000, 1.500000000000000222, 1.530808498934192125E-17 ) ) ;
#146 = DIRECTION ( 'NONE',  ( -1.000000000000000000, 0.000000000000000000, 0.000000000000000000 ) ) ;
#147 =( LENGTH_UNIT ( ) NAMED_UNIT ( * ) SI_UNIT ( $, .METRE. ) );
#148 = ORIENTED_EDGE ( 'NONE', *, *, #80, .T. ) ;
#149 = DIRECTION ( 'NONE',  ( -4.082155997157848133E-17, 1.000000000000000000, -0.000000000000000000 ) ) ;
#150 = EDGE_CURVE ( 'NONE', #116, #254, #93, .T. ) ;
#151 = CARTESIAN_POINT ( 'NONE',  ( 0.000000000000000000, 0.000000000000000000, 0.000000000000000000 ) ) ;
#152 = SURFACE_STYLE_FILL_AREA ( #263 ) ;
#153 = UNCERTAINTY_MEASURE_WITH_UNIT (LENGTH_MEASURE( 1.000000000000000082E-05 ), #300, 'distance_accuracy_value', 'NONE');
#154 = FACE_OUTER_BOUND ( 'NONE', #253, .T. ) ;
#155 = AXIS2_PLACEMENT_3D ( 'NONE', #266, #130, #214 ) ;
#156 = CARTESIAN_POINT ( 'NONE',  ( 0.000000000000000000, 0.000000000000000000, -0.1250000000000000000 ) ) ;
#157 = LENGTH_MEASURE_WITH_UNIT ( LENGTH_MEASURE( 0.02539999999999999897 ), #273 );
#158 = CIRCLE ( 'NONE', #155, 0.1249999999999999861 ) ;
#159 = DIMENSIONAL_EXPONENTS ( 1.000000000000000000, 0.000000000000000000, 0.000000000000000000, 0.000000000000000000, 0.000000000000000000, 0.000000000000000000, 0.000000000000000000 ) ;
#160 = CIRCLE ( 'NONE', #286, 0.1250000000000000833 ) ;
#161 = ORIENTED_EDGE ( 'NONE', *, *, #221, .T. ) ;
#162 = PLANE ( 'NONE',  #144 ) ;
#163 = EDGE_CURVE ( 'NONE', #254, #188, #44, .T. ) ;
#164 = ORIENTED_EDGE ( 'NONE', *, *, #221, .F. ) ;
#165 = DIRECTION ( 'NONE',  ( 0.000000000000000000, 0.000000000000000000, -1.000000000000000000 ) ) ;
#166 = CARTESIAN_POINT ( 'NONE',  ( 0.000000000000000000, 0.000000000000000000, 0.000000000000000000 ) ) ;
#167 =( LENGTH_UNIT ( ) NAMED_UNIT ( * ) SI_UNIT ( $, .METRE. ) );
#168 = UNCERTAINTY_MEASURE_WITH_UNIT (LENGTH_MEASURE( 1.000000000000000082E-05 ), #66, 'distance_accuracy_value', 'NONE');
#169 = ORIENTED_EDGE ( 'NONE', *, *, #163, .T. ) ;
#170 = CARTESIAN_POINT ( 'NONE',  ( -0.1249999999999999861, 1.500000000000000222, 0.000000000000000000 ) ) ;
#171 = EDGE_CURVE ( 'NONE', #297, #231, #238, .T. ) ;
#172 = DIRECTION ( 'NONE',  ( 0.000000000000000000, 0.000000000000000000, -1.000000000000000000 ) ) ;
#173 = STYLED_ITEM ( 'NONE', ( #293 ), #291 ) ;
#174 =( CONVERSION_BASED_UNIT ( 'INCH', #287 ) LENGTH_UNIT ( ) NAMED_UNIT ( #84 ) );
#175 =( LENGTH_UNIT ( ) NAMED_UNIT ( * ) SI_UNIT ( $, .METRE. ) );
#176 = DIRECTION ( 'NONE',  ( 1.000000000000000000, 4.082155997157848133E-17, 0.000000000000000000 ) ) ;
#177 = CARTESIAN_POINT ( 'NONE',  ( -6.123233995736772199E-17, 3.000000000000000444, 0.000000000000000000 ) ) ;
#178 = DIRECTION ( 'NONE',  ( -1.000000000000000000, 0.000000000000000000, 0.000000000000000000 ) ) ;
#179 = CARTESIAN_POINT ( 'NONE',  ( 0.000000000000000000, 0.000000000000000000, 0.000000000000000000 ) ) ;
#180 = CARTESIAN_POINT ( 'NONE',  ( -6.123233995736772199E-17, 3.000000000000000444, 0.000000000000000000 ) ) ;
#181 = DIRECTION ( 'NONE',  ( 4.082155997157848133E-17, -1.000000000000000000, 0.000000000000000000 ) ) ;
#182 = DIRECTION ( 'NONE',  ( -4.082155997157848133E-17, 1.000000000000000000, -0.000000000000000000 ) ) ;
#183 = EDGE_CURVE ( 'NONE', #7, #188, #128, .T. ) ;
#184 = CLOSED_SHELL ( 'NONE', ( #262, #143, #124, #194 ) ) ;
#185 = PRESENTATION_LAYER_ASSIGNMENT (  '', '', ( #64 ) ) ;
#186 = COLOUR_RGB ( '',1.000000000000000000, 0.000000000000000000, 0.000000000000000000 ) ;
#187 = ORIENTED_EDGE ( 'NONE', *, *, #21, .T. ) ;
#188 = VERTEX_POINT ( 'NONE', #156 ) ;
#189 =( CONVERSION_BASED_UNIT ( 'INCH', #246 ) LENGTH_UNIT ( ) NAMED_UNIT ( #26 ) );
#190 = STYLED_ITEM ( 'NONE', ( #138 ), #39 ) ;
#191 = ORIENTED_EDGE ( 'NONE', *, *, #21, .F. ) ;
#192 = CARTESIAN_POINT ( 'NONE',  ( 1.041499849070736517E-34, 1.500000000000000222, 0.000000000000000000 ) ) ;
#193 = ORIENTED_EDGE ( 'NONE', *, *, #245, .T. ) ;
#194 = ADVANCED_FACE ( 'NONE', ( #242 ), #131, .F. ) ;
#195 = MANIFOLD_SOLID_BREP ( 'Revolve - Cutting Edge', #54 ) ;
#196 = FILL_AREA_STYLE ('',( #204 ) ) ;
#197 = SURFACE_STYLE_USAGE ( .BOTH. , #18 ) ;
#198 = FACE_OUTER_BOUND ( 'NONE', #201, .T. ) ;
#199 =( GEOMETRIC_REPRESENTATION_CONTEXT ( 3 ) GLOBAL_UNCERTAINTY_ASSIGNED_CONTEXT ( ( #79 ) ) GLOBAL_UNIT_ASSIGNED_CONTEXT ( ( #75, #265, #40 ) ) REPRESENTATION_CONTEXT ( 'NONE', 'WORKASPACE' ) );
#200 = PRESENTATION_STYLE_ASSIGNMENT (( #237 ) ) ;
#201 = EDGE_LOOP ( 'NONE', ( #258, #96 ) ) ;
#202 = AXIS2_PLACEMENT_3D ( 'NONE', #272, #308, #1 ) ;
#203 = LENGTH_MEASURE_WITH_UNIT ( LENGTH_MEASURE( 0.02539999999999999897 ), #167 );
#204 = FILL_AREA_STYLE_COLOUR ( '', #269 ) ;
#205 = DIRECTION ( 'NONE',  ( 0.000000000000000000, 0.000000000000000000, -1.000000000000000000 ) ) ;
#206 = DIRECTION ( 'NONE',  ( -4.082155997157848133E-17, 1.000000000000000000, -0.000000000000000000 ) ) ;
#207 =( NAMED_UNIT ( * ) SI_UNIT ( $, .STERADIAN. ) SOLID_ANGLE_UNIT ( ) );
#208 = EDGE_CURVE ( 'NONE', #116, #7, #95, .T. ) ;
#209 = ORIENTED_EDGE ( 'NONE', *, *, #171, .F. ) ;
#210 = STYLED_ITEM ( 'NONE', ( #232 ), #305 ) ;
#211 = DIRECTION ( 'NONE',  ( -0.000000000000000000, -1.000000000000000000, -0.000000000000000000 ) ) ;
#212 =( NAMED_UNIT ( * ) PLANE_ANGLE_UNIT ( ) SI_UNIT ( $, .RADIAN. ) );
#213 = LENGTH_MEASURE_WITH_UNIT ( LENGTH_MEASURE( 0.02539999999999999897 ), #175 );
#214 = DIRECTION ( 'NONE',  ( -1.000000000000000000, 0.000000000000000000, 0.000000000000000000 ) ) ;
#215 = PRESENTATION_STYLE_ASSIGNMENT (( #17 ) ) ;
#216 = VECTOR ( 'NONE', #100, 39.37007874015748143 ) ;
#217 = AXIS2_PLACEMENT_3D ( 'NONE', #151, #97, #37 ) ;
#218 =( NAMED_UNIT ( * ) PLANE_ANGLE_UNIT ( ) SI_UNIT ( $, .RADIAN. ) );
#219 = FACE_OUTER_BOUND ( 'NONE', #112, .T. ) ;
#220 =( NAMED_UNIT ( * ) SI_UNIT ( $, .STERADIAN. ) SOLID_ANGLE_UNIT ( ) );
#221 = EDGE_CURVE ( 'NONE', #119, #231, #261, .T. ) ;
#222 =( GEOMETRIC_REPRESENTATION_CONTEXT ( 3 ) GLOBAL_UNCERTAINTY_ASSIGNED_CONTEXT ( ( #129 ) ) GLOBAL_UNIT_ASSIGNED_CONTEXT ( ( #189, #218, #82 ) ) REPRESENTATION_CONTEXT ( 'NONE', 'WORKASPACE' ) );
#223 = DIRECTION ( 'NONE',  ( 0.000000000000000000, 1.000000000000000000, 0.000000000000000000 ) ) ;
#224 = FILL_AREA_STYLE_COLOUR ( '', #102 ) ;
#225 = SURFACE_SIDE_STYLE ('',( #76 ) ) ;
#226 =( GEOMETRIC_REPRESENTATION_CONTEXT ( 3 ) GLOBAL_UNCERTAINTY_ASSIGNED_CONTEXT ( ( #168 ) ) GLOBAL_UNIT_ASSIGNED_CONTEXT ( ( #66, #257, #220 ) ) REPRESENTATION_CONTEXT ( 'NONE', 'WORKASPACE' ) );
#227 =( NAMED_UNIT ( * ) SI_UNIT ( $, .STERADIAN. ) SOLID_ANGLE_UNIT ( ) );
#228 = SHAPE_DEFINITION_REPRESENTATION ( #108, #16 ) ;
#229 = ORIENTED_EDGE ( 'NONE', *, *, #241, .F. ) ;
#230 =( LENGTH_UNIT ( ) NAMED_UNIT ( * ) SI_UNIT ( $, .METRE. ) );
#231 = VERTEX_POINT ( 'NONE', #243 ) ;
#232 = PRESENTATION_STYLE_ASSIGNMENT (( #43 ) ) ;
#233 = ORIENTED_EDGE ( 'NONE', *, *, #183, .T. ) ;
#234 = CIRCLE ( 'NONE', #247, 0.1250000000000000000 ) ;
#235 = STYLED_ITEM ( 'NONE', ( #215 ), #104 ) ;
#236 = PLANE ( 'NONE',  #73 ) ;
#237 = SURFACE_STYLE_USAGE ( .BOTH. , #126 ) ;
#238 = LINE ( 'NONE', #69, #239 ) ;
#239 = VECTOR ( 'NONE', #182, 39.37007874015748143 ) ;
#240 = PRODUCT_DEFINITION_FORMATION_WITH_SPECIFIED_SOURCE ( 'ANY', '', #52, .NOT_KNOWN. ) ;
#241 = EDGE_CURVE ( 'NONE', #297, #89, #134, .T. ) ;
#242 = FACE_OUTER_BOUND ( 'NONE', #31, .T. ) ;
#243 = CARTESIAN_POINT ( 'NONE',  ( -0.1250000000000001388, 3.000000000000000444, 0.000000000000000000 ) ) ;
#244 = PRESENTATION_LAYER_ASSIGNMENT (  '', '', ( #190 ) ) ;
#245 = EDGE_CURVE ( 'NONE', #231, #119, #160, .T. ) ;
#246 = LENGTH_MEASURE_WITH_UNIT ( LENGTH_MEASURE( 0.02539999999999999897 ), #230 );
#247 = AXIS2_PLACEMENT_3D ( 'NONE', #166, #122, #205 ) ;
#248 = AXIS2_PLACEMENT_3D ( 'NONE', #250, #249, #111 ) ;
#249 = DIRECTION ( 'NONE',  ( -4.082155997157848133E-17, 1.000000000000000000, -0.000000000000000000 ) ) ;
#250 = CARTESIAN_POINT ( 'NONE',  ( -6.123233995736772199E-17, 3.000000000000000444, 0.000000000000000000 ) ) ;
#251 = EDGE_CURVE ( 'NONE', #89, #297, #158, .T. ) ;
#252 = PRODUCT_DEFINITION_CONTEXT ( 'detailed design', #30, 'design' ) ;
#253 = EDGE_LOOP ( 'NONE', ( #41, #4, #169, #283 ) ) ;
#254 = VERTEX_POINT ( 'NONE', #78 ) ;
#255 =( GEOMETRIC_REPRESENTATION_CONTEXT ( 3 ) GLOBAL_UNCERTAINTY_ASSIGNED_CONTEXT ( ( #110 ) ) GLOBAL_UNIT_ASSIGNED_CONTEXT ( ( #303, #13, #207 ) ) REPRESENTATION_CONTEXT ( 'NONE', 'WORKASPACE' ) );
#256 = SURFACE_STYLE_USAGE ( .BOTH. , #281 ) ;
#257 =( NAMED_UNIT ( * ) PLANE_ANGLE_UNIT ( ) SI_UNIT ( $, .RADIAN. ) );
#258 = ORIENTED_EDGE ( 'NONE', *, *, #268, .F. ) ;
#259 = CARTESIAN_POINT ( 'NONE',  ( 1.530808498934191201E-17, 1.500000000000000222, 0.1249999999999999861 ) ) ;
#260 = CARTESIAN_POINT ( 'NONE',  ( 0.000000000000000000, 0.000000000000000000, -0.1250000000000000000 ) ) ;
#261 = CIRCLE ( 'NONE', #248, 0.1250000000000000833 ) ;
#262 = ADVANCED_FACE ( 'NONE', ( #51 ), #132, .T. ) ;
#263 = FILL_AREA_STYLE ('',( #270 ) ) ;
#264 = DIRECTION ( 'NONE',  ( -4.082155997157848133E-17, 1.000000000000000000, -0.000000000000000000 ) ) ;
#265 =( NAMED_UNIT ( * ) PLANE_ANGLE_UNIT ( ) SI_UNIT ( $, .RADIAN. ) );
#266 = CARTESIAN_POINT ( 'NONE',  ( 7.582401355855259480E-33, 1.500000000000000222, 0.000000000000000000 ) ) ;
#267 = SURFACE_STYLE_FILL_AREA ( #196 ) ;
#268 = EDGE_CURVE ( 'NONE', #254, #116, #48, .T. ) ;
#269 = COLOUR_RGB ( '',0.7921568627450980005, 0.8196078431372548767, 0.9333333333333333481 ) ;
#270 = FILL_AREA_STYLE_COLOUR ( '', #290 ) ;
#271 =( NAMED_UNIT ( * ) PLANE_ANGLE_UNIT ( ) SI_UNIT ( $, .RADIAN. ) );
#272 = CARTESIAN_POINT ( 'NONE',  ( 0.000000000000000000, 0.000000000000000000, 0.000000000000000000 ) ) ;
#273 =( LENGTH_UNIT ( ) NAMED_UNIT ( * ) SI_UNIT ( $, .METRE. ) );
#274 = COLOUR_RGB ( '',1.000000000000000000, 0.000000000000000000, 0.000000000000000000 ) ;
#275 = DIMENSIONAL_EXPONENTS ( 1.000000000000000000, 0.000000000000000000, 0.000000000000000000, 0.000000000000000000, 0.000000000000000000, 0.000000000000000000, 0.000000000000000000 ) ;
#276 = MECHANICAL_DESIGN_GEOMETRIC_PRESENTATION_REPRESENTATION (  '', ( #15 ), #133 ) ;
#277 = MECHANICAL_DESIGN_GEOMETRIC_PRESENTATION_REPRESENTATION (  '', ( #64 ), #199 ) ;
#278 = ORIENTED_EDGE ( 'NONE', *, *, #245, .F. ) ;
#279 = DIRECTION ( 'NONE',  ( 0.000000000000000000, -1.000000000000000000, -0.000000000000000000 ) ) ;
#280 = ORIENTED_EDGE ( 'NONE', *, *, #251, .T. ) ;
#281 = SURFACE_SIDE_STYLE ('',( #62 ) ) ;
#282 = AXIS2_PLACEMENT_3D ( 'NONE', #179, #289, #50 ) ;
#283 = ORIENTED_EDGE ( 'NONE', *, *, #183, .F. ) ;
#284 = APPLICATION_PROTOCOL_DEFINITION ( 'draft international standard', 'automotive_design', 1998, #123 ) ;
#285 = APPLICATION_PROTOCOL_DEFINITION ( 'draft international standard', 'automotive_design', 1998, #30 ) ;
#286 = AXIS2_PLACEMENT_3D ( 'NONE', #180, #14, #178 ) ;
#287 = LENGTH_MEASURE_WITH_UNIT ( LENGTH_MEASURE( 0.02539999999999999897 ), #5 );
#288 = FACE_OUTER_BOUND ( 'NONE', #10, .T. ) ;
#289 = DIRECTION ( 'NONE',  ( -0.000000000000000000, -1.000000000000000000, -0.000000000000000000 ) ) ;
#290 = COLOUR_RGB ( '',0.7921568627450980005, 0.8196078431372548767, 0.9333333333333333481 ) ;
#291 = MANIFOLD_SOLID_BREP ( 'Revolve - Tool Body (Straight Shanked)', #184 ) ;
#292 = AXIS2_PLACEMENT_3D ( 'NONE', #192, #58, #301 ) ;
#293 = PRESENTATION_STYLE_ASSIGNMENT (( #197 ) ) ;
#294 = AXIS2_PLACEMENT_3D ( 'NONE', #127, #56, #3 ) ;
#295 = EDGE_LOOP ( 'NONE', ( #187, #233 ) ) ;
#296 = LINE ( 'NONE', #47, #42 ) ;
#297 = VERTEX_POINT ( 'NONE', #170 ) ;
#298 = DIRECTION ( 'NONE',  ( -0.000000000000000000, -1.000000000000000000, -0.000000000000000000 ) ) ;
#299 = ORIENTED_EDGE ( 'NONE', *, *, #171, .T. ) ;
#300 =( CONVERSION_BASED_UNIT ( 'INCH', #203 ) LENGTH_UNIT ( ) NAMED_UNIT ( #34 ) );
#301 = DIRECTION ( 'NONE',  ( -1.000000000000000000, -4.082155997157848133E-17, 0.000000000000000000 ) ) ;
#302 = FILL_AREA_STYLE ('',( #125 ) ) ;
#303 =( CONVERSION_BASED_UNIT ( 'INCH', #213 ) LENGTH_UNIT ( ) NAMED_UNIT ( #24 ) );
#304 = AXIS2_PLACEMENT_3D ( 'NONE', #71, #211, #172 ) ;
#305 = ADVANCED_FACE ( 'NONE', ( #198 ), #162, .T. ) ;
#306 = DIRECTION ( 'NONE',  ( -4.082155997157848133E-17, 1.000000000000000000, -0.000000000000000000 ) ) ;
#307 = CARTESIAN_POINT ( 'NONE',  ( -6.123233995736772199E-17, 3.000000000000000444, 0.000000000000000000 ) ) ;
#308 = DIRECTION ( 'NONE',  ( -0.000000000000000000, -1.000000000000000000, -0.000000000000000000 ) ) ;
#309 = UNCERTAINTY_MEASURE_WITH_UNIT (LENGTH_MEASURE( 1.000000000000000082E-05 ), #174, 'distance_accuracy_value', 'NONE');
ENDSEC;
END-ISO-10303-21;
