ISO-10303-21;
HEADER;
FILE_DESCRIPTION (( 'STEP AP214' ),
    '1' );
FILE_NAME ('Micro_GEM-093-2X.STEP',
    '2021-09-01T19:15:53',
    ( '' ),
    ( '' ),
    'SwSTEP 2.0',
    'SolidWorks 2020',
    '' );
FILE_SCHEMA (( 'AUTOMOTIVE_DESIGN' ));
ENDSEC;

DATA;
#1 = CARTESIAN_POINT ( 'NONE',  ( 0.0000000000000000000, 0.0000000000000000000, 1.500000000000000222 ) ) ;
#2 = VECTOR ( 'NONE', #48, 39.37007874015747433 ) ;
#3 = UNCERTAINTY_MEASURE_WITH_UNIT (LENGTH_MEASURE( 1.000000000000000082E-05 ), #276, 'distance_accuracy_value', 'NONE');
#4 = EDGE_LOOP ( 'NONE', ( #56, #157, #152, #234 ) ) ;
#5 = LINE ( 'NONE', #76, #294 ) ;
#6 = VECTOR ( 'NONE', #239, 39.37007874015748143 ) ;
#7 = CARTESIAN_POINT ( 'NONE',  ( 0.0000000000000000000, 0.0000000000000000000, 0.0000000000000000000 ) ) ;
#8 = ORIENTED_EDGE ( 'NONE', *, *, #66, .T. ) ;
#9 = CARTESIAN_POINT ( 'NONE',  ( 0.06250000000000002776, 7.654042494670959086E-18, 1.500000000000000222 ) ) ;
#10 = ORIENTED_EDGE ( 'NONE', *, *, #253, .T. ) ;
#11 = DIRECTION ( 'NONE',  ( 1.000000000000000000, 0.0000000000000000000, 0.0000000000000000000 ) ) ;
#12 = EDGE_LOOP ( 'NONE', ( #128, #213, #10, #201 ) ) ;
#13 = FACE_OUTER_BOUND ( 'NONE', #75, .T. ) ;
#14 = VERTEX_POINT ( 'NONE', #173 ) ;
#15 = MECHANICAL_DESIGN_GEOMETRIC_PRESENTATION_REPRESENTATION (  '', ( #216 ), #156 ) ;
#16 = CARTESIAN_POINT ( 'NONE',  ( 0.04685310000000004332, 0.0000000000000000000, 0.3750000000000000555 ) ) ;
#17 = SURFACE_STYLE_USAGE ( .BOTH. , #221 ) ;
#18 = APPLICATION_CONTEXT ( 'automotive_design' ) ;
#19 = AXIS2_PLACEMENT_3D ( 'NONE', #246, #39, #132 ) ;
#20 = DIRECTION ( 'NONE',  ( -1.000000000000000000, 0.0000000000000000000, 1.224646799147353700E-16 ) ) ;
#21 = DIRECTION ( 'NONE',  ( 1.000000000000000000, 0.0000000000000000000, -0.0000000000000000000 ) ) ;
#22 = CARTESIAN_POINT ( 'NONE',  ( 0.04750000000000064587, 5.817072295950006528E-18, 1.500000000000000222 ) ) ;
#23 = CIRCLE ( 'NONE', #187, 0.06250000000000002776 ) ;
#24 = DIRECTION ( 'NONE',  ( -1.000000000000000000, 0.0000000000000000000, 0.0000000000000000000 ) ) ;
#25 = FACE_OUTER_BOUND ( 'NONE', #197, .T. ) ;
#26 = CARTESIAN_POINT ( 'NONE',  ( 5.679152322418705982E-17, 0.0000000000000000000, 0.4637379795033760299 ) ) ;
#27 = ORIENTED_EDGE ( 'NONE', *, *, #209, .T. ) ;
#28 = DIRECTION ( 'NONE',  ( 1.224646799147353700E-16, 0.0000000000000000000, 1.000000000000000000 ) ) ;
#29 = ORIENTED_EDGE ( 'NONE', *, *, #260, .T. ) ;
#30 = ORIENTED_EDGE ( 'NONE', *, *, #247, .T. ) ;
#31 = PRODUCT_RELATED_PRODUCT_CATEGORY ( 'part', '', ( #274 ) ) ;
#32 = LINE ( 'NONE', #9, #6 ) ;
#33 = CYLINDRICAL_SURFACE ( 'NONE', #148, 0.04685310000000000169 ) ;
#34 = APPLICATION_PROTOCOL_DEFINITION ( 'draft international standard', 'automotive_design', 1998, #18 ) ;
#35 = ORIENTED_EDGE ( 'NONE', *, *, #184, .T. ) ;
#36 = DIRECTION ( 'NONE',  ( -1.000000000000000000, 0.0000000000000000000, 0.0000000000000000000 ) ) ;
#37 = CARTESIAN_POINT ( 'NONE',  ( 5.679152322418705982E-17, 0.0000000000000000000, 0.4637379795033760299 ) ) ;
#38 = ADVANCED_FACE ( 'NONE', ( #265 ), #111, .T. ) ;
#39 = DIRECTION ( 'NONE',  ( 1.224646799147353700E-16, 0.0000000000000000000, 1.000000000000000000 ) ) ;
#40 = EDGE_CURVE ( 'NONE', #116, #210, #104, .T. ) ;
#41 = CARTESIAN_POINT ( 'NONE',  ( 7.026839507303433011E-34, 0.0000000000000000000, 5.737849894513087439E-18 ) ) ;
#42 = ADVANCED_FACE ( 'NONE', ( #101 ), #58, .F. ) ;
#43 = LINE ( 'NONE', #143, #2 ) ;
#44 = EDGE_LOOP ( 'NONE', ( #107, #243, #223, #61 ) ) ;
#45 = LENGTH_MEASURE_WITH_UNIT ( LENGTH_MEASURE( 0.02539999999999999897 ), #270 );
#46 = CARTESIAN_POINT ( 'NONE',  ( 0.0000000000000000000, 0.0000000000000000000, 1.485000000000000764 ) ) ;
#47 = AXIS2_PLACEMENT_3D ( 'NONE', #295, #92, #24 ) ;
#48 = DIRECTION ( 'NONE',  ( -0.1736481776669311916, 2.126576849575783316E-17, 0.9848077530122080203 ) ) ;
#49 = EDGE_LOOP ( 'NONE', ( #130, #29, #82, #261 ) ) ;
#50 = ORIENTED_EDGE ( 'NONE', *, *, #291, .F. ) ;
#51 = PRODUCT_DEFINITION_CONTEXT ( 'detailed design', #18, 'design' ) ;
#52 = ADVANCED_FACE ( 'NONE', ( #191 ), #227, .T. ) ;
#53 = DIRECTION ( 'NONE',  ( 1.000000000000000000, 0.0000000000000000000, -0.0000000000000000000 ) ) ;
#54 = DIRECTION ( 'NONE',  ( 0.0000000000000000000, 0.0000000000000000000, -1.000000000000000000 ) ) ;
#55 = AXIS2_PLACEMENT_3D ( 'NONE', #268, #225, #206 ) ;
#56 = ORIENTED_EDGE ( 'NONE', *, *, #144, .F. ) ;
#57 = CARTESIAN_POINT ( 'NONE',  ( 4.592425496802576684E-17, 0.0000000000000000000, 0.3750000000000000555 ) ) ;
#58 = PLANE ( 'NONE',  #176 ) ;
#59 = ORIENTED_EDGE ( 'NONE', *, *, #79, .T. ) ;
#60 = DIRECTION ( 'NONE',  ( -1.000000000000000000, 0.0000000000000000000, 1.224646799147353700E-16 ) ) ;
#61 = ORIENTED_EDGE ( 'NONE', *, *, #260, .F. ) ;
#62 = CIRCLE ( 'NONE', #220, 0.04750000000000064587 ) ;
#63 = APPLICATION_PROTOCOL_DEFINITION ( 'draft international standard', 'automotive_design', 1998, #183 ) ;
#64 = PRODUCT_DEFINITION_FORMATION_WITH_SPECIFIED_SOURCE ( 'ANY', '', #274, .NOT_KNOWN. ) ;
#65 = SURFACE_STYLE_FILL_AREA ( #269 ) ;
#66 = EDGE_CURVE ( 'NONE', #151, #80, #133, .T. ) ;
#67 = DIRECTION ( 'NONE',  ( 0.0000000000000000000, 0.0000000000000000000, 1.000000000000000000 ) ) ;
#68 = DIRECTION ( 'NONE',  ( -1.224646799147353700E-16, -0.0000000000000000000, -1.000000000000000000 ) ) ;
#69 = AXIS2_PLACEMENT_3D ( 'NONE', #121, #140, #228 ) ;
#70 =( LENGTH_UNIT ( ) NAMED_UNIT ( * ) SI_UNIT ( $, .METRE. ) );
#71 = PRODUCT_CONTEXT ( 'NONE', #183, 'mechanical' ) ;
#72 = ADVANCED_FACE ( 'NONE', ( #108 ), #244, .T. ) ;
#73 = VERTEX_POINT ( 'NONE', #188 ) ;
#74 = CARTESIAN_POINT ( 'NONE',  ( 0.06250000000000008327, 7.654042494670966789E-18, 0.4637379795033760299 ) ) ;
#75 = EDGE_LOOP ( 'NONE', ( #30, #218, #290, #240 ) ) ;
#76 = CARTESIAN_POINT ( 'NONE',  ( 0.04685310000000000169, 5.737849894513085128E-18, -5.737849894513087439E-18 ) ) ;
#77 = CARTESIAN_POINT ( 'NONE',  ( 0.0000000000000000000, 0.0000000000000000000, 0.0000000000000000000 ) ) ;
#78 = PRESENTATION_LAYER_ASSIGNMENT (  '', '', ( #208 ) ) ;
#79 = EDGE_CURVE ( 'NONE', #103, #151, #109, .T. ) ;
#80 = VERTEX_POINT ( 'NONE', #189 ) ;
#81 = CARTESIAN_POINT ( 'NONE',  ( -0.04750000000000064587, 0.0000000000000000000, 1.500000000000000222 ) ) ;
#82 = ORIENTED_EDGE ( 'NONE', *, *, #224, .T. ) ;
#83 = CARTESIAN_POINT ( 'NONE',  ( -0.04685310000000000169, 0.0000000000000000000, 5.737849894513087439E-18 ) ) ;
#84 = PRODUCT_DEFINITION ( 'UNKNOWN', '', #64, #51 ) ;
#85 = VECTOR ( 'NONE', #131, 39.37007874015748143 ) ;
#86 = DIRECTION ( 'NONE',  ( 0.0000000000000000000, 0.0000000000000000000, -1.000000000000000000 ) ) ;
#87 = EDGE_CURVE ( 'NONE', #232, #161, #114, .T. ) ;
#88 =( NAMED_UNIT ( * ) PLANE_ANGLE_UNIT ( ) SI_UNIT ( $, .RADIAN. ) );
#89 = COLOUR_RGB ( '',0.7921568627450980005, 0.8196078431372548767, 0.9333333333333333481 ) ;
#90 = CLOSED_SHELL ( 'NONE', ( #118, #38, #136, #72, #277, #241, #52, #139, #115, #42 ) ) ;
#91 = FACE_OUTER_BOUND ( 'NONE', #49, .T. ) ;
#92 = DIRECTION ( 'NONE',  ( -1.224646799147353700E-16, -0.0000000000000000000, -1.000000000000000000 ) ) ;
#93 = DIMENSIONAL_EXPONENTS ( 1.000000000000000000, 0.0000000000000000000, 0.0000000000000000000, 0.0000000000000000000, 0.0000000000000000000, 0.0000000000000000000, 0.0000000000000000000 ) ;
#94 =( CONVERSION_BASED_UNIT ( 'INCH', #45 ) LENGTH_UNIT ( ) NAMED_UNIT ( #100 ) );
#95 = DIRECTION ( 'NONE',  ( 1.000000000000000000, 0.0000000000000000000, 0.0000000000000000000 ) ) ;
#96 = VECTOR ( 'NONE', #299, 39.37007874015748854 ) ;
#97 = UNCERTAINTY_MEASURE_WITH_UNIT (LENGTH_MEASURE( 1.000000000000000082E-05 ), #205, 'distance_accuracy_value', 'NONE');
#98 =( LENGTH_UNIT ( ) NAMED_UNIT ( * ) SI_UNIT ( $, .METRE. ) );
#99 = VERTEX_POINT ( 'NONE', #283 ) ;
#100 = DIMENSIONAL_EXPONENTS ( 1.000000000000000000, 0.0000000000000000000, 0.0000000000000000000, 0.0000000000000000000, 0.0000000000000000000, 0.0000000000000000000, 0.0000000000000000000 ) ;
#101 = FACE_OUTER_BOUND ( 'NONE', #204, .T. ) ;
#102 = AXIS2_PLACEMENT_3D ( 'NONE', #57, #242, #129 ) ;
#103 = VERTEX_POINT ( 'NONE', #16 ) ;
#104 = LINE ( 'NONE', #81, #278 ) ;
#105 = AXIS2_PLACEMENT_3D ( 'NONE', #154, #28, #292 ) ;
#106 = PRESENTATION_STYLE_ASSIGNMENT (( #138 ) ) ;
#107 = ORIENTED_EDGE ( 'NONE', *, *, #230, .F. ) ;
#108 = FACE_OUTER_BOUND ( 'NONE', #112, .T. ) ;
#109 = LINE ( 'NONE', #169, #117 ) ;
#110 = AXIS2_PLACEMENT_3D ( 'NONE', #26, #119, #297 ) ;
#111 = CONICAL_SURFACE ( 'NONE', #105, 0.04685310000000000169, 0.1745329251994338915 ) ;
#112 = EDGE_LOOP ( 'NONE', ( #186, #256, #285, #282 ) ) ;
#113 = EDGE_CURVE ( 'NONE', #103, #232, #141, .T. ) ;
#114 = LINE ( 'NONE', #83, #85 ) ;
#115 = ADVANCED_FACE ( 'NONE', ( #215 ), #33, .T. ) ;
#116 = VERTEX_POINT ( 'NONE', #237 ) ;
#117 = VECTOR ( 'NONE', #263, 39.37007874015748143 ) ;
#118 = ADVANCED_FACE ( 'NONE', ( #13 ), #264, .T. ) ;
#119 = DIRECTION ( 'NONE',  ( -1.224646799147353700E-16, -0.0000000000000000000, -1.000000000000000000 ) ) ;
#120 = AXIS2_PLACEMENT_3D ( 'NONE', #286, #258, #36 ) ;
#121 = CARTESIAN_POINT ( 'NONE',  ( 0.0000000000000000000, 0.0000000000000000000, 1.500000000000000222 ) ) ;
#122 = CARTESIAN_POINT ( 'NONE',  ( 0.0000000000000000000, 0.0000000000000000000, 1.500000000000000222 ) ) ;
#123 = SHAPE_DEFINITION_REPRESENTATION ( #293, #145 ) ;
#124 = DIRECTION ( 'NONE',  ( 1.000000000000000000, 0.0000000000000000000, 0.0000000000000000000 ) ) ;
#125 = ORIENTED_EDGE ( 'NONE', *, *, #284, .T. ) ;
#126 = DIRECTION ( 'NONE',  ( 0.0000000000000000000, 0.0000000000000000000, -1.000000000000000000 ) ) ;
#127 = CIRCLE ( 'NONE', #110, 0.06250000000000002776 ) ;
#128 = ORIENTED_EDGE ( 'NONE', *, *, #247, .F. ) ;
#129 = DIRECTION ( 'NONE',  ( -1.000000000000000000, 0.0000000000000000000, 0.0000000000000000000 ) ) ;
#130 = ORIENTED_EDGE ( 'NONE', *, *, #159, .F. ) ;
#131 = DIRECTION ( 'NONE',  ( -1.224646799147353700E-16, -0.0000000000000000000, -1.000000000000000000 ) ) ;
#132 = DIRECTION ( 'NONE',  ( 1.000000000000000000, 0.0000000000000000000, 0.0000000000000000000 ) ) ;
#133 = CIRCLE ( 'NONE', #178, 0.06250000000000002776 ) ;
#134 = SURFACE_STYLE_FILL_AREA ( #158 ) ;
#135 = CIRCLE ( 'NONE', #273, 0.04685310000000000169 ) ;
#136 = ADVANCED_FACE ( 'NONE', ( #212 ), #202, .T. ) ;
#137 = CARTESIAN_POINT ( 'NONE',  ( -0.04685309999999995312, 6.695946194592023262E-18, 0.3750000000000000555 ) ) ;
#138 = SURFACE_STYLE_USAGE ( .BOTH. , #249 ) ;
#139 = ADVANCED_FACE ( 'NONE', ( #149 ), #245, .T. ) ;
#140 = DIRECTION ( 'NONE',  ( -0.0000000000000000000, -0.0000000000000000000, -1.000000000000000000 ) ) ;
#141 = CIRCLE ( 'NONE', #102, 0.04685310000000000169 ) ;
#142 = DIRECTION ( 'NONE',  ( 1.000000000000000000, 0.0000000000000000000, 0.0000000000000000000 ) ) ;
#143 = CARTESIAN_POINT ( 'NONE',  ( -0.04685309999999995312, 5.737849894513085128E-18, 0.3750000000000000555 ) ) ;
#144 = EDGE_CURVE ( 'NONE', #103, #14, #5, .T. ) ;
#145 = ADVANCED_BREP_SHAPE_REPRESENTATION ( 'Micro_GEM-093-2X', ( #171, #193 ), #272 ) ;
#146 = ORIENTED_EDGE ( 'NONE', *, *, #230, .T. ) ;
#147 = CARTESIAN_POINT ( 'NONE',  ( 0.0000000000000000000, 0.0000000000000000000, 1.500000000000000222 ) ) ;
#148 = AXIS2_PLACEMENT_3D ( 'NONE', #170, #266, #194 ) ;
#149 = FACE_OUTER_BOUND ( 'NONE', #190, .T. ) ;
#150 =( NAMED_UNIT ( * ) PLANE_ANGLE_UNIT ( ) SI_UNIT ( $, .RADIAN. ) );
#151 = VERTEX_POINT ( 'NONE', #74 ) ;
#152 = ORIENTED_EDGE ( 'NONE', *, *, #87, .T. ) ;
#153 = CARTESIAN_POINT ( 'NONE',  ( 0.0000000000000000000, 0.0000000000000000000, 0.0000000000000000000 ) ) ;
#154 = CARTESIAN_POINT ( 'NONE',  ( 4.592425496802576684E-17, 0.0000000000000000000, 0.3750000000000000555 ) ) ;
#155 = CARTESIAN_POINT ( 'NONE',  ( 0.0000000000000000000, 0.0000000000000000000, 1.500000000000000222 ) ) ;
#156 =( GEOMETRIC_REPRESENTATION_CONTEXT ( 3 ) GLOBAL_UNCERTAINTY_ASSIGNED_CONTEXT ( ( #185 ) ) GLOBAL_UNIT_ASSIGNED_CONTEXT ( ( #94, #298, #177 ) ) REPRESENTATION_CONTEXT ( 'NONE', 'WORKASPACE' ) );
#157 = ORIENTED_EDGE ( 'NONE', *, *, #113, .T. ) ;
#158 = FILL_AREA_STYLE ('',( #214 ) ) ;
#159 = EDGE_CURVE ( 'NONE', #99, #151, #32, .T. ) ;
#160 =( NAMED_UNIT ( * ) SI_UNIT ( $, .STERADIAN. ) SOLID_ANGLE_UNIT ( ) );
#161 = VERTEX_POINT ( 'NONE', #168 ) ;
#162 = DIRECTION ( 'NONE',  ( -0.0000000000000000000, -0.0000000000000000000, -1.000000000000000000 ) ) ;
#163 = AXIS2_PLACEMENT_3D ( 'NONE', #46, #271, #95 ) ;
#164 = CARTESIAN_POINT ( 'NONE',  ( 7.026839507303433011E-34, 0.0000000000000000000, 5.737849894513087439E-18 ) ) ;
#165 = ORIENTED_EDGE ( 'NONE', *, *, #209, .F. ) ;
#166 = VECTOR ( 'NONE', #162, 39.37007874015748143 ) ;
#167 = DIRECTION ( 'NONE',  ( -1.224646799147353700E-16, -0.0000000000000000000, -1.000000000000000000 ) ) ;
#168 = CARTESIAN_POINT ( 'NONE',  ( -0.04685310000000000169, 0.0000000000000000000, 1.147569978902617488E-17 ) ) ;
#169 = CARTESIAN_POINT ( 'NONE',  ( 0.04685310000000004332, 0.0000000000000000000, 0.3750000000000000555 ) ) ;
#170 = CARTESIAN_POINT ( 'NONE',  ( 0.0000000000000000000, 0.0000000000000000000, 0.0000000000000000000 ) ) ;
#171 = MANIFOLD_SOLID_BREP ( 'Cut-Revolve1', #90 ) ;
#172 = DIRECTION ( 'NONE',  ( -1.224646799147353700E-16, -0.0000000000000000000, -1.000000000000000000 ) ) ;
#173 = CARTESIAN_POINT ( 'NONE',  ( 0.04685310000000000169, 5.737849894513085128E-18, 0.0000000000000000000 ) ) ;
#174 = CIRCLE ( 'NONE', #47, 0.04685310000000000169 ) ;
#175 = PRESENTATION_STYLE_ASSIGNMENT (( #17 ) ) ;
#176 = AXIS2_PLACEMENT_3D ( 'NONE', #77, #289, #53 ) ;
#177 =( NAMED_UNIT ( * ) SI_UNIT ( $, .STERADIAN. ) SOLID_ANGLE_UNIT ( ) );
#178 = AXIS2_PLACEMENT_3D ( 'NONE', #37, #259, #11 ) ;
#179 = DIRECTION ( 'NONE',  ( 1.000000000000000000, 0.0000000000000000000, 0.0000000000000000000 ) ) ;
#180 = FILL_AREA_STYLE_COLOUR ( '', #89 ) ;
#181 = PLANE ( 'NONE',  #267 ) ;
#182 = CYLINDRICAL_SURFACE ( 'NONE', #69, 0.06250000000000002776 ) ;
#183 = APPLICATION_CONTEXT ( 'automotive_design' ) ;
#184 = EDGE_CURVE ( 'NONE', #161, #14, #226, .T. ) ;
#185 = UNCERTAINTY_MEASURE_WITH_UNIT (LENGTH_MEASURE( 1.000000000000000082E-05 ), #94, 'distance_accuracy_value', 'NONE');
#186 = ORIENTED_EDGE ( 'NONE', *, *, #195, .T. ) ;
#187 = AXIS2_PLACEMENT_3D ( 'NONE', #199, #86, #179 ) ;
#188 = CARTESIAN_POINT ( 'NONE',  ( 0.04750000000000064587, 6.735557395310483192E-18, 1.500000000000000222 ) ) ;
#189 = CARTESIAN_POINT ( 'NONE',  ( -0.06249999999999996531, 0.0000000000000000000, 0.4637379795033760299 ) ) ;
#190 = EDGE_LOOP ( 'NONE', ( #50, #250, #59, #8 ) ) ;
#191 = FACE_OUTER_BOUND ( 'NONE', #44, .T. ) ;
#192 = ORIENTED_EDGE ( 'NONE', *, *, #207, .T. ) ;
#193 = AXIS2_PLACEMENT_3D ( 'NONE', #7, #235, #124 ) ;
#194 = DIRECTION ( 'NONE',  ( -1.000000000000000000, 0.0000000000000000000, 1.224646799147353700E-16 ) ) ;
#195 = EDGE_CURVE ( 'NONE', #210, #99, #23, .T. ) ;
#196 = DIRECTION ( 'NONE',  ( -0.7071067811865462405, 0.0000000000000000000, -0.7071067811865486830 ) ) ;
#197 = EDGE_LOOP ( 'NONE', ( #192, #27 ) ) ;
#198 = CIRCLE ( 'NONE', #55, 0.04750000000000064587 ) ;
#199 = CARTESIAN_POINT ( 'NONE',  ( 0.0000000000000000000, 0.0000000000000000000, 1.485000000000000764 ) ) ;
#200 = LINE ( 'NONE', #231, #166 ) ;
#201 = ORIENTED_EDGE ( 'NONE', *, *, #79, .F. ) ;
#202 = CONICAL_SURFACE ( 'NONE', #238, 0.04750000000000064587, 0.7853981633974466137 ) ;
#203 = CARTESIAN_POINT ( 'NONE',  ( -0.06250000000000002776, 0.0000000000000000000, 1.485000000000000764 ) ) ;
#204 = EDGE_LOOP ( 'NONE', ( #35, #125 ) ) ;
#205 =( CONVERSION_BASED_UNIT ( 'INCH', #254 ) LENGTH_UNIT ( ) NAMED_UNIT ( #233 ) );
#206 = DIRECTION ( 'NONE',  ( 1.000000000000000000, 0.0000000000000000000, 0.0000000000000000000 ) ) ;
#207 = EDGE_CURVE ( 'NONE', #116, #73, #198, .T. ) ;
#208 = STYLED_ITEM ( 'NONE', ( #106 ), #145 ) ;
#209 = EDGE_CURVE ( 'NONE', #73, #116, #62, .T. ) ;
#210 = VERTEX_POINT ( 'NONE', #203 ) ;
#211 = COLOUR_RGB ( '',0.7921568627450980005, 0.8196078431372548767, 0.9333333333333333481 ) ;
#212 = FACE_OUTER_BOUND ( 'NONE', #287, .T. ) ;
#213 = ORIENTED_EDGE ( 'NONE', *, *, #291, .T. ) ;
#214 = FILL_AREA_STYLE_COLOUR ( '', #211 ) ;
#215 = FACE_OUTER_BOUND ( 'NONE', #4, .T. ) ;
#216 = STYLED_ITEM ( 'NONE', ( #175 ), #171 ) ;
#217 = DIRECTION ( 'NONE',  ( -1.000000000000000000, 0.0000000000000000000, 0.0000000000000000000 ) ) ;
#218 = ORIENTED_EDGE ( 'NONE', *, *, #144, .T. ) ;
#219 = AXIS2_PLACEMENT_3D ( 'NONE', #147, #126, #217 ) ;
#220 = AXIS2_PLACEMENT_3D ( 'NONE', #122, #229, #142 ) ;
#221 = SURFACE_SIDE_STYLE ('',( #134 ) ) ;
#222 = DIRECTION ( 'NONE',  ( -1.224646799147353700E-16, -0.0000000000000000000, -1.000000000000000000 ) ) ;
#223 = ORIENTED_EDGE ( 'NONE', *, *, #40, .T. ) ;
#224 = EDGE_CURVE ( 'NONE', #210, #80, #200, .T. ) ;
#225 = DIRECTION ( 'NONE',  ( 0.0000000000000000000, 0.0000000000000000000, 1.000000000000000000 ) ) ;
#226 = CIRCLE ( 'NONE', #252, 0.04685310000000000169 ) ;
#227 = CONICAL_SURFACE ( 'NONE', #219, 0.04750000000000064587, 0.7853981633974466137 ) ;
#228 = DIRECTION ( 'NONE',  ( -1.000000000000000000, 0.0000000000000000000, 0.0000000000000000000 ) ) ;
#229 = DIRECTION ( 'NONE',  ( 0.0000000000000000000, 0.0000000000000000000, 1.000000000000000000 ) ) ;
#230 = EDGE_CURVE ( 'NONE', #73, #99, #251, .T. ) ;
#231 = CARTESIAN_POINT ( 'NONE',  ( -0.06250000000000002776, 0.0000000000000000000, 1.500000000000000222 ) ) ;
#232 = VERTEX_POINT ( 'NONE', #137 ) ;
#233 = DIMENSIONAL_EXPONENTS ( 1.000000000000000000, 0.0000000000000000000, 0.0000000000000000000, 0.0000000000000000000, 0.0000000000000000000, 0.0000000000000000000, 0.0000000000000000000 ) ;
#234 = ORIENTED_EDGE ( 'NONE', *, *, #284, .F. ) ;
#235 = DIRECTION ( 'NONE',  ( 0.0000000000000000000, 0.0000000000000000000, 1.000000000000000000 ) ) ;
#236 = ORIENTED_EDGE ( 'NONE', *, *, #195, .F. ) ;
#237 = CARTESIAN_POINT ( 'NONE',  ( -0.04750000000000064587, 0.0000000000000000000, 1.500000000000000222 ) ) ;
#238 = AXIS2_PLACEMENT_3D ( 'NONE', #155, #54, #280 ) ;
#239 = DIRECTION ( 'NONE',  ( -0.0000000000000000000, -0.0000000000000000000, -1.000000000000000000 ) ) ;
#240 = ORIENTED_EDGE ( 'NONE', *, *, #87, .F. ) ;
#241 = ADVANCED_FACE ( 'NONE', ( #25 ), #181, .T. ) ;
#242 = DIRECTION ( 'NONE',  ( -1.224646799147353700E-16, -0.0000000000000000000, -1.000000000000000000 ) ) ;
#243 = ORIENTED_EDGE ( 'NONE', *, *, #207, .F. ) ;
#244 = CYLINDRICAL_SURFACE ( 'NONE', #120, 0.06250000000000002776 ) ;
#245 = CONICAL_SURFACE ( 'NONE', #19, 0.04685310000000000169, 0.1745329251994338915 ) ;
#246 = CARTESIAN_POINT ( 'NONE',  ( 4.592425496802576684E-17, 0.0000000000000000000, 0.3750000000000000555 ) ) ;
#247 = EDGE_CURVE ( 'NONE', #232, #103, #174, .T. ) ;
#248 = PRESENTATION_LAYER_ASSIGNMENT (  '', '', ( #216 ) ) ;
#249 = SURFACE_SIDE_STYLE ('',( #65 ) ) ;
#250 = ORIENTED_EDGE ( 'NONE', *, *, #113, .F. ) ;
#251 = LINE ( 'NONE', #22, #96 ) ;
#252 = AXIS2_PLACEMENT_3D ( 'NONE', #41, #222, #20 ) ;
#253 = EDGE_CURVE ( 'NONE', #80, #151, #127, .T. ) ;
#254 = LENGTH_MEASURE_WITH_UNIT ( LENGTH_MEASURE( 0.02539999999999999897 ), #70 );
#255 =( GEOMETRIC_REPRESENTATION_CONTEXT ( 3 ) GLOBAL_UNCERTAINTY_ASSIGNED_CONTEXT ( ( #3 ) ) GLOBAL_UNIT_ASSIGNED_CONTEXT ( ( #276, #150, #257 ) ) REPRESENTATION_CONTEXT ( 'NONE', 'WORKASPACE' ) );
#256 = ORIENTED_EDGE ( 'NONE', *, *, #159, .T. ) ;
#257 =( NAMED_UNIT ( * ) SI_UNIT ( $, .STERADIAN. ) SOLID_ANGLE_UNIT ( ) );
#258 = DIRECTION ( 'NONE',  ( -0.0000000000000000000, -0.0000000000000000000, -1.000000000000000000 ) ) ;
#259 = DIRECTION ( 'NONE',  ( -1.224646799147353700E-16, -0.0000000000000000000, -1.000000000000000000 ) ) ;
#260 = EDGE_CURVE ( 'NONE', #99, #210, #262, .T. ) ;
#261 = ORIENTED_EDGE ( 'NONE', *, *, #66, .F. ) ;
#262 = CIRCLE ( 'NONE', #163, 0.06250000000000002776 ) ;
#263 = DIRECTION ( 'NONE',  ( 0.1736481776669313859, 0.0000000000000000000, 0.9848077530122077983 ) ) ;
#264 = CYLINDRICAL_SURFACE ( 'NONE', #296, 0.04685310000000000169 ) ;
#265 = FACE_OUTER_BOUND ( 'NONE', #12, .T. ) ;
#266 = DIRECTION ( 'NONE',  ( -1.224646799147353700E-16, -0.0000000000000000000, -1.000000000000000000 ) ) ;
#267 = AXIS2_PLACEMENT_3D ( 'NONE', #1, #67, #21 ) ;
#268 = CARTESIAN_POINT ( 'NONE',  ( 0.0000000000000000000, 0.0000000000000000000, 1.500000000000000222 ) ) ;
#269 = FILL_AREA_STYLE ('',( #180 ) ) ;
#270 =( LENGTH_UNIT ( ) NAMED_UNIT ( * ) SI_UNIT ( $, .METRE. ) );
#271 = DIRECTION ( 'NONE',  ( 0.0000000000000000000, 0.0000000000000000000, -1.000000000000000000 ) ) ;
#272 =( GEOMETRIC_REPRESENTATION_CONTEXT ( 3 ) GLOBAL_UNCERTAINTY_ASSIGNED_CONTEXT ( ( #97 ) ) GLOBAL_UNIT_ASSIGNED_CONTEXT ( ( #205, #88, #160 ) ) REPRESENTATION_CONTEXT ( 'NONE', 'WORKASPACE' ) );
#273 = AXIS2_PLACEMENT_3D ( 'NONE', #164, #68, #275 ) ;
#274 = PRODUCT ( 'Micro_GEM-093-2X', 'Micro_GEM-093-2X', '', ( #71 ) ) ;
#275 = DIRECTION ( 'NONE',  ( -1.000000000000000000, 0.0000000000000000000, 1.224646799147353700E-16 ) ) ;
#276 =( CONVERSION_BASED_UNIT ( 'INCH', #281 ) LENGTH_UNIT ( ) NAMED_UNIT ( #93 ) );
#277 = ADVANCED_FACE ( 'NONE', ( #91 ), #182, .T. ) ;
#278 = VECTOR ( 'NONE', #196, 39.37007874015748854 ) ;
#279 = ORIENTED_EDGE ( 'NONE', *, *, #40, .F. ) ;
#280 = DIRECTION ( 'NONE',  ( -1.000000000000000000, 0.0000000000000000000, 0.0000000000000000000 ) ) ;
#281 = LENGTH_MEASURE_WITH_UNIT ( LENGTH_MEASURE( 0.02539999999999999897 ), #98 );
#282 = ORIENTED_EDGE ( 'NONE', *, *, #224, .F. ) ;
#283 = CARTESIAN_POINT ( 'NONE',  ( 0.06250000000000002776, 7.654042494670959086E-18, 1.485000000000000764 ) ) ;
#284 = EDGE_CURVE ( 'NONE', #14, #161, #135, .T. ) ;
#285 = ORIENTED_EDGE ( 'NONE', *, *, #253, .F. ) ;
#286 = CARTESIAN_POINT ( 'NONE',  ( 0.0000000000000000000, 0.0000000000000000000, 1.500000000000000222 ) ) ;
#287 = EDGE_LOOP ( 'NONE', ( #165, #146, #236, #279 ) ) ;
#288 = MECHANICAL_DESIGN_GEOMETRIC_PRESENTATION_REPRESENTATION (  '', ( #208 ), #255 ) ;
#289 = DIRECTION ( 'NONE',  ( 0.0000000000000000000, 0.0000000000000000000, 1.000000000000000000 ) ) ;
#290 = ORIENTED_EDGE ( 'NONE', *, *, #184, .F. ) ;
#291 = EDGE_CURVE ( 'NONE', #232, #80, #43, .T. ) ;
#292 = DIRECTION ( 'NONE',  ( 1.000000000000000000, 0.0000000000000000000, 0.0000000000000000000 ) ) ;
#293 = PRODUCT_DEFINITION_SHAPE ( 'NONE', 'NONE',  #84 ) ;
#294 = VECTOR ( 'NONE', #167, 39.37007874015748143 ) ;
#295 = CARTESIAN_POINT ( 'NONE',  ( 4.592425496802576684E-17, 0.0000000000000000000, 0.3750000000000000555 ) ) ;
#296 = AXIS2_PLACEMENT_3D ( 'NONE', #153, #172, #60 ) ;
#297 = DIRECTION ( 'NONE',  ( 1.000000000000000000, 0.0000000000000000000, 0.0000000000000000000 ) ) ;
#298 =( NAMED_UNIT ( * ) PLANE_ANGLE_UNIT ( ) SI_UNIT ( $, .RADIAN. ) );
#299 = DIRECTION ( 'NONE',  ( 0.7071067811865462405, 8.659560562354916834E-17, -0.7071067811865486830 ) ) ;
ENDSEC;
END-ISO-10303-21;
