ISO-10303-21;
HEADER;
FILE_DESCRIPTION (( 'STEP AP214' ),
    '1' );
FILE_NAME ('83806.STEP',
    '2023-07-05T16:09:01',
    ( '' ),
    ( '' ),
    'SwSTEP 2.0',
    'SolidWorks 2023',
    '' );
FILE_SCHEMA (( 'AUTOMOTIVE_DESIGN' ));
ENDSEC;

DATA;
#1 = FACE_OUTER_BOUND ( 'NONE', #193, .T. ) ;
#2 =( NAMED_UNIT ( * ) PLANE_ANGLE_UNIT ( ) SI_UNIT ( $, .RADIAN. ) );
#3 = DIRECTION ( 'NONE',  ( 1.228345323885430886E-16, -1.000000000000000000, 0.000000000000000000 ) ) ;
#4 = CARTESIAN_POINT ( 'NONE',  ( -6.123233995736766036E-17, 2.500000000000000000, 0.000000000000000000 ) ) ;
#5 = ADVANCED_FACE ( 'NONE', ( #93 ), #238, .F. ) ;
#6 = DIRECTION ( 'NONE',  ( -1.000000000000000000, 6.296165443231976466E-18, 0.000000000000000000 ) ) ;
#7 = UNCERTAINTY_MEASURE_WITH_UNIT (LENGTH_MEASURE( 1.000000000000000082E-05 ), #221, 'distance_accuracy_value', 'NONE');
#8 = FILL_AREA_STYLE_COLOUR ( '', #100 ) ;
#9 = APPLICATION_CONTEXT ( 'automotive_design' ) ;
#10 = CYLINDRICAL_SURFACE ( 'NONE', #85, 0.1249999999999999029 ) ;
#11 = DIMENSIONAL_EXPONENTS ( 1.000000000000000000, 0.000000000000000000, 0.000000000000000000, 0.000000000000000000, 0.000000000000000000, 0.000000000000000000, 0.000000000000000000 ) ;
#12 = LINE ( 'NONE', #37, #176 ) ;
#13 = ORIENTED_EDGE ( 'NONE', *, *, #183, .F. ) ;
#14 = PRESENTATION_STYLE_ASSIGNMENT (( #192 ) ) ;
#15 = CARTESIAN_POINT ( 'NONE',  ( -0.1249999999999995143, 0.1249999999999996114, 0.000000000000000000 ) ) ;
#16 = SURFACE_SIDE_STYLE ('',( #195 ) ) ;
#17 = AXIS2_PLACEMENT_3D ( 'NONE', #4, #78, #62 ) ;
#18 = FILL_AREA_STYLE_COLOUR ( '', #205 ) ;
#19 = DIRECTION ( 'NONE',  ( -6.296165443231977236E-18, -1.000000000000000000, -0.000000000000000000 ) ) ;
#20 =( NAMED_UNIT ( * ) SI_UNIT ( $, .STERADIAN. ) SOLID_ANGLE_UNIT ( ) );
#21 = CYLINDRICAL_SURFACE ( 'NONE', #188, 0.1249999999999999029 ) ;
#22 = PRODUCT_DEFINITION_SHAPE ( 'NONE', 'NONE',  #154 ) ;
#23 = FACE_OUTER_BOUND ( 'NONE', #212, .T. ) ;
#24 = CARTESIAN_POINT ( 'NONE',  ( -6.123233995736766036E-17, 2.500000000000000000, 0.000000000000000000 ) ) ;
#25 =( LENGTH_UNIT ( ) NAMED_UNIT ( * ) SI_UNIT ( $, .METRE. ) );
#26 = COLOUR_RGB ( '',1.000000000000000000, 0.000000000000000000, 0.000000000000000000 ) ;
#27 = AXIS2_PLACEMENT_3D ( 'NONE', #189, #239, #144 ) ;
#28 = PRESENTATION_STYLE_ASSIGNMENT (( #206 ) ) ;
#29 = EDGE_CURVE ( 'NONE', #256, #49, #75, .T. ) ;
#30 =( GEOMETRIC_REPRESENTATION_CONTEXT ( 3 ) GLOBAL_UNCERTAINTY_ASSIGNED_CONTEXT ( ( #36 ) ) GLOBAL_UNIT_ASSIGNED_CONTEXT ( ( #204, #180, #194 ) ) REPRESENTATION_CONTEXT ( 'NONE', 'WORKASPACE' ) );
#31 = ORIENTED_EDGE ( 'NONE', *, *, #236, .T. ) ;
#32 = ORIENTED_EDGE ( 'NONE', *, *, #236, .F. ) ;
#33 = AXIS2_PLACEMENT_3D ( 'NONE', #72, #152, #240 ) ;
#34 = PRESENTATION_LAYER_ASSIGNMENT (  '', '', ( #251 ) ) ;
#35 = VERTEX_POINT ( 'NONE', #143 ) ;
#36 = UNCERTAINTY_MEASURE_WITH_UNIT (LENGTH_MEASURE( 1.000000000000000082E-05 ), #204, 'distance_accuracy_value', 'NONE');
#37 = CARTESIAN_POINT ( 'NONE',  ( 0.1249999999999998335, 2.500000000000000000, 1.530808498934190276E-17 ) ) ;
#38 = SURFACE_STYLE_USAGE ( .BOTH. , #86 ) ;
#39 = ORIENTED_EDGE ( 'NONE', *, *, #191, .T. ) ;
#40 = DIRECTION ( 'NONE',  ( 6.296165443231977236E-18, 1.000000000000000000, 0.000000000000000000 ) ) ;
#41 = LENGTH_MEASURE_WITH_UNIT ( LENGTH_MEASURE( 0.02539999999999999897 ), #164 );
#42 = SURFACE_STYLE_USAGE ( .BOTH. , #156 ) ;
#43 = CARTESIAN_POINT ( 'NONE',  ( 2.304996744654222029E-16, 0.1249999999999996253, 0.000000000000000000 ) ) ;
#44 = FILL_AREA_STYLE_COLOUR ( '', #50 ) ;
#45 = DIRECTION ( 'NONE',  ( -1.228345323885430886E-16, 1.000000000000000000, -0.000000000000000000 ) ) ;
#46 = CARTESIAN_POINT ( 'NONE',  ( -0.1250000000000001110, 2.500000000000000000, 0.000000000000000000 ) ) ;
#47 = LENGTH_MEASURE_WITH_UNIT ( LENGTH_MEASURE( 0.02539999999999999897 ), #211 );
#48 = CARTESIAN_POINT ( 'NONE',  ( 0.000000000000000000, 0.000000000000000000, 0.000000000000000000 ) ) ;
#49 = VERTEX_POINT ( 'NONE', #196 ) ;
#50 = COLOUR_RGB ( '',1.000000000000000000, 0.000000000000000000, 0.000000000000000000 ) ;
#51 = SURFACE_STYLE_FILL_AREA ( #128 ) ;
#52 = DIRECTION ( 'NONE',  ( -1.000000000000000000, 0.000000000000000000, 0.000000000000000000 ) ) ;
#53 = CARTESIAN_POINT ( 'NONE',  ( -0.1249999999999999584, 2.500000000000000000, 0.000000000000000000 ) ) ;
#54 =( CONVERSION_BASED_UNIT ( 'INCH', #222 ) LENGTH_UNIT ( ) NAMED_UNIT ( #11 ) );
#55 = DIRECTION ( 'NONE',  ( -1.228345323885430886E-16, 1.000000000000000000, -0.000000000000000000 ) ) ;
#56 =( NAMED_UNIT ( * ) PLANE_ANGLE_UNIT ( ) SI_UNIT ( $, .RADIAN. ) );
#57 = AXIS2_PLACEMENT_3D ( 'NONE', #161, #74, #264 ) ;
#58 = CONICAL_SURFACE ( 'NONE', #119, 39.37007874015762354, 0.7853981633974500554 ) ;
#59 = ADVANCED_FACE ( 'NONE', ( #105 ), #10, .T. ) ;
#60 = CLOSED_SHELL ( 'NONE', ( #228, #5, #59, #135 ) ) ;
#61 = CIRCLE ( 'NONE', #57, 0.1249999999999997641 ) ;
#62 = DIRECTION ( 'NONE',  ( -1.000000000000000000, 0.000000000000000000, 0.000000000000000000 ) ) ;
#63 = DIMENSIONAL_EXPONENTS ( 1.000000000000000000, 0.000000000000000000, 0.000000000000000000, 0.000000000000000000, 0.000000000000000000, 0.000000000000000000, 0.000000000000000000 ) ;
#64 = VERTEX_POINT ( 'NONE', #46 ) ;
#65 = VECTOR ( 'NONE', #241, 39.37007874015748143 ) ;
#66 = VERTEX_POINT ( 'NONE', #15 ) ;
#67 = ORIENTED_EDGE ( 'NONE', *, *, #165, .T. ) ;
#68 = EDGE_LOOP ( 'NONE', ( #32, #84 ) ) ;
#69 = CIRCLE ( 'NONE', #226, 0.1249999999999997641 ) ;
#70 = DIRECTION ( 'NONE',  ( -1.000000000000000000, -1.228345323885430886E-16, 0.000000000000000000 ) ) ;
#71 = FACE_OUTER_BOUND ( 'NONE', #258, .T. ) ;
#72 = CARTESIAN_POINT ( 'NONE',  ( 0.000000000000000000, 0.000000000000000000, 0.000000000000000000 ) ) ;
#73 = CIRCLE ( 'NONE', #237, 0.1249999999999999861 ) ;
#74 = DIRECTION ( 'NONE',  ( -1.228345323885430886E-16, 1.000000000000000000, -0.000000000000000000 ) ) ;
#75 = CIRCLE ( 'NONE', #27, 0.1249999999999999861 ) ;
#76 = PRESENTATION_LAYER_ASSIGNMENT (  '', '', ( #247 ) ) ;
#77 = LENGTH_MEASURE_WITH_UNIT ( LENGTH_MEASURE( 0.02539999999999999897 ), #25 );
#78 = DIRECTION ( 'NONE',  ( -1.228345323885430886E-16, 1.000000000000000000, -0.000000000000000000 ) ) ;
#79 = AXIS2_PLACEMENT_3D ( 'NONE', #106, #255, #70 ) ;
#80 = CIRCLE ( 'NONE', #209, 0.1250000000000000555 ) ;
#81 =( LENGTH_UNIT ( ) NAMED_UNIT ( * ) SI_UNIT ( $, .METRE. ) );
#82 = DIMENSIONAL_EXPONENTS ( 1.000000000000000000, 0.000000000000000000, 0.000000000000000000, 0.000000000000000000, 0.000000000000000000, 0.000000000000000000, 0.000000000000000000 ) ;
#83 = PRESENTATION_LAYER_ASSIGNMENT (  '', '', ( #243 ) ) ;
#84 = ORIENTED_EDGE ( 'NONE', *, *, #29, .F. ) ;
#85 = AXIS2_PLACEMENT_3D ( 'NONE', #87, #163, #52 ) ;
#86 = SURFACE_SIDE_STYLE ('',( #51 ) ) ;
#87 = CARTESIAN_POINT ( 'NONE',  ( -6.123233995736766036E-17, 2.500000000000000000, 0.000000000000000000 ) ) ;
#88 = ORIENTED_EDGE ( 'NONE', *, *, #191, .F. ) ;
#89 = MECHANICAL_DESIGN_GEOMETRIC_PRESENTATION_REPRESENTATION (  '', ( #248 ), #181 ) ;
#90 = MECHANICAL_DESIGN_GEOMETRIC_PRESENTATION_REPRESENTATION (  '', ( #214 ), #130 ) ;
#91 = LINE ( 'NONE', #173, #184 ) ;
#92 = SURFACE_STYLE_USAGE ( .BOTH. , #16 ) ;
#93 = FACE_OUTER_BOUND ( 'NONE', #126, .T. ) ;
#94 =( NAMED_UNIT ( * ) PLANE_ANGLE_UNIT ( ) SI_UNIT ( $, .RADIAN. ) );
#95 = PRESENTATION_STYLE_ASSIGNMENT (( #92 ) ) ;
#96 = DIRECTION ( 'NONE',  ( -1.000000000000000000, 0.000000000000000000, 0.000000000000000000 ) ) ;
#97 = SURFACE_STYLE_FILL_AREA ( #172 ) ;
#98 = DIRECTION ( 'NONE',  ( 1.000000000000000000, 1.228345323885430886E-16, 0.000000000000000000 ) ) ;
#99 = MANIFOLD_SOLID_BREP ( 'Revolve - Cutting Edge', #253 ) ;
#100 = COLOUR_RGB ( '',0.7921568627450980005, 0.8196078431372548767, 0.9333333333333333481 ) ;
#101 = ADVANCED_FACE ( 'NONE', ( #102 ), #58, .T. ) ;
#102 = FACE_OUTER_BOUND ( 'NONE', #171, .T. ) ;
#103 = EDGE_CURVE ( 'NONE', #66, #64, #224, .T. ) ;
#104 = DIMENSIONAL_EXPONENTS ( 1.000000000000000000, 0.000000000000000000, 0.000000000000000000, 0.000000000000000000, 0.000000000000000000, 0.000000000000000000, 0.000000000000000000 ) ;
#105 = FACE_OUTER_BOUND ( 'NONE', #108, .T. ) ;
#106 = CARTESIAN_POINT ( 'NONE',  ( 2.304996744654222029E-16, 0.1249999999999995559, 0.000000000000000000 ) ) ;
#107 = ORIENTED_EDGE ( 'NONE', *, *, #249, .F. ) ;
#108 = EDGE_LOOP ( 'NONE', ( #13, #39, #217, #187 ) ) ;
#109 = DIRECTION ( 'NONE',  ( -1.000000000000000000, -1.365923996832134074E-16, 0.000000000000000000 ) ) ;
#110 = ORIENTED_EDGE ( 'NONE', *, *, #103, .F. ) ;
#111 = COLOUR_RGB ( '',1.000000000000000000, 0.000000000000000000, 0.000000000000000000 ) ;
#112 =( LENGTH_UNIT ( ) NAMED_UNIT ( * ) SI_UNIT ( $, .METRE. ) );
#113 = FACE_OUTER_BOUND ( 'NONE', #68, .T. ) ;
#114 = CARTESIAN_POINT ( 'NONE',  ( 7.870206804039943619E-19, 0.1249999999999995559, 0.000000000000000000 ) ) ;
#115 = FILL_AREA_STYLE ('',( #44 ) ) ;
#116 = DIRECTION ( 'NONE',  ( -1.000000000000000000, 0.000000000000000000, 0.000000000000000000 ) ) ;
#117 = PRODUCT_RELATED_PRODUCT_CATEGORY ( 'part', '', ( #216 ) ) ;
#118 = SURFACE_STYLE_FILL_AREA ( #137 ) ;
#119 = AXIS2_PLACEMENT_3D ( 'NONE', #139, #40, #244 ) ;
#120 = CARTESIAN_POINT ( 'NONE',  ( 7.870206804039943619E-19, 0.1249999999999995559, 0.000000000000000000 ) ) ;
#121 = AXIS2_PLACEMENT_3D ( 'NONE', #202, #134, #227 ) ;
#122 = FILL_AREA_STYLE_COLOUR ( '', #26 ) ;
#123 = ORIENTED_EDGE ( 'NONE', *, *, #260, .T. ) ;
#124 = ORIENTED_EDGE ( 'NONE', *, *, #199, .T. ) ;
#125 =( GEOMETRIC_REPRESENTATION_CONTEXT ( 3 ) GLOBAL_UNCERTAINTY_ASSIGNED_CONTEXT ( ( #160 ) ) GLOBAL_UNIT_ASSIGNED_CONTEXT ( ( #145, #56, #20 ) ) REPRESENTATION_CONTEXT ( 'NONE', 'WORKASPACE' ) );
#126 = EDGE_LOOP ( 'NONE', ( #233, #88 ) ) ;
#127 = DIMENSIONAL_EXPONENTS ( 1.000000000000000000, 0.000000000000000000, 0.000000000000000000, 0.000000000000000000, 0.000000000000000000, 0.000000000000000000, 0.000000000000000000 ) ;
#128 = FILL_AREA_STYLE ('',( #18 ) ) ;
#129 = PLANE ( 'NONE',  #147 ) ;
#130 =( GEOMETRIC_REPRESENTATION_CONTEXT ( 3 ) GLOBAL_UNCERTAINTY_ASSIGNED_CONTEXT ( ( #7 ) ) GLOBAL_UNIT_ASSIGNED_CONTEXT ( ( #221, #94, #225 ) ) REPRESENTATION_CONTEXT ( 'NONE', 'WORKASPACE' ) );
#131 = APPLICATION_PROTOCOL_DEFINITION ( 'draft international standard', 'automotive_design', 1998, #208 ) ;
#132 =( NAMED_UNIT ( * ) SI_UNIT ( $, .STERADIAN. ) SOLID_ANGLE_UNIT ( ) );
#133 = PLANE ( 'NONE',  #203 ) ;
#134 = DIRECTION ( 'NONE',  ( 6.296165443231977236E-18, 1.000000000000000000, 0.000000000000000000 ) ) ;
#135 = ADVANCED_FACE ( 'NONE', ( #71 ), #129, .F. ) ;
#136 =( NAMED_UNIT ( * ) SI_UNIT ( $, .STERADIAN. ) SOLID_ANGLE_UNIT ( ) );
#137 = FILL_AREA_STYLE ('',( #122 ) ) ;
#138 = ADVANCED_FACE ( 'NONE', ( #23 ), #141, .T. ) ;
#139 = CARTESIAN_POINT ( 'NONE',  ( 2.478805292611014523E-16, 39.37007874015748143, 0.000000000000000000 ) ) ;
#140 = ADVANCED_BREP_SHAPE_REPRESENTATION ( '83806', ( #99, #186, #33 ), #30 ) ;
#141 = CONICAL_SURFACE ( 'NONE', #121, 39.37007874015762354, 0.7853981633974500554 ) ;
#142 = SURFACE_STYLE_FILL_AREA ( #257 ) ;
#143 = CARTESIAN_POINT ( 'NONE',  ( 0.1249999999999999861, 2.500000000000000000, 1.530808498934191201E-17 ) ) ;
#144 = DIRECTION ( 'NONE',  ( 1.000000000000000000, 0.000000000000000000, 0.000000000000000000 ) ) ;
#145 =( CONVERSION_BASED_UNIT ( 'INCH', #162 ) LENGTH_UNIT ( ) NAMED_UNIT ( #63 ) );
#146 = ORIENTED_EDGE ( 'NONE', *, *, #183, .T. ) ;
#147 = AXIS2_PLACEMENT_3D ( 'NONE', #179, #3, #98 ) ;
#148 = ADVANCED_FACE ( 'NONE', ( #113 ), #133, .T. ) ;
#149 = VERTEX_POINT ( 'NONE', #231 ) ;
#150 = APPLICATION_PROTOCOL_DEFINITION ( 'draft international standard', 'automotive_design', 1998, #9 ) ;
#151 =( NAMED_UNIT ( * ) SI_UNIT ( $, .STERADIAN. ) SOLID_ANGLE_UNIT ( ) );
#152 = DIRECTION ( 'NONE',  ( 0.000000000000000000, 0.000000000000000000, 1.000000000000000000 ) ) ;
#153 = MECHANICAL_DESIGN_GEOMETRIC_PRESENTATION_REPRESENTATION (  '', ( #251 ), #125 ) ;
#154 = PRODUCT_DEFINITION ( 'UNKNOWN', '', #175, #177 ) ;
#155 = DIRECTION ( 'NONE',  ( -1.228345323885430886E-16, 1.000000000000000000, -0.000000000000000000 ) ) ;
#156 = SURFACE_SIDE_STYLE ('',( #97 ) ) ;
#157 = EDGE_CURVE ( 'NONE', #35, #64, #168, .T. ) ;
#158 =( NAMED_UNIT ( * ) PLANE_ANGLE_UNIT ( ) SI_UNIT ( $, .RADIAN. ) );
#159 =( CONVERSION_BASED_UNIT ( 'INCH', #47 ) LENGTH_UNIT ( ) NAMED_UNIT ( #127 ) );
#160 = UNCERTAINTY_MEASURE_WITH_UNIT (LENGTH_MEASURE( 1.000000000000000082E-05 ), #145, 'distance_accuracy_value', 'NONE');
#161 = CARTESIAN_POINT ( 'NONE',  ( 2.304996744654222029E-16, 0.1249999999999996253, 0.000000000000000000 ) ) ;
#162 = LENGTH_MEASURE_WITH_UNIT ( LENGTH_MEASURE( 0.02539999999999999897 ), #81 );
#163 = DIRECTION ( 'NONE',  ( -1.228345323885430886E-16, 1.000000000000000000, -0.000000000000000000 ) ) ;
#164 =( LENGTH_UNIT ( ) NAMED_UNIT ( * ) SI_UNIT ( $, .METRE. ) );
#165 = EDGE_CURVE ( 'NONE', #235, #49, #207, .T. ) ;
#166 = MECHANICAL_DESIGN_GEOMETRIC_PRESENTATION_REPRESENTATION (  '', ( #247 ), #210 ) ;
#167 = ORIENTED_EDGE ( 'NONE', *, *, #157, .T. ) ;
#168 = CIRCLE ( 'NONE', #17, 0.1250000000000000555 ) ;
#169 = DIMENSIONAL_EXPONENTS ( 1.000000000000000000, 0.000000000000000000, 0.000000000000000000, 0.000000000000000000, 0.000000000000000000, 0.000000000000000000, 0.000000000000000000 ) ;
#170 = PRODUCT_CONTEXT ( 'NONE', #208, 'mechanical' ) ;
#171 = EDGE_LOOP ( 'NONE', ( #107, #67, #31 ) ) ;
#172 = FILL_AREA_STYLE ('',( #265 ) ) ;
#173 = CARTESIAN_POINT ( 'NONE',  ( 0.000000000000000000, 0.000000000000000000, 0.000000000000000000 ) ) ;
#174 = PRESENTATION_STYLE_ASSIGNMENT (( #42 ) ) ;
#175 = PRODUCT_DEFINITION_FORMATION_WITH_SPECIFIED_SOURCE ( 'ANY', '', #216, .NOT_KNOWN. ) ;
#176 = VECTOR ( 'NONE', #45, 39.37007874015748143 ) ;
#177 = PRODUCT_DEFINITION_CONTEXT ( 'detailed design', #9, 'design' ) ;
#178 = CARTESIAN_POINT ( 'NONE',  ( 0.000000000000000000, 0.000000000000000000, 0.000000000000000000 ) ) ;
#179 = CARTESIAN_POINT ( 'NONE',  ( 0.1249999999999999861, 2.500000000000000000, 0.000000000000000000 ) ) ;
#180 =( NAMED_UNIT ( * ) PLANE_ANGLE_UNIT ( ) SI_UNIT ( $, .RADIAN. ) );
#181 =( GEOMETRIC_REPRESENTATION_CONTEXT ( 3 ) GLOBAL_UNCERTAINTY_ASSIGNED_CONTEXT ( ( #252 ) ) GLOBAL_UNIT_ASSIGNED_CONTEXT ( ( #250, #158, #136 ) ) REPRESENTATION_CONTEXT ( 'NONE', 'WORKASPACE' ) );
#182 = DIRECTION ( 'NONE',  ( 6.296165443231976466E-18, 1.000000000000000000, 0.000000000000000000 ) ) ;
#183 = EDGE_CURVE ( 'NONE', #149, #35, #12, .T. ) ;
#184 = VECTOR ( 'NONE', #219, 39.37007874015748854 ) ;
#185 = UNCERTAINTY_MEASURE_WITH_UNIT (LENGTH_MEASURE( 1.000000000000000082E-05 ), #159, 'distance_accuracy_value', 'NONE');
#186 = MANIFOLD_SOLID_BREP ( 'Revolve - Tool Body (Pointed)', #60 ) ;
#187 = ORIENTED_EDGE ( 'NONE', *, *, #157, .F. ) ;
#188 = AXIS2_PLACEMENT_3D ( 'NONE', #245, #262, #96 ) ;
#189 = CARTESIAN_POINT ( 'NONE',  ( 7.870206804039943619E-19, 0.1249999999999995559, 0.000000000000000000 ) ) ;
#190 = ORIENTED_EDGE ( 'NONE', *, *, #199, .F. ) ;
#191 = EDGE_CURVE ( 'NONE', #149, #66, #61, .T. ) ;
#192 = SURFACE_STYLE_USAGE ( .BOTH. , #234 ) ;
#193 = EDGE_LOOP ( 'NONE', ( #123, #146, #190, #110 ) ) ;
#194 =( NAMED_UNIT ( * ) SI_UNIT ( $, .STERADIAN. ) SOLID_ANGLE_UNIT ( ) );
#195 = SURFACE_STYLE_FILL_AREA ( #115 ) ;
#196 = CARTESIAN_POINT ( 'NONE',  ( -0.1249999999999999861, 0.1249999999999995559, 0.000000000000000000 ) ) ;
#197 = VECTOR ( 'NONE', #213, 39.37007874015748854 ) ;
#198 =( LENGTH_UNIT ( ) NAMED_UNIT ( * ) SI_UNIT ( $, .METRE. ) );
#199 = EDGE_CURVE ( 'NONE', #64, #35, #80, .T. ) ;
#200 = CARTESIAN_POINT ( 'NONE',  ( 0.1249999999999999861, 0.1249999999999995559, 1.530808498934191509E-17 ) ) ;
#201 = LENGTH_MEASURE_WITH_UNIT ( LENGTH_MEASURE( 0.02539999999999999897 ), #112 );
#202 = CARTESIAN_POINT ( 'NONE',  ( 2.478805292611014523E-16, 39.37007874015748143, 0.000000000000000000 ) ) ;
#203 = AXIS2_PLACEMENT_3D ( 'NONE', #120, #182, #6 ) ;
#204 =( CONVERSION_BASED_UNIT ( 'INCH', #201 ) LENGTH_UNIT ( ) NAMED_UNIT ( #104 ) );
#205 = COLOUR_RGB ( '',0.7921568627450980005, 0.8196078431372548767, 0.9333333333333333481 ) ;
#206 = SURFACE_STYLE_USAGE ( .BOTH. , #230 ) ;
#207 = LINE ( 'NONE', #48, #197 ) ;
#208 = APPLICATION_CONTEXT ( 'automotive_design' ) ;
#209 = AXIS2_PLACEMENT_3D ( 'NONE', #24, #155, #116 ) ;
#210 =( GEOMETRIC_REPRESENTATION_CONTEXT ( 3 ) GLOBAL_UNCERTAINTY_ASSIGNED_CONTEXT ( ( #259 ) ) GLOBAL_UNIT_ASSIGNED_CONTEXT ( ( #54, #246, #132 ) ) REPRESENTATION_CONTEXT ( 'NONE', 'WORKASPACE' ) );
#211 =( LENGTH_UNIT ( ) NAMED_UNIT ( * ) SI_UNIT ( $, .METRE. ) );
#212 = EDGE_LOOP ( 'NONE', ( #261, #263, #215 ) ) ;
#213 = DIRECTION ( 'NONE',  ( -0.7071067811865486830, 0.7071067811865462405, 0.000000000000000000 ) ) ;
#214 = STYLED_ITEM ( 'NONE', ( #14 ), #186 ) ;
#215 = ORIENTED_EDGE ( 'NONE', *, *, #29, .T. ) ;
#216 = PRODUCT ( '83806', '83806', '', ( #170 ) ) ;
#217 = ORIENTED_EDGE ( 'NONE', *, *, #103, .T. ) ;
#218 = PRESENTATION_STYLE_ASSIGNMENT (( #38 ) ) ;
#219 = DIRECTION ( 'NONE',  ( 0.7071067811865486830, 0.7071067811865462405, 8.659560562354947649E-17 ) ) ;
#220 = PRESENTATION_LAYER_ASSIGNMENT (  '', '', ( #248 ) ) ;
#221 =( CONVERSION_BASED_UNIT ( 'INCH', #41 ) LENGTH_UNIT ( ) NAMED_UNIT ( #169 ) );
#222 = LENGTH_MEASURE_WITH_UNIT ( LENGTH_MEASURE( 0.02539999999999999897 ), #198 );
#223 = DIRECTION ( 'NONE',  ( 1.000000000000000000, 0.000000000000000000, 0.000000000000000000 ) ) ;
#224 = LINE ( 'NONE', #53, #65 ) ;
#225 =( NAMED_UNIT ( * ) SI_UNIT ( $, .STERADIAN. ) SOLID_ANGLE_UNIT ( ) );
#226 = AXIS2_PLACEMENT_3D ( 'NONE', #43, #55, #109 ) ;
#227 = DIRECTION ( 'NONE',  ( -1.000000000000000000, 0.000000000000000000, 0.000000000000000000 ) ) ;
#228 = ADVANCED_FACE ( 'NONE', ( #1 ), #21, .T. ) ;
#229 = SHAPE_DEFINITION_REPRESENTATION ( #22, #140 ) ;
#230 = SURFACE_SIDE_STYLE ('',( #118 ) ) ;
#231 = CARTESIAN_POINT ( 'NONE',  ( 0.1249999999999999584, 0.1249999999999996392, 1.530808498934190893E-17 ) ) ;
#232 =( GEOMETRIC_REPRESENTATION_CONTEXT ( 3 ) GLOBAL_UNCERTAINTY_ASSIGNED_CONTEXT ( ( #185 ) ) GLOBAL_UNIT_ASSIGNED_CONTEXT ( ( #159, #2, #151 ) ) REPRESENTATION_CONTEXT ( 'NONE', 'WORKASPACE' ) );
#233 = ORIENTED_EDGE ( 'NONE', *, *, #260, .F. ) ;
#234 = SURFACE_SIDE_STYLE ('',( #142 ) ) ;
#235 = VERTEX_POINT ( 'NONE', #178 ) ;
#236 = EDGE_CURVE ( 'NONE', #49, #256, #73, .T. ) ;
#237 = AXIS2_PLACEMENT_3D ( 'NONE', #114, #19, #223 ) ;
#238 = PLANE ( 'NONE',  #79 ) ;
#239 = DIRECTION ( 'NONE',  ( -6.296165443231977236E-18, -1.000000000000000000, -0.000000000000000000 ) ) ;
#240 = DIRECTION ( 'NONE',  ( 1.000000000000000000, 0.000000000000000000, 0.000000000000000000 ) ) ;
#241 = DIRECTION ( 'NONE',  ( -1.228345323885430886E-16, 1.000000000000000000, -0.000000000000000000 ) ) ;
#242 = MECHANICAL_DESIGN_GEOMETRIC_PRESENTATION_REPRESENTATION (  '', ( #243 ), #232 ) ;
#243 = STYLED_ITEM ( 'NONE', ( #218 ), #99 ) ;
#244 = DIRECTION ( 'NONE',  ( -1.000000000000000000, 0.000000000000000000, 0.000000000000000000 ) ) ;
#245 = CARTESIAN_POINT ( 'NONE',  ( -6.123233995736766036E-17, 2.500000000000000000, 0.000000000000000000 ) ) ;
#246 =( NAMED_UNIT ( * ) PLANE_ANGLE_UNIT ( ) SI_UNIT ( $, .RADIAN. ) );
#247 = STYLED_ITEM ( 'NONE', ( #174 ), #138 ) ;
#248 = STYLED_ITEM ( 'NONE', ( #95 ), #148 ) ;
#249 = EDGE_CURVE ( 'NONE', #235, #256, #91, .T. ) ;
#250 =( CONVERSION_BASED_UNIT ( 'INCH', #77 ) LENGTH_UNIT ( ) NAMED_UNIT ( #82 ) );
#251 = STYLED_ITEM ( 'NONE', ( #28 ), #101 ) ;
#252 = UNCERTAINTY_MEASURE_WITH_UNIT (LENGTH_MEASURE( 1.000000000000000082E-05 ), #250, 'distance_accuracy_value', 'NONE');
#253 = CLOSED_SHELL ( 'NONE', ( #138, #148, #101 ) ) ;
#254 = PRESENTATION_LAYER_ASSIGNMENT (  '', '', ( #214 ) ) ;
#255 = DIRECTION ( 'NONE',  ( -1.228345323885430886E-16, 1.000000000000000000, 0.000000000000000000 ) ) ;
#256 = VERTEX_POINT ( 'NONE', #200 ) ;
#257 = FILL_AREA_STYLE ('',( #8 ) ) ;
#258 = EDGE_LOOP ( 'NONE', ( #124, #167 ) ) ;
#259 = UNCERTAINTY_MEASURE_WITH_UNIT (LENGTH_MEASURE( 1.000000000000000082E-05 ), #54, 'distance_accuracy_value', 'NONE');
#260 = EDGE_CURVE ( 'NONE', #66, #149, #69, .T. ) ;
#261 = ORIENTED_EDGE ( 'NONE', *, *, #165, .F. ) ;
#262 = DIRECTION ( 'NONE',  ( -1.228345323885430886E-16, 1.000000000000000000, -0.000000000000000000 ) ) ;
#263 = ORIENTED_EDGE ( 'NONE', *, *, #249, .T. ) ;
#264 = DIRECTION ( 'NONE',  ( -1.000000000000000000, -1.365923996832134074E-16, 0.000000000000000000 ) ) ;
#265 = FILL_AREA_STYLE_COLOUR ( '', #111 ) ;
ENDSEC;
END-ISO-10303-21;
