ISO-10303-21;
HEADER;
FILE_DESCRIPTION (( 'STEP AP214' ),
    '1' );
FILE_NAME ('Micro_AEMM-080-4.STEP',
    '2022-03-15T14:29:23',
    ( '' ),
    ( '' ),
    'SwSTEP 2.0',
    'SolidWorks 2022',
    '' );
FILE_SCHEMA (( 'AUTOMOTIVE_DESIGN' ));
ENDSEC;

DATA;
#1 = LINE ( 'NONE', #271, #285 ) ;
#2 = CONICAL_SURFACE ( 'NONE', #70, 0.1573230195000000220, 0.1745329251994338360 ) ;
#3 = EDGE_CURVE ( 'NONE', #197, #46, #20, .T. ) ;
#4 = EDGE_CURVE ( 'NONE', #181, #27, #28, .T. ) ;
#5 = LINE ( 'NONE', #277, #188 ) ;
#6 = CARTESIAN_POINT ( 'NONE',  ( 0.1574804999999999955, 1.928579902531247412E-17, 2.480315000000000047 ) ) ;
#7 =( GEOMETRIC_REPRESENTATION_CONTEXT ( 3 ) GLOBAL_UNCERTAINTY_ASSIGNED_CONTEXT ( ( #194 ) ) GLOBAL_UNIT_ASSIGNED_CONTEXT ( ( #254, #213, #169 ) ) REPRESENTATION_CONTEXT ( 'NONE', 'WORKASPACE' ) );
#8 = EDGE_CURVE ( 'NONE', #181, #162, #59, .T. ) ;
#9 = CARTESIAN_POINT ( 'NONE',  ( 2.359467375330272285E-33, 0.000000000000000000, 1.926651322628716627E-17 ) ) ;
#10 = PRODUCT_DEFINITION_CONTEXT ( 'detailed design', #172, 'design' ) ;
#11 = ORIENTED_EDGE ( 'NONE', *, *, #39, .F. ) ;
#12 = VERTEX_POINT ( 'NONE', #192 ) ;
#13 = PRESENTATION_LAYER_ASSIGNMENT (  '', '', ( #44 ) ) ;
#14 = EDGE_LOOP ( 'NONE', ( #108, #294, #263, #219 ) ) ;
#15 = VERTEX_POINT ( 'NONE', #106 ) ;
#16 = FACE_OUTER_BOUND ( 'NONE', #195, .T. ) ;
#17 = DIRECTION ( 'NONE',  ( 0.000000000000000000, 0.000000000000000000, 1.000000000000000000 ) ) ;
#18 = DIMENSIONAL_EXPONENTS ( 1.000000000000000000, 0.000000000000000000, 0.000000000000000000, 0.000000000000000000, 0.000000000000000000, 0.000000000000000000, 0.000000000000000000 ) ;
#19 = ADVANCED_FACE ( 'NONE', ( #282 ), #117, .T. ) ;
#20 = CIRCLE ( 'NONE', #216, 0.1574804999999999955 ) ;
#21 = CARTESIAN_POINT ( 'NONE',  ( 1.060718027907086782E-16, 0.000000000000000000, 0.8661419999999999675 ) ) ;
#22 = CIRCLE ( 'NONE', #118, 0.1573230195000000220 ) ;
#23 = FACE_OUTER_BOUND ( 'NONE', #262, .T. ) ;
#24 =( LENGTH_UNIT ( ) NAMED_UNIT ( * ) SI_UNIT ( $, .METRE. ) );
#25 = EDGE_CURVE ( 'NONE', #12, #197, #5, .T. ) ;
#26 = CARTESIAN_POINT ( 'NONE',  ( -0.1424804999999990940, 0.000000000000000000, 2.480315000000000047 ) ) ;
#27 = VERTEX_POINT ( 'NONE', #231 ) ;
#28 = CIRCLE ( 'NONE', #36, 0.1573230195000000220 ) ;
#29 = CYLINDRICAL_SURFACE ( 'NONE', #85, 0.1573230195000000220 ) ;
#30 = ADVANCED_FACE ( 'NONE', ( #86 ), #293, .T. ) ;
#31 = DIRECTION ( 'NONE',  ( 0.000000000000000000, 0.000000000000000000, -1.000000000000000000 ) ) ;
#32 = DIRECTION ( 'NONE',  ( -0.000000000000000000, -0.000000000000000000, -1.000000000000000000 ) ) ;
#33 = DIRECTION ( 'NONE',  ( 1.000000000000000000, 0.000000000000000000, 0.000000000000000000 ) ) ;
#34 = EDGE_CURVE ( 'NONE', #174, #15, #150, .T. ) ;
#35 = ORIENTED_EDGE ( 'NONE', *, *, #4, .T. ) ;
#36 = AXIS2_PLACEMENT_3D ( 'NONE', #179, #214, #215 ) ;
#37 = EDGE_LOOP ( 'NONE', ( #218, #183 ) ) ;
#38 = PRODUCT_DEFINITION_SHAPE ( 'NONE', 'NONE',  #260 ) ;
#39 = EDGE_CURVE ( 'NONE', #162, #97, #137, .T. ) ;
#40 = EDGE_CURVE ( 'NONE', #197, #162, #130, .T. ) ;
#41 = ORIENTED_EDGE ( 'NONE', *, *, #3, .F. ) ;
#42 = ADVANCED_BREP_SHAPE_REPRESENTATION ( 'Micro_AEMM-080-4', ( #53, #45 ), #273 ) ;
#43 = EDGE_LOOP ( 'NONE', ( #134, #240, #135, #223 ) ) ;
#44 = STYLED_ITEM ( 'NONE', ( #124 ), #53 ) ;
#45 = AXIS2_PLACEMENT_3D ( 'NONE', #66, #96, #144 ) ;
#46 = VERTEX_POINT ( 'NONE', #57 ) ;
#47 = DIRECTION ( 'NONE',  ( -1.000000000000000000, 0.000000000000000000, 1.224646799147353454E-16 ) ) ;
#48 = DIRECTION ( 'NONE',  ( 1.000000000000000000, 0.000000000000000000, 0.000000000000000000 ) ) ;
#49 = CARTESIAN_POINT ( 'NONE',  ( 0.1573230195000000220, 1.926651322628716935E-17, -1.926651322628716935E-17 ) ) ;
#50 = CARTESIAN_POINT ( 'NONE',  ( 0.1573230195000001330, 0.000000000000000000, 0.8661419999999999675 ) ) ;
#51 = DIRECTION ( 'NONE',  ( 0.000000000000000000, 0.000000000000000000, 1.000000000000000000 ) ) ;
#52 = EDGE_CURVE ( 'NONE', #15, #174, #278, .T. ) ;
#53 = MANIFOLD_SOLID_BREP ( 'Cut-Revolve1', #157 ) ;
#54 = PRODUCT_RELATED_PRODUCT_CATEGORY ( 'part', '', ( #67 ) ) ;
#55 = EDGE_CURVE ( 'NONE', #46, #197, #145, .T. ) ;
#56 = ORIENTED_EDGE ( 'NONE', *, *, #222, .F. ) ;
#57 = CARTESIAN_POINT ( 'NONE',  ( -0.1574804999999999955, 0.000000000000000000, 2.465314999999999923 ) ) ;
#58 = PRODUCT_DEFINITION_FORMATION_WITH_SPECIFIED_SOURCE ( 'ANY', '', #67, .NOT_KNOWN. ) ;
#59 = LINE ( 'NONE', #154, #228 ) ;
#60 = DIRECTION ( 'NONE',  ( 1.224646799147353207E-16, 0.000000000000000000, 1.000000000000000000 ) ) ;
#61 = APPLICATION_PROTOCOL_DEFINITION ( 'draft international standard', 'automotive_design', 1998, #283 ) ;
#62 = CARTESIAN_POINT ( 'NONE',  ( 0.000000000000000000, 0.000000000000000000, 2.465314999999999923 ) ) ;
#63 = COLOUR_RGB ( '',0.7921568627450980005, 0.8196078431372548767, 0.9333333333333333481 ) ;
#64 = MECHANICAL_DESIGN_GEOMETRIC_PRESENTATION_REPRESENTATION (  '', ( #103 ), #107 ) ;
#65 = ORIENTED_EDGE ( 'NONE', *, *, #3, .T. ) ;
#66 = CARTESIAN_POINT ( 'NONE',  ( 0.000000000000000000, 0.000000000000000000, 0.000000000000000000 ) ) ;
#67 = PRODUCT ( 'Micro_AEMM-080-4', 'Micro_AEMM-080-4', '', ( #284 ) ) ;
#68 = VERTEX_POINT ( 'NONE', #26 ) ;
#69 = SURFACE_STYLE_USAGE ( .BOTH. , #95 ) ;
#70 = AXIS2_PLACEMENT_3D ( 'NONE', #21, #104, #48 ) ;
#71 = CARTESIAN_POINT ( 'NONE',  ( 0.000000000000000000, 0.000000000000000000, 2.480315000000000047 ) ) ;
#72 = CONICAL_SURFACE ( 'NONE', #204, 0.1424804999999990940, 0.7853981633974699283 ) ;
#73 = CARTESIAN_POINT ( 'NONE',  ( 0.1573230194999999942, 1.926651322628716627E-17, 3.791200677927629740E-33 ) ) ;
#74 = ADVANCED_FACE ( 'NONE', ( #16 ), #2, .T. ) ;
#75 = DIRECTION ( 'NONE',  ( 0.000000000000000000, 0.000000000000000000, -1.000000000000000000 ) ) ;
#76 = CARTESIAN_POINT ( 'NONE',  ( 0.000000000000000000, 0.000000000000000000, 2.480315000000000047 ) ) ;
#77 = DIRECTION ( 'NONE',  ( 1.000000000000000000, 0.000000000000000000, 0.000000000000000000 ) ) ;
#78 = DIRECTION ( 'NONE',  ( -1.224646799147353207E-16, -0.000000000000000000, -1.000000000000000000 ) ) ;
#79 = AXIS2_PLACEMENT_3D ( 'NONE', #234, #230, #88 ) ;
#80 = AXIS2_PLACEMENT_3D ( 'NONE', #105, #78, #272 ) ;
#81 = DIRECTION ( 'NONE',  ( -1.000000000000000000, 0.000000000000000000, 0.000000000000000000 ) ) ;
#82 = DIRECTION ( 'NONE',  ( 0.7071067811865627828, 8.659560562355118980E-17, -0.7071067811865321406 ) ) ;
#83 = SURFACE_STYLE_USAGE ( .BOTH. , #259 ) ;
#84 = AXIS2_PLACEMENT_3D ( 'NONE', #9, #173, #233 ) ;
#85 = AXIS2_PLACEMENT_3D ( 'NONE', #209, #270, #152 ) ;
#86 = FACE_OUTER_BOUND ( 'NONE', #288, .T. ) ;
#87 =( NAMED_UNIT ( * ) PLANE_ANGLE_UNIT ( ) SI_UNIT ( $, .RADIAN. ) );
#88 = DIRECTION ( 'NONE',  ( -1.000000000000000000, 0.000000000000000000, 0.000000000000000000 ) ) ;
#89 = EDGE_CURVE ( 'NONE', #68, #12, #196, .T. ) ;
#90 = ORIENTED_EDGE ( 'NONE', *, *, #40, .T. ) ;
#91 = CIRCLE ( 'NONE', #247, 0.1424804999999990940 ) ;
#92 = APPLICATION_PROTOCOL_DEFINITION ( 'draft international standard', 'automotive_design', 1998, #172 ) ;
#93 = ORIENTED_EDGE ( 'NONE', *, *, #34, .T. ) ;
#94 = EDGE_LOOP ( 'NONE', ( #242, #65, #111, #11 ) ) ;
#95 = SURFACE_SIDE_STYLE ('',( #110 ) ) ;
#96 = DIRECTION ( 'NONE',  ( 0.000000000000000000, 0.000000000000000000, 1.000000000000000000 ) ) ;
#97 = VERTEX_POINT ( 'NONE', #187 ) ;
#98 = PLANE ( 'NONE',  #220 ) ;
#99 = LINE ( 'NONE', #206, #127 ) ;
#100 = DIMENSIONAL_EXPONENTS ( 1.000000000000000000, 0.000000000000000000, 0.000000000000000000, 0.000000000000000000, 0.000000000000000000, 0.000000000000000000, 0.000000000000000000 ) ;
#101 = CARTESIAN_POINT ( 'NONE',  ( 0.000000000000000000, 0.000000000000000000, 2.480315000000000047 ) ) ;
#102 = AXIS2_PLACEMENT_3D ( 'NONE', #101, #291, #245 ) ;
#103 = STYLED_ITEM ( 'NONE', ( #168 ), #42 ) ;
#104 = DIRECTION ( 'NONE',  ( 1.224646799147353207E-16, 0.000000000000000000, 1.000000000000000000 ) ) ;
#105 = CARTESIAN_POINT ( 'NONE',  ( 1.061811779920977108E-16, 0.000000000000000000, 0.8670351162965940217 ) ) ;
#106 = CARTESIAN_POINT ( 'NONE',  ( -0.1573230194999999942, 0.000000000000000000, 3.853302645257433254E-17 ) ) ;
#107 =( GEOMETRIC_REPRESENTATION_CONTEXT ( 3 ) GLOBAL_UNCERTAINTY_ASSIGNED_CONTEXT ( ( #109 ) ) GLOBAL_UNIT_ASSIGNED_CONTEXT ( ( #133, #140, #289 ) ) REPRESENTATION_CONTEXT ( 'NONE', 'WORKASPACE' ) );
#108 = ORIENTED_EDGE ( 'NONE', *, *, #251, .T. ) ;
#109 = UNCERTAINTY_MEASURE_WITH_UNIT (LENGTH_MEASURE( 1.000000000000000082E-05 ), #133, 'distance_accuracy_value', 'NONE');
#110 = SURFACE_STYLE_FILL_AREA ( #235 ) ;
#111 = ORIENTED_EDGE ( 'NONE', *, *, #128, .T. ) ;
#112 = EDGE_CURVE ( 'NONE', #12, #68, #91, .T. ) ;
#113 = ORIENTED_EDGE ( 'NONE', *, *, #281, .F. ) ;
#114 = ORIENTED_EDGE ( 'NONE', *, *, #25, .T. ) ;
#115 = CARTESIAN_POINT ( 'NONE',  ( 0.000000000000000000, 0.000000000000000000, 2.480315000000000047 ) ) ;
#116 = DIRECTION ( 'NONE',  ( 1.000000000000000000, 0.000000000000000000, -0.000000000000000000 ) ) ;
#117 = CONICAL_SURFACE ( 'NONE', #170, 0.1573230195000000220, 0.1745329251994338360 ) ;
#118 = AXIS2_PLACEMENT_3D ( 'NONE', #249, #274, #81 ) ;
#119 = FACE_OUTER_BOUND ( 'NONE', #94, .T. ) ;
#120 = FACE_OUTER_BOUND ( 'NONE', #239, .T. ) ;
#121 = CARTESIAN_POINT ( 'NONE',  ( 0.000000000000000000, 0.000000000000000000, 2.480315000000000047 ) ) ;
#122 = ORIENTED_EDGE ( 'NONE', *, *, #55, .T. ) ;
#123 =( CONVERSION_BASED_UNIT ( 'INCH', #149 ) LENGTH_UNIT ( ) NAMED_UNIT ( #18 ) );
#124 = PRESENTATION_STYLE_ASSIGNMENT (( #69 ) ) ;
#125 = EDGE_CURVE ( 'NONE', #68, #46, #207, .T. ) ;
#126 = VECTOR ( 'NONE', #246, 39.37007874015748854 ) ;
#127 = VECTOR ( 'NONE', #184, 39.37007874015748143 ) ;
#128 = EDGE_CURVE ( 'NONE', #46, #97, #1, .T. ) ;
#129 = CARTESIAN_POINT ( 'NONE',  ( 0.000000000000000000, 0.000000000000000000, 2.465314999999999923 ) ) ;
#130 = LINE ( 'NONE', #6, #203 ) ;
#131 = AXIS2_PLACEMENT_3D ( 'NONE', #193, #279, #217 ) ;
#132 = DIRECTION ( 'NONE',  ( 1.000000000000000000, 0.000000000000000000, 0.000000000000000000 ) ) ;
#133 =( CONVERSION_BASED_UNIT ( 'INCH', #236 ) LENGTH_UNIT ( ) NAMED_UNIT ( #100 ) );
#134 = ORIENTED_EDGE ( 'NONE', *, *, #159, .F. ) ;
#135 = ORIENTED_EDGE ( 'NONE', *, *, #8, .T. ) ;
#136 = ORIENTED_EDGE ( 'NONE', *, *, #159, .T. ) ;
#137 = CIRCLE ( 'NONE', #243, 0.1574804999999999955 ) ;
#138 = ORIENTED_EDGE ( 'NONE', *, *, #25, .F. ) ;
#139 = DIRECTION ( 'NONE',  ( 0.000000000000000000, 0.000000000000000000, -1.000000000000000000 ) ) ;
#140 =( NAMED_UNIT ( * ) PLANE_ANGLE_UNIT ( ) SI_UNIT ( $, .RADIAN. ) );
#141 = ORIENTED_EDGE ( 'NONE', *, *, #125, .F. ) ;
#142 = CYLINDRICAL_SURFACE ( 'NONE', #102, 0.1574804999999999955 ) ;
#143 = DIRECTION ( 'NONE',  ( -1.000000000000000000, 0.000000000000000000, 0.000000000000000000 ) ) ;
#144 = DIRECTION ( 'NONE',  ( 1.000000000000000000, 0.000000000000000000, 0.000000000000000000 ) ) ;
#145 = CIRCLE ( 'NONE', #237, 0.1574804999999999955 ) ;
#146 = CARTESIAN_POINT ( 'NONE',  ( 0.000000000000000000, 0.000000000000000000, 0.000000000000000000 ) ) ;
#147 = DIRECTION ( 'NONE',  ( 1.000000000000000000, 0.000000000000000000, -0.000000000000000000 ) ) ;
#148 = DIRECTION ( 'NONE',  ( 1.000000000000000000, 0.000000000000000000, 0.000000000000000000 ) ) ;
#149 = LENGTH_MEASURE_WITH_UNIT ( LENGTH_MEASURE( 0.02539999999999999897 ), #24 );
#150 = CIRCLE ( 'NONE', #84, 0.1573230194999999942 ) ;
#151 = ADVANCED_FACE ( 'NONE', ( #119 ), #142, .T. ) ;
#152 = DIRECTION ( 'NONE',  ( -1.000000000000000000, 0.000000000000000000, 1.224646799147353454E-16 ) ) ;
#153 = ADVANCED_FACE ( 'NONE', ( #269 ), #98, .F. ) ;
#154 = CARTESIAN_POINT ( 'NONE',  ( 0.1573230195000001330, 0.000000000000000000, 0.8661419999999999675 ) ) ;
#155 = FILL_AREA_STYLE_COLOUR ( '', #63 ) ;
#156 = FILL_AREA_STYLE ('',( #275 ) ) ;
#157 = CLOSED_SHELL ( 'NONE', ( #280, #74, #30, #210, #151, #292, #241, #19, #185, #153 ) ) ;
#158 = ORIENTED_EDGE ( 'NONE', *, *, #34, .F. ) ;
#159 = EDGE_CURVE ( 'NONE', #27, #97, #182, .T. ) ;
#160 = ORIENTED_EDGE ( 'NONE', *, *, #251, .F. ) ;
#161 = DIRECTION ( 'NONE',  ( -1.000000000000000000, 0.000000000000000000, 0.000000000000000000 ) ) ;
#162 = VERTEX_POINT ( 'NONE', #295 ) ;
#163 = DIRECTION ( 'NONE',  ( 0.000000000000000000, 0.000000000000000000, 1.000000000000000000 ) ) ;
#164 = DIRECTION ( 'NONE',  ( -0.000000000000000000, -0.000000000000000000, -1.000000000000000000 ) ) ;
#165 = DIRECTION ( 'NONE',  ( 0.000000000000000000, 0.000000000000000000, 1.000000000000000000 ) ) ;
#166 = FACE_OUTER_BOUND ( 'NONE', #37, .T. ) ;
#167 = LENGTH_MEASURE_WITH_UNIT ( LENGTH_MEASURE( 0.02539999999999999897 ), #255 );
#168 = PRESENTATION_STYLE_ASSIGNMENT (( #83 ) ) ;
#169 =( NAMED_UNIT ( * ) SI_UNIT ( $, .STERADIAN. ) SOLID_ANGLE_UNIT ( ) );
#170 = AXIS2_PLACEMENT_3D ( 'NONE', #211, #60, #276 ) ;
#171 = UNCERTAINTY_MEASURE_WITH_UNIT (LENGTH_MEASURE( 1.000000000000000082E-05 ), #123, 'distance_accuracy_value', 'NONE');
#172 = APPLICATION_CONTEXT ( 'automotive_design' ) ;
#173 = DIRECTION ( 'NONE',  ( -1.224646799147353207E-16, -0.000000000000000000, -1.000000000000000000 ) ) ;
#174 = VERTEX_POINT ( 'NONE', #73 ) ;
#175 = SURFACE_STYLE_FILL_AREA ( #156 ) ;
#176 = ORIENTED_EDGE ( 'NONE', *, *, #128, .F. ) ;
#177 = AXIS2_PLACEMENT_3D ( 'NONE', #252, #51, #147 ) ;
#178 = ORIENTED_EDGE ( 'NONE', *, *, #125, .T. ) ;
#179 = CARTESIAN_POINT ( 'NONE',  ( 1.060718027907086782E-16, 0.000000000000000000, 0.8661419999999999675 ) ) ;
#180 = FACE_OUTER_BOUND ( 'NONE', #250, .T. ) ;
#181 = VERTEX_POINT ( 'NONE', #50 ) ;
#182 = LINE ( 'NONE', #202, #256 ) ;
#183 = ORIENTED_EDGE ( 'NONE', *, *, #112, .T. ) ;
#184 = DIRECTION ( 'NONE',  ( -1.224646799147353207E-16, -0.000000000000000000, -1.000000000000000000 ) ) ;
#185 = ADVANCED_FACE ( 'NONE', ( #120 ), #244, .T. ) ;
#186 = EDGE_CURVE ( 'NONE', #27, #15, #99, .T. ) ;
#187 = CARTESIAN_POINT ( 'NONE',  ( -0.1574804999999998845, 0.000000000000000000, 0.8670351162965940217 ) ) ;
#188 = VECTOR ( 'NONE', #82, 39.37007874015748854 ) ;
#189 = DIRECTION ( 'NONE',  ( 0.1736481776669313304, 0.000000000000000000, 0.9848077530122077983 ) ) ;
#190 =( LENGTH_UNIT ( ) NAMED_UNIT ( * ) SI_UNIT ( $, .METRE. ) );
#191 = VECTOR ( 'NONE', #198, 39.37007874015748143 ) ;
#192 = CARTESIAN_POINT ( 'NONE',  ( 0.1424804999999990940, 1.836731392595189962E-17, 2.480315000000000047 ) ) ;
#193 = CARTESIAN_POINT ( 'NONE',  ( 2.359467375330272285E-33, 0.000000000000000000, 1.926651322628716627E-17 ) ) ;
#194 = UNCERTAINTY_MEASURE_WITH_UNIT (LENGTH_MEASURE( 1.000000000000000082E-05 ), #254, 'distance_accuracy_value', 'NONE');
#195 = EDGE_LOOP ( 'NONE', ( #160, #136, #258, #201 ) ) ;
#196 = CIRCLE ( 'NONE', #208, 0.1424804999999990940 ) ;
#197 = VERTEX_POINT ( 'NONE', #298 ) ;
#198 = DIRECTION ( 'NONE',  ( -1.224646799147353207E-16, -0.000000000000000000, -1.000000000000000000 ) ) ;
#199 = ORIENTED_EDGE ( 'NONE', *, *, #55, .F. ) ;
#200 = DIRECTION ( 'NONE',  ( -0.000000000000000000, -0.000000000000000000, -1.000000000000000000 ) ) ;
#201 = ORIENTED_EDGE ( 'NONE', *, *, #8, .F. ) ;
#202 = CARTESIAN_POINT ( 'NONE',  ( -0.1573230194999999387, 1.926651322628716935E-17, 0.8661419999999999675 ) ) ;
#203 = VECTOR ( 'NONE', #32, 39.37007874015748143 ) ;
#204 = AXIS2_PLACEMENT_3D ( 'NONE', #71, #75, #161 ) ;
#205 = CARTESIAN_POINT ( 'NONE',  ( -0.1424804999999990940, 0.000000000000000000, 2.480315000000000047 ) ) ;
#206 = CARTESIAN_POINT ( 'NONE',  ( -0.1573230195000000220, 0.000000000000000000, 1.926651322628716935E-17 ) ) ;
#207 = LINE ( 'NONE', #205, #126 ) ;
#208 = AXIS2_PLACEMENT_3D ( 'NONE', #121, #163, #77 ) ;
#209 = CARTESIAN_POINT ( 'NONE',  ( 0.000000000000000000, 0.000000000000000000, 0.000000000000000000 ) ) ;
#210 = ADVANCED_FACE ( 'NONE', ( #23 ), #268, .T. ) ;
#211 = CARTESIAN_POINT ( 'NONE',  ( 1.060718027907086782E-16, 0.000000000000000000, 0.8661419999999999675 ) ) ;
#212 = PRESENTATION_LAYER_ASSIGNMENT (  '', '', ( #103 ) ) ;
#213 =( NAMED_UNIT ( * ) PLANE_ANGLE_UNIT ( ) SI_UNIT ( $, .RADIAN. ) );
#214 = DIRECTION ( 'NONE',  ( -1.224646799147353207E-16, -0.000000000000000000, -1.000000000000000000 ) ) ;
#215 = DIRECTION ( 'NONE',  ( -1.000000000000000000, 0.000000000000000000, 0.000000000000000000 ) ) ;
#216 = AXIS2_PLACEMENT_3D ( 'NONE', #129, #31, #132 ) ;
#217 = DIRECTION ( 'NONE',  ( -1.000000000000000000, 0.000000000000000000, 1.224646799147353454E-16 ) ) ;
#218 = ORIENTED_EDGE ( 'NONE', *, *, #89, .T. ) ;
#219 = ORIENTED_EDGE ( 'NONE', *, *, #186, .F. ) ;
#220 = AXIS2_PLACEMENT_3D ( 'NONE', #299, #17, #116 ) ;
#221 = ORIENTED_EDGE ( 'NONE', *, *, #52, .T. ) ;
#222 = EDGE_CURVE ( 'NONE', #181, #174, #225, .T. ) ;
#223 = ORIENTED_EDGE ( 'NONE', *, *, #39, .T. ) ;
#224 = DIRECTION ( 'NONE',  ( 1.000000000000000000, 0.000000000000000000, 0.000000000000000000 ) ) ;
#225 = LINE ( 'NONE', #49, #191 ) ;
#226 = MECHANICAL_DESIGN_GEOMETRIC_PRESENTATION_REPRESENTATION (  '', ( #44 ), #7 ) ;
#227 = DIRECTION ( 'NONE',  ( -1.224646799147353207E-16, -0.000000000000000000, -1.000000000000000000 ) ) ;
#228 = VECTOR ( 'NONE', #189, 39.37007874015748143 ) ;
#229 = CIRCLE ( 'NONE', #80, 0.1574804999999999955 ) ;
#230 = DIRECTION ( 'NONE',  ( 0.000000000000000000, 0.000000000000000000, -1.000000000000000000 ) ) ;
#231 = CARTESIAN_POINT ( 'NONE',  ( -0.1573230194999999387, 1.927615612579982019E-17, 0.8661419999999999675 ) ) ;
#232 =( NAMED_UNIT ( * ) SI_UNIT ( $, .STERADIAN. ) SOLID_ANGLE_UNIT ( ) );
#233 = DIRECTION ( 'NONE',  ( -1.000000000000000000, 0.000000000000000000, 1.224646799147353454E-16 ) ) ;
#234 = CARTESIAN_POINT ( 'NONE',  ( 0.000000000000000000, 0.000000000000000000, 2.480315000000000047 ) ) ;
#235 = FILL_AREA_STYLE ('',( #155 ) ) ;
#236 = LENGTH_MEASURE_WITH_UNIT ( LENGTH_MEASURE( 0.02539999999999999897 ), #190 );
#237 = AXIS2_PLACEMENT_3D ( 'NONE', #62, #139, #148 ) ;
#238 = AXIS2_PLACEMENT_3D ( 'NONE', #146, #227, #47 ) ;
#239 = EDGE_LOOP ( 'NONE', ( #56, #35, #265, #158 ) ) ;
#240 = ORIENTED_EDGE ( 'NONE', *, *, #4, .F. ) ;
#241 = ADVANCED_FACE ( 'NONE', ( #180 ), #72, .T. ) ;
#242 = ORIENTED_EDGE ( 'NONE', *, *, #40, .F. ) ;
#243 = AXIS2_PLACEMENT_3D ( 'NONE', #257, #264, #33 ) ;
#244 = CYLINDRICAL_SURFACE ( 'NONE', #238, 0.1573230195000000220 ) ;
#245 = DIRECTION ( 'NONE',  ( -1.000000000000000000, 0.000000000000000000, 0.000000000000000000 ) ) ;
#246 = DIRECTION ( 'NONE',  ( -0.7071067811865627828, 0.000000000000000000, -0.7071067811865321406 ) ) ;
#247 = AXIS2_PLACEMENT_3D ( 'NONE', #115, #165, #224 ) ;
#248 = PLANE ( 'NONE',  #177 ) ;
#249 = CARTESIAN_POINT ( 'NONE',  ( 1.060718027907086782E-16, 0.000000000000000000, 0.8661419999999999675 ) ) ;
#250 = EDGE_LOOP ( 'NONE', ( #138, #290, #178, #41 ) ) ;
#251 = EDGE_CURVE ( 'NONE', #27, #181, #22, .T. ) ;
#252 = CARTESIAN_POINT ( 'NONE',  ( 0.000000000000000000, 0.000000000000000000, 2.480315000000000047 ) ) ;
#253 = FACE_OUTER_BOUND ( 'NONE', #14, .T. ) ;
#254 =( CONVERSION_BASED_UNIT ( 'INCH', #167 ) LENGTH_UNIT ( ) NAMED_UNIT ( #296 ) );
#255 =( LENGTH_UNIT ( ) NAMED_UNIT ( * ) SI_UNIT ( $, .METRE. ) );
#256 = VECTOR ( 'NONE', #266, 39.37007874015747433 ) ;
#257 = CARTESIAN_POINT ( 'NONE',  ( 1.061811779920977108E-16, 0.000000000000000000, 0.8670351162965940217 ) ) ;
#258 = ORIENTED_EDGE ( 'NONE', *, *, #281, .T. ) ;
#259 = SURFACE_SIDE_STYLE ('',( #175 ) ) ;
#260 = PRODUCT_DEFINITION ( 'UNKNOWN', '', #58, #10 ) ;
#261 = EDGE_LOOP ( 'NONE', ( #221, #93 ) ) ;
#262 = EDGE_LOOP ( 'NONE', ( #122, #90, #113, #176 ) ) ;
#263 = ORIENTED_EDGE ( 'NONE', *, *, #52, .F. ) ;
#264 = DIRECTION ( 'NONE',  ( -1.224646799147353207E-16, -0.000000000000000000, -1.000000000000000000 ) ) ;
#265 = ORIENTED_EDGE ( 'NONE', *, *, #186, .T. ) ;
#266 = DIRECTION ( 'NONE',  ( -0.1736481776669311639, 2.126576849575782392E-17, 0.9848077530122080203 ) ) ;
#267 = COLOUR_RGB ( '',0.7921568627450980005, 0.8196078431372548767, 0.9333333333333333481 ) ;
#268 = CYLINDRICAL_SURFACE ( 'NONE', #286, 0.1574804999999999955 ) ;
#269 = FACE_OUTER_BOUND ( 'NONE', #261, .T. ) ;
#270 = DIRECTION ( 'NONE',  ( -1.224646799147353207E-16, -0.000000000000000000, -1.000000000000000000 ) ) ;
#271 = CARTESIAN_POINT ( 'NONE',  ( -0.1574804999999999955, 0.000000000000000000, 2.480315000000000047 ) ) ;
#272 = DIRECTION ( 'NONE',  ( 1.000000000000000000, 0.000000000000000000, 0.000000000000000000 ) ) ;
#273 =( GEOMETRIC_REPRESENTATION_CONTEXT ( 3 ) GLOBAL_UNCERTAINTY_ASSIGNED_CONTEXT ( ( #171 ) ) GLOBAL_UNIT_ASSIGNED_CONTEXT ( ( #123, #87, #232 ) ) REPRESENTATION_CONTEXT ( 'NONE', 'WORKASPACE' ) );
#274 = DIRECTION ( 'NONE',  ( -1.224646799147353207E-16, -0.000000000000000000, -1.000000000000000000 ) ) ;
#275 = FILL_AREA_STYLE_COLOUR ( '', #267 ) ;
#276 = DIRECTION ( 'NONE',  ( 1.000000000000000000, 0.000000000000000000, 0.000000000000000000 ) ) ;
#277 = CARTESIAN_POINT ( 'NONE',  ( 0.1424804999999990940, 1.744882882659133128E-17, 2.480315000000000047 ) ) ;
#278 = CIRCLE ( 'NONE', #131, 0.1573230194999999942 ) ;
#279 = DIRECTION ( 'NONE',  ( -1.224646799147353207E-16, -0.000000000000000000, -1.000000000000000000 ) ) ;
#280 = ADVANCED_FACE ( 'NONE', ( #253 ), #29, .T. ) ;
#281 = EDGE_CURVE ( 'NONE', #97, #162, #229, .T. ) ;
#282 = FACE_OUTER_BOUND ( 'NONE', #43, .T. ) ;
#283 = APPLICATION_CONTEXT ( 'automotive_design' ) ;
#284 = PRODUCT_CONTEXT ( 'NONE', #283, 'mechanical' ) ;
#285 = VECTOR ( 'NONE', #200, 39.37007874015748143 ) ;
#286 = AXIS2_PLACEMENT_3D ( 'NONE', #76, #164, #143 ) ;
#287 = ORIENTED_EDGE ( 'NONE', *, *, #112, .F. ) ;
#288 = EDGE_LOOP ( 'NONE', ( #287, #114, #199, #141 ) ) ;
#289 =( NAMED_UNIT ( * ) SI_UNIT ( $, .STERADIAN. ) SOLID_ANGLE_UNIT ( ) );
#290 = ORIENTED_EDGE ( 'NONE', *, *, #89, .F. ) ;
#291 = DIRECTION ( 'NONE',  ( -0.000000000000000000, -0.000000000000000000, -1.000000000000000000 ) ) ;
#292 = ADVANCED_FACE ( 'NONE', ( #166 ), #248, .T. ) ;
#293 = CONICAL_SURFACE ( 'NONE', #79, 0.1424804999999990940, 0.7853981633974699283 ) ;
#294 = ORIENTED_EDGE ( 'NONE', *, *, #222, .T. ) ;
#295 = CARTESIAN_POINT ( 'NONE',  ( 0.1574805000000000788, 1.928579902531248645E-17, 0.8670351162965940217 ) ) ;
#296 = DIMENSIONAL_EXPONENTS ( 1.000000000000000000, 0.000000000000000000, 0.000000000000000000, 0.000000000000000000, 0.000000000000000000, 0.000000000000000000, 0.000000000000000000 ) ;
#297 = SHAPE_DEFINITION_REPRESENTATION ( #38, #42 ) ;
#298 = CARTESIAN_POINT ( 'NONE',  ( 0.1574804999999999955, 1.928579902531247412E-17, 2.465314999999999923 ) ) ;
#299 = CARTESIAN_POINT ( 'NONE',  ( 0.000000000000000000, 0.000000000000000000, 0.000000000000000000 ) ) ;
ENDSEC;
END-ISO-10303-21;
