ISO-10303-21;
HEADER;
FILE_DESCRIPTION (( 'STEP AP214' ),
    '1' );
FILE_NAME ('Micro_GLRM-100-2.STEP',
    '2021-09-03T16:20:09',
    ( '' ),
    ( '' ),
    'SwSTEP 2.0',
    'SolidWorks 2020',
    '' );
FILE_SCHEMA (( 'AUTOMOTIVE_DESIGN' ));
ENDSEC;

DATA;
#1 = DIRECTION ( 'NONE',  ( -0.0000000000000000000, -0.0000000000000000000, -1.000000000000000000 ) ) ;
#2 = ORIENTED_EDGE ( 'NONE', *, *, #330, .F. ) ;
#3 = FILL_AREA_STYLE_COLOUR ( '', #115 ) ;
#4 = AXIS2_PLACEMENT_3D ( 'NONE', #358, #184, #5 ) ;
#5 = DIRECTION ( 'NONE',  ( -1.000000000000000000, 0.0000000000000000000, 0.0000000000000000000 ) ) ;
#6 =( LENGTH_UNIT ( ) NAMED_UNIT ( * ) SI_UNIT ( $, .METRE. ) );
#7 = EDGE_LOOP ( 'NONE', ( #310, #64, #78, #121 ) ) ;
#8 = VECTOR ( 'NONE', #326, 39.37007874015748143 ) ;
#9 = FILL_AREA_STYLE ('',( #3 ) ) ;
#10 = EDGE_LOOP ( 'NONE', ( #376, #55, #272, #217 ) ) ;
#11 =( NAMED_UNIT ( * ) PLANE_ANGLE_UNIT ( ) SI_UNIT ( $, .RADIAN. ) );
#12 = CARTESIAN_POINT ( 'NONE',  ( 0.1968308149500000714, 2.410482275020825838E-17, 0.7086609999999999854 ) ) ;
#13 = EDGE_CURVE ( 'NONE', #39, #168, #215, .T. ) ;
#14 = CYLINDRICAL_SURFACE ( 'NONE', #367, 0.1870080000000002018 ) ;
#15 = PRESENTATION_LAYER_ASSIGNMENT (  '', '', ( #345 ) ) ;
#16 = LINE ( 'NONE', #288, #353 ) ;
#17 = EDGE_CURVE ( 'NONE', #329, #357, #235, .T. ) ;
#18 = CARTESIAN_POINT ( 'NONE',  ( 0.0000000000000000000, 0.0000000000000000000, 2.559054999999999858 ) ) ;
#19 = AXIS2_PLACEMENT_3D ( 'NONE', #324, #230, #56 ) ;
#20 = CARTESIAN_POINT ( 'NONE',  ( 0.0000000000000000000, 0.0000000000000000000, 0.0000000000000000000 ) ) ;
#21 = FACE_OUTER_BOUND ( 'NONE', #126, .T. ) ;
#22 = VERTEX_POINT ( 'NONE', #151 ) ;
#23 = LINE ( 'NONE', #375, #183 ) ;
#24 = PRODUCT_DEFINITION_CONTEXT ( 'detailed design', #138, 'design' ) ;
#25 = EDGE_CURVE ( 'NONE', #354, #289, #99, .T. ) ;
#26 = CYLINDRICAL_SURFACE ( 'NONE', #348, 0.1968308149500000714 ) ;
#27 = ORIENTED_EDGE ( 'NONE', *, *, #17, .T. ) ;
#28 = DIRECTION ( 'NONE',  ( 0.0000000000000000000, 0.0000000000000000000, -1.000000000000000000 ) ) ;
#29 = EDGE_CURVE ( 'NONE', #168, #57, #156, .T. ) ;
#30 = DIRECTION ( 'NONE',  ( -0.0000000000000000000, -0.0000000000000000000, -1.000000000000000000 ) ) ;
#31 = CIRCLE ( 'NONE', #45, 0.1968504999999999838 ) ;
#32 = DIRECTION ( 'NONE',  ( 1.000000000000000000, 0.0000000000000000000, 0.0000000000000000000 ) ) ;
#33 =( NAMED_UNIT ( * ) SI_UNIT ( $, .STERADIAN. ) SOLID_ANGLE_UNIT ( ) );
#34 = VERTEX_POINT ( 'NONE', #187 ) ;
#35 = DIRECTION ( 'NONE',  ( -1.000000000000000000, 0.0000000000000000000, 0.0000000000000000000 ) ) ;
#36 = CARTESIAN_POINT ( 'NONE',  ( 0.0000000000000000000, 0.0000000000000000000, 2.559054999999999858 ) ) ;
#37 =( CONVERSION_BASED_UNIT ( 'INCH', #242 ) LENGTH_UNIT ( ) NAMED_UNIT ( #238 ) );
#38 = CONICAL_SURFACE ( 'NONE', #86, 0.1968308149500000714, 0.1745329251994332809 ) ;
#39 = VERTEX_POINT ( 'NONE', #12 ) ;
#40 = ORIENTED_EDGE ( 'NONE', *, *, #369, .T. ) ;
#41 = CONICAL_SURFACE ( 'NONE', #328, 0.1968308149500000714, 0.1745329251994332809 ) ;
#42 = EDGE_CURVE ( 'NONE', #44, #57, #258, .T. ) ;
#43 = EDGE_LOOP ( 'NONE', ( #27, #70, #262, #140 ) ) ;
#44 = VERTEX_POINT ( 'NONE', #218 ) ;
#45 = AXIS2_PLACEMENT_3D ( 'NONE', #283, #190, #107 ) ;
#46 = DIRECTION ( 'NONE',  ( -1.000000000000000000, 0.0000000000000000000, 0.0000000000000000000 ) ) ;
#47 = ADVANCED_FACE ( 'NONE', ( #73 ), #341, .T. ) ;
#48 = LINE ( 'NONE', #371, #311 ) ;
#49 = PRODUCT_CONTEXT ( 'NONE', #188, 'mechanical' ) ;
#50 = DIRECTION ( 'NONE',  ( -1.000000000000000000, 0.0000000000000000000, 0.0000000000000000000 ) ) ;
#51 = ORIENTED_EDGE ( 'NONE', *, *, #59, .T. ) ;
#52 = CARTESIAN_POINT ( 'NONE',  ( 0.1870080000000003406, 0.0000000000000000000, 2.559054999999999858 ) ) ;
#53 = FACE_OUTER_BOUND ( 'NONE', #210, .T. ) ;
#54 = EDGE_CURVE ( 'NONE', #225, #354, #359, .T. ) ;
#55 = ORIENTED_EDGE ( 'NONE', *, *, #160, .T. ) ;
#56 = DIRECTION ( 'NONE',  ( -1.000000000000000000, 0.0000000000000000000, 0.0000000000000000000 ) ) ;
#57 = VERTEX_POINT ( 'NONE', #363 ) ;
#58 = DIRECTION ( 'NONE',  ( 0.0000000000000000000, 0.0000000000000000000, -1.000000000000000000 ) ) ;
#59 = EDGE_CURVE ( 'NONE', #168, #39, #269, .T. ) ;
#60 = CARTESIAN_POINT ( 'NONE',  ( -0.1968308149500000714, 0.0000000000000000000, 0.7086609999999999854 ) ) ;
#61 = CARTESIAN_POINT ( 'NONE',  ( 0.1870080000000003406, 2.290187486149486343E-17, 2.559054999999999858 ) ) ;
#62 = AXIS2_PLACEMENT_3D ( 'NONE', #18, #315, #50 ) ;
#63 = DIRECTION ( 'NONE',  ( -0.1736481776669306643, 0.0000000000000000000, -0.9848077530122080203 ) ) ;
#64 = ORIENTED_EDGE ( 'NONE', *, *, #125, .T. ) ;
#65 = SURFACE_STYLE_USAGE ( .BOTH. , #334 ) ;
#66 = ORIENTED_EDGE ( 'NONE', *, *, #13, .F. ) ;
#67 =( NAMED_UNIT ( * ) PLANE_ANGLE_UNIT ( ) SI_UNIT ( $, .RADIAN. ) );
#68 = ORIENTED_EDGE ( 'NONE', *, *, #160, .F. ) ;
#69 = DIRECTION ( 'NONE',  ( -0.0000000000000000000, -0.0000000000000000000, -1.000000000000000000 ) ) ;
#70 = ORIENTED_EDGE ( 'NONE', *, *, #317, .T. ) ;
#71 = UNCERTAINTY_MEASURE_WITH_UNIT (LENGTH_MEASURE( 1.000000000000000082E-05 ), #122, 'distance_accuracy_value', 'NONE');
#72 = PRESENTATION_LAYER_ASSIGNMENT (  '', '', ( #106 ) ) ;
#73 = FACE_OUTER_BOUND ( 'NONE', #7, .T. ) ;
#74 = DIRECTION ( 'NONE',  ( -1.000000000000000000, 0.0000000000000000000, 0.0000000000000000000 ) ) ;
#75 = AXIS2_PLACEMENT_3D ( 'NONE', #276, #130, #361 ) ;
#76 = CARTESIAN_POINT ( 'NONE',  ( -0.1818504999999994431, 0.0000000000000000000, 4.724409000000001413 ) ) ;
#77 = DIRECTION ( 'NONE',  ( -0.0000000000000000000, -0.0000000000000000000, -1.000000000000000000 ) ) ;
#78 = ORIENTED_EDGE ( 'NONE', *, *, #236, .F. ) ;
#79 = DIRECTION ( 'NONE',  ( -1.000000000000000000, 0.0000000000000000000, 0.0000000000000000000 ) ) ;
#80 = ORIENTED_EDGE ( 'NONE', *, *, #317, .F. ) ;
#81 = LINE ( 'NONE', #319, #378 ) ;
#82 = CARTESIAN_POINT ( 'NONE',  ( 0.0000000000000000000, 0.0000000000000000000, 4.724409000000001413 ) ) ;
#83 = COLOUR_RGB ( '',0.7921568627450980005, 0.8196078431372548767, 0.9333333333333333481 ) ;
#84 = DIRECTION ( 'NONE',  ( -1.000000000000000000, 0.0000000000000000000, 0.0000000000000000000 ) ) ;
#85 = ADVANCED_FACE ( 'NONE', ( #224 ), #366, .T. ) ;
#86 = AXIS2_PLACEMENT_3D ( 'NONE', #340, #77, #370 ) ;
#87 = PLANE ( 'NONE',  #167 ) ;
#88 = FACE_OUTER_BOUND ( 'NONE', #43, .T. ) ;
#89 = DIRECTION ( 'NONE',  ( -0.0000000000000000000, -0.0000000000000000000, -1.000000000000000000 ) ) ;
#90 = AXIS2_PLACEMENT_3D ( 'NONE', #257, #259, #342 ) ;
#91 = SURFACE_STYLE_FILL_AREA ( #216 ) ;
#92 = ORIENTED_EDGE ( 'NONE', *, *, #29, .T. ) ;
#93 = ORIENTED_EDGE ( 'NONE', *, *, #108, .F. ) ;
#94 =( GEOMETRIC_REPRESENTATION_CONTEXT ( 3 ) GLOBAL_UNCERTAINTY_ASSIGNED_CONTEXT ( ( #247 ) ) GLOBAL_UNIT_ASSIGNED_CONTEXT ( ( #37, #11, #278 ) ) REPRESENTATION_CONTEXT ( 'NONE', 'WORKASPACE' ) );
#95 =( NAMED_UNIT ( * ) PLANE_ANGLE_UNIT ( ) SI_UNIT ( $, .RADIAN. ) );
#96 = ORIENTED_EDGE ( 'NONE', *, *, #191, .F. ) ;
#97 = AXIS2_PLACEMENT_3D ( 'NONE', #36, #123, #128 ) ;
#98 = DIRECTION ( 'NONE',  ( -0.0000000000000000000, -0.0000000000000000000, -1.000000000000000000 ) ) ;
#99 = LINE ( 'NONE', #282, #194 ) ;
#100 = AXIS2_PLACEMENT_3D ( 'NONE', #178, #299, #32 ) ;
#101 = DIRECTION ( 'NONE',  ( 0.0000000000000000000, 0.0000000000000000000, 1.000000000000000000 ) ) ;
#102 = DIRECTION ( 'NONE',  ( -0.0000000000000000000, -0.0000000000000000000, -1.000000000000000000 ) ) ;
#103 = DIRECTION ( 'NONE',  ( -0.0000000000000000000, -0.0000000000000000000, -1.000000000000000000 ) ) ;
#104 = AXIS2_PLACEMENT_3D ( 'NONE', #228, #102, #79 ) ;
#105 = DIRECTION ( 'NONE',  ( 0.1736481776669306643, 2.126576849575775305E-17, -0.9848077530122080203 ) ) ;
#106 = STYLED_ITEM ( 'NONE', ( #155 ), #364 ) ;
#107 = DIRECTION ( 'NONE',  ( -1.000000000000000000, 0.0000000000000000000, 0.0000000000000000000 ) ) ;
#108 = EDGE_CURVE ( 'NONE', #357, #329, #360, .T. ) ;
#109 = DIRECTION ( 'NONE',  ( 0.7071067811865419106, 8.659560562354863833E-17, -0.7071067811865531239 ) ) ;
#110 = FACE_OUTER_BOUND ( 'NONE', #274, .T. ) ;
#111 = VERTEX_POINT ( 'NONE', #222 ) ;
#112 = ADVANCED_FACE ( 'NONE', ( #195 ), #162, .T. ) ;
#113 = DIRECTION ( 'NONE',  ( -0.0000000000000000000, -0.0000000000000000000, -1.000000000000000000 ) ) ;
#114 = VECTOR ( 'NONE', #63, 39.37007874015748143 ) ;
#115 = COLOUR_RGB ( '',0.7921568627450980005, 0.8196078431372548767, 0.9333333333333333481 ) ;
#116 = ORIENTED_EDGE ( 'NONE', *, *, #25, .T. ) ;
#117 = LINE ( 'NONE', #379, #265 ) ;
#118 = CIRCLE ( 'NONE', #332, 0.1870080000000000908 ) ;
#119 = CARTESIAN_POINT ( 'NONE',  ( 0.0000000000000000000, 0.0000000000000000000, 0.7086609999999999854 ) ) ;
#120 = DIRECTION ( 'NONE',  ( -1.000000000000000000, 0.0000000000000000000, 0.0000000000000000000 ) ) ;
#121 = ORIENTED_EDGE ( 'NONE', *, *, #25, .F. ) ;
#122 =( CONVERSION_BASED_UNIT ( 'INCH', #305 ) LENGTH_UNIT ( ) NAMED_UNIT ( #206 ) );
#123 = DIRECTION ( 'NONE',  ( -0.0000000000000000000, -0.0000000000000000000, -1.000000000000000000 ) ) ;
#124 =( CONVERSION_BASED_UNIT ( 'INCH', #185 ) LENGTH_UNIT ( ) NAMED_UNIT ( #296 ) );
#125 = EDGE_CURVE ( 'NONE', #225, #34, #318, .T. ) ;
#126 = EDGE_LOOP ( 'NONE', ( #80, #193, #331, #186 ) ) ;
#127 = PRODUCT_DEFINITION_FORMATION_WITH_SPECIFIED_SOURCE ( 'ANY', '', #312, .NOT_KNOWN. ) ;
#128 = DIRECTION ( 'NONE',  ( -1.000000000000000000, 0.0000000000000000000, 0.0000000000000000000 ) ) ;
#129 = SURFACE_STYLE_USAGE ( .BOTH. , #275 ) ;
#130 = DIRECTION ( 'NONE',  ( -0.0000000000000000000, -0.0000000000000000000, -1.000000000000000000 ) ) ;
#131 = DIRECTION ( 'NONE',  ( 1.000000000000000000, 0.0000000000000000000, 0.0000000000000000000 ) ) ;
#132 = CARTESIAN_POINT ( 'NONE',  ( 0.0000000000000000000, 0.0000000000000000000, 0.7643689518434039210 ) ) ;
#133 = UNCERTAINTY_MEASURE_WITH_UNIT (LENGTH_MEASURE( 1.000000000000000082E-05 ), #124, 'distance_accuracy_value', 'NONE');
#134 = CARTESIAN_POINT ( 'NONE',  ( 0.0000000000000000000, 0.0000000000000000000, 0.0000000000000000000 ) ) ;
#135 = DIRECTION ( 'NONE',  ( -1.000000000000000000, 0.0000000000000000000, 0.0000000000000000000 ) ) ;
#136 = DIRECTION ( 'NONE',  ( -1.000000000000000000, 0.0000000000000000000, 0.0000000000000000000 ) ) ;
#137 = EDGE_CURVE ( 'NONE', #34, #289, #31, .T. ) ;
#138 = APPLICATION_CONTEXT ( 'automotive_design' ) ;
#139 = DIRECTION ( 'NONE',  ( -0.0000000000000000000, -0.0000000000000000000, -1.000000000000000000 ) ) ;
#140 = ORIENTED_EDGE ( 'NONE', *, *, #301, .F. ) ;
#141 = CARTESIAN_POINT ( 'NONE',  ( 0.0000000000000000000, 0.0000000000000000000, 0.0000000000000000000 ) ) ;
#142 = CIRCLE ( 'NONE', #307, 0.1968504999999999838 ) ;
#143 = ADVANCED_FACE ( 'NONE', ( #166, #53 ), #189, .T. ) ;
#144 = CYLINDRICAL_SURFACE ( 'NONE', #19, 0.1870080000000002018 ) ;
#145 = ORIENTED_EDGE ( 'NONE', *, *, #17, .F. ) ;
#146 = CARTESIAN_POINT ( 'NONE',  ( -0.1870080000000002018, 0.0000000000000000000, 0.0000000000000000000 ) ) ;
#147 = AXIS2_PLACEMENT_3D ( 'NONE', #298, #30, #349 ) ;
#148 = CARTESIAN_POINT ( 'NONE',  ( -0.1968504999999999838, 0.0000000000000000000, 4.709409000000000844 ) ) ;
#149 = CARTESIAN_POINT ( 'NONE',  ( 0.0000000000000000000, 0.0000000000000000000, 0.0000000000000000000 ) ) ;
#150 = AXIS2_PLACEMENT_3D ( 'NONE', #82, #28, #325 ) ;
#151 = CARTESIAN_POINT ( 'NONE',  ( 0.1870080000000000908, 2.350334880585154396E-17, 0.7643689518434039210 ) ) ;
#152 = AXIS2_PLACEMENT_3D ( 'NONE', #169, #313, #192 ) ;
#153 = DIRECTION ( 'NONE',  ( -0.0000000000000000000, -0.0000000000000000000, -1.000000000000000000 ) ) ;
#154 = ORIENTED_EDGE ( 'NONE', *, *, #236, .T. ) ;
#155 = PRESENTATION_STYLE_ASSIGNMENT (( #65 ) ) ;
#156 = LINE ( 'NONE', #279, #372 ) ;
#157 = CLOSED_SHELL ( 'NONE', ( #241, #256, #355, #294, #47, #112, #343, #322, #143, #205, #177, #85, #273 ) ) ;
#158 = VERTEX_POINT ( 'NONE', #76 ) ;
#159 = CIRCLE ( 'NONE', #147, 0.1870080000000000908 ) ;
#160 = EDGE_CURVE ( 'NONE', #22, #39, #16, .T. ) ;
#161 = CARTESIAN_POINT ( 'NONE',  ( 0.0000000000000000000, 0.0000000000000000000, 0.0000000000000000000 ) ) ;
#162 = CYLINDRICAL_SURFACE ( 'NONE', #152, 0.1968504999999999838 ) ;
#163 =( GEOMETRIC_REPRESENTATION_CONTEXT ( 3 ) GLOBAL_UNCERTAINTY_ASSIGNED_CONTEXT ( ( #71 ) ) GLOBAL_UNIT_ASSIGNED_CONTEXT ( ( #122, #95, #211 ) ) REPRESENTATION_CONTEXT ( 'NONE', 'WORKASPACE' ) );
#164 = DIRECTION ( 'NONE',  ( -0.0000000000000000000, -0.0000000000000000000, -1.000000000000000000 ) ) ;
#165 = PRODUCT_DEFINITION ( 'UNKNOWN', '', #127, #24 ) ;
#166 = FACE_BOUND ( 'NONE', #212, .T. ) ;
#167 = AXIS2_PLACEMENT_3D ( 'NONE', #141, #352, #373 ) ;
#168 = VERTEX_POINT ( 'NONE', #286 ) ;
#169 = CARTESIAN_POINT ( 'NONE',  ( 0.0000000000000000000, 0.0000000000000000000, 4.724409000000001413 ) ) ;
#170 = CARTESIAN_POINT ( 'NONE',  ( 0.1968504999999999838, 2.410723347355560646E-17, 4.709409000000000844 ) ) ;
#171 = ORIENTED_EDGE ( 'NONE', *, *, #266, .T. ) ;
#172 = CARTESIAN_POINT ( 'NONE',  ( 0.0000000000000000000, 0.0000000000000000000, 4.724409000000001413 ) ) ;
#173 = ORIENTED_EDGE ( 'NONE', *, *, #125, .F. ) ;
#174 = CARTESIAN_POINT ( 'NONE',  ( 0.0000000000000000000, 0.0000000000000000000, 2.559054999999999858 ) ) ;
#175 = ORIENTED_EDGE ( 'NONE', *, *, #369, .F. ) ;
#176 = DIRECTION ( 'NONE',  ( 1.000000000000000000, 0.0000000000000000000, 0.0000000000000000000 ) ) ;
#177 = ADVANCED_FACE ( 'NONE', ( #21 ), #14, .T. ) ;
#178 = CARTESIAN_POINT ( 'NONE',  ( 0.0000000000000000000, 0.0000000000000000000, 4.724409000000001413 ) ) ;
#179 = SURFACE_STYLE_FILL_AREA ( #9 ) ;
#180 = EDGE_LOOP ( 'NONE', ( #173, #297, #116, #214 ) ) ;
#181 = EDGE_CURVE ( 'NONE', #231, #158, #203, .T. ) ;
#182 = EDGE_LOOP ( 'NONE', ( #40, #333 ) ) ;
#183 = VECTOR ( 'NONE', #113, 39.37007874015748143 ) ;
#184 = DIRECTION ( 'NONE',  ( -0.0000000000000000000, -0.0000000000000000000, -1.000000000000000000 ) ) ;
#185 = LENGTH_MEASURE_WITH_UNIT ( LENGTH_MEASURE( 0.02539999999999999897 ), #6 );
#186 = ORIENTED_EDGE ( 'NONE', *, *, #200, .F. ) ;
#187 = CARTESIAN_POINT ( 'NONE',  ( 0.1968504999999999838, 2.410723347355560646E-17, 2.559054999999999858 ) ) ;
#188 = APPLICATION_CONTEXT ( 'automotive_design' ) ;
#189 = PLANE ( 'NONE',  #280 ) ;
#190 = DIRECTION ( 'NONE',  ( -0.0000000000000000000, -0.0000000000000000000, -1.000000000000000000 ) ) ;
#191 = EDGE_CURVE ( 'NONE', #231, #225, #48, .T. ) ;
#192 = DIRECTION ( 'NONE',  ( -1.000000000000000000, 0.0000000000000000000, 0.0000000000000000000 ) ) ;
#193 = ORIENTED_EDGE ( 'NONE', *, *, #108, .T. ) ;
#194 = VECTOR ( 'NONE', #98, 39.37007874015748143 ) ;
#195 = FACE_OUTER_BOUND ( 'NONE', #180, .T. ) ;
#196 = EDGE_LOOP ( 'NONE', ( #51, #171, #175, #309 ) ) ;
#197 = DIRECTION ( 'NONE',  ( -0.0000000000000000000, -0.0000000000000000000, -1.000000000000000000 ) ) ;
#198 = AXIS2_PLACEMENT_3D ( 'NONE', #323, #58, #176 ) ;
#199 = CARTESIAN_POINT ( 'NONE',  ( 0.0000000000000000000, 0.0000000000000000000, 4.724409000000001413 ) ) ;
#200 = EDGE_CURVE ( 'NONE', #22, #111, #118, .T. ) ;
#201 = ORIENTED_EDGE ( 'NONE', *, *, #362, .F. ) ;
#202 = CARTESIAN_POINT ( 'NONE',  ( -0.1870080000000003406, 0.0000000000000000000, 2.559054999999999858 ) ) ;
#203 = CIRCLE ( 'NONE', #251, 0.1818504999999994431 ) ;
#204 = CARTESIAN_POINT ( 'NONE',  ( -0.1968504999999999838, 0.0000000000000000000, 2.559054999999999858 ) ) ;
#205 = ADVANCED_FACE ( 'NONE', ( #260 ), #38, .T. ) ;
#206 = DIMENSIONAL_EXPONENTS ( 1.000000000000000000, 0.0000000000000000000, 0.0000000000000000000, 0.0000000000000000000, 0.0000000000000000000, 0.0000000000000000000, 0.0000000000000000000 ) ;
#207 = DIRECTION ( 'NONE',  ( 0.0000000000000000000, 0.0000000000000000000, 1.000000000000000000 ) ) ;
#208 = FACE_OUTER_BOUND ( 'NONE', #249, .T. ) ;
#209 = AXIS2_PLACEMENT_3D ( 'NONE', #20, #103, #46 ) ;
#210 = EDGE_LOOP ( 'NONE', ( #154, #293 ) ) ;
#211 =( NAMED_UNIT ( * ) SI_UNIT ( $, .STERADIAN. ) SOLID_ANGLE_UNIT ( ) );
#212 = EDGE_LOOP ( 'NONE', ( #145, #93 ) ) ;
#213 = AXIS2_PLACEMENT_3D ( 'NONE', #149, #69, #35 ) ;
#214 = ORIENTED_EDGE ( 'NONE', *, *, #137, .F. ) ;
#215 = CIRCLE ( 'NONE', #4, 0.1968308149500000714 ) ;
#216 = FILL_AREA_STYLE ('',( #270 ) ) ;
#217 = ORIENTED_EDGE ( 'NONE', *, *, #308, .F. ) ;
#218 = CARTESIAN_POINT ( 'NONE',  ( 0.1968308149500000714, 2.410482275020825838E-17, 0.0000000000000000000 ) ) ;
#219 = SHAPE_DEFINITION_REPRESENTATION ( #221, #281 ) ;
#220 = DIRECTION ( 'NONE',  ( -0.0000000000000000000, -0.0000000000000000000, -1.000000000000000000 ) ) ;
#221 = PRODUCT_DEFINITION_SHAPE ( 'NONE', 'NONE',  #165 ) ;
#222 = CARTESIAN_POINT ( 'NONE',  ( -0.1870080000000000908, 0.0000000000000000000, 0.7643689518434039210 ) ) ;
#223 = EDGE_CURVE ( 'NONE', #158, #354, #81, .T. ) ;
#224 = FACE_OUTER_BOUND ( 'NONE', #327, .T. ) ;
#225 = VERTEX_POINT ( 'NONE', #170 ) ;
#226 = CARTESIAN_POINT ( 'NONE',  ( 0.1968504999999999838, 2.410723347355560646E-17, 4.724409000000001413 ) ) ;
#227 = ORIENTED_EDGE ( 'NONE', *, *, #181, .T. ) ;
#228 = CARTESIAN_POINT ( 'NONE',  ( 0.0000000000000000000, 0.0000000000000000000, 4.724409000000001413 ) ) ;
#229 = CONICAL_SURFACE ( 'NONE', #150, 0.1818504999999994431, 0.7853981633974403964 ) ;
#230 = DIRECTION ( 'NONE',  ( -0.0000000000000000000, -0.0000000000000000000, -1.000000000000000000 ) ) ;
#231 = VERTEX_POINT ( 'NONE', #263 ) ;
#232 = MECHANICAL_DESIGN_GEOMETRIC_PRESENTATION_REPRESENTATION (  '', ( #345 ), #320 ) ;
#233 = DIRECTION ( 'NONE',  ( 0.0000000000000000000, 0.0000000000000000000, -1.000000000000000000 ) ) ;
#234 = FACE_OUTER_BOUND ( 'NONE', #356, .T. ) ;
#235 = CIRCLE ( 'NONE', #97, 0.1870080000000003406 ) ;
#236 = EDGE_CURVE ( 'NONE', #289, #34, #142, .T. ) ;
#237 = DIRECTION ( 'NONE',  ( -0.0000000000000000000, -0.0000000000000000000, -1.000000000000000000 ) ) ;
#238 = DIMENSIONAL_EXPONENTS ( 1.000000000000000000, 0.0000000000000000000, 0.0000000000000000000, 0.0000000000000000000, 0.0000000000000000000, 0.0000000000000000000, 0.0000000000000000000 ) ;
#239 = LINE ( 'NONE', #146, #8 ) ;
#240 = ORIENTED_EDGE ( 'NONE', *, *, #223, .F. ) ;
#241 = ADVANCED_FACE ( 'NONE', ( #291 ), #26, .T. ) ;
#242 = LENGTH_MEASURE_WITH_UNIT ( LENGTH_MEASURE( 0.02539999999999999897 ), #252 );
#243 = ORIENTED_EDGE ( 'NONE', *, *, #54, .F. ) ;
#244 = APPLICATION_PROTOCOL_DEFINITION ( 'draft international standard', 'automotive_design', 1998, #188 ) ;
#245 = ORIENTED_EDGE ( 'NONE', *, *, #362, .T. ) ;
#246 = CIRCLE ( 'NONE', #213, 0.1968308149500000714 ) ;
#247 = UNCERTAINTY_MEASURE_WITH_UNIT (LENGTH_MEASURE( 1.000000000000000082E-05 ), #37, 'distance_accuracy_value', 'NONE');
#248 =( LENGTH_UNIT ( ) NAMED_UNIT ( * ) SI_UNIT ( $, .METRE. ) );
#249 = EDGE_LOOP ( 'NONE', ( #96, #201, #292, #243 ) ) ;
#250 = PRODUCT_RELATED_PRODUCT_CATEGORY ( 'part', '', ( #312 ) ) ;
#251 = AXIS2_PLACEMENT_3D ( 'NONE', #339, #314, #261 ) ;
#252 =( LENGTH_UNIT ( ) NAMED_UNIT ( * ) SI_UNIT ( $, .METRE. ) );
#253 = AXIS2_PLACEMENT_3D ( 'NONE', #199, #207, #264 ) ;
#254 = ORIENTED_EDGE ( 'NONE', *, *, #266, .F. ) ;
#255 = DIRECTION ( 'NONE',  ( -0.7071067811865419106, 0.0000000000000000000, -0.7071067811865531239 ) ) ;
#256 = ADVANCED_FACE ( 'NONE', ( #88 ), #144, .T. ) ;
#257 = CARTESIAN_POINT ( 'NONE',  ( 0.0000000000000000000, 0.0000000000000000000, 4.709409000000000844 ) ) ;
#258 = CIRCLE ( 'NONE', #75, 0.1968308149500000714 ) ;
#259 = DIRECTION ( 'NONE',  ( 0.0000000000000000000, 0.0000000000000000000, -1.000000000000000000 ) ) ;
#260 = FACE_OUTER_BOUND ( 'NONE', #277, .T. ) ;
#261 = DIRECTION ( 'NONE',  ( 1.000000000000000000, 0.0000000000000000000, 0.0000000000000000000 ) ) ;
#262 = ORIENTED_EDGE ( 'NONE', *, *, #351, .F. ) ;
#263 = CARTESIAN_POINT ( 'NONE',  ( 0.1818504999999994431, 2.318874837419505661E-17, 4.724409000000001413 ) ) ;
#264 = DIRECTION ( 'NONE',  ( 1.000000000000000000, 0.0000000000000000000, -0.0000000000000000000 ) ) ;
#265 = VECTOR ( 'NONE', #347, 39.37007874015748143 ) ;
#266 = EDGE_CURVE ( 'NONE', #39, #44, #23, .T. ) ;
#267 = LINE ( 'NONE', #60, #114 ) ;
#268 = FACE_OUTER_BOUND ( 'NONE', #10, .T. ) ;
#269 = CIRCLE ( 'NONE', #316, 0.1968308149500000714 ) ;
#270 = FILL_AREA_STYLE_COLOUR ( '', #83 ) ;
#271 = CIRCLE ( 'NONE', #198, 0.1968504999999999838 ) ;
#272 = ORIENTED_EDGE ( 'NONE', *, *, #59, .F. ) ;
#273 = ADVANCED_FACE ( 'NONE', ( #377 ), #87, .F. ) ;
#274 = EDGE_LOOP ( 'NONE', ( #336, #287, #2, #240 ) ) ;
#275 = SURFACE_SIDE_STYLE ('',( #179 ) ) ;
#276 = CARTESIAN_POINT ( 'NONE',  ( 0.0000000000000000000, 0.0000000000000000000, 0.0000000000000000000 ) ) ;
#277 = EDGE_LOOP ( 'NONE', ( #68, #346, #374, #66 ) ) ;
#278 =( NAMED_UNIT ( * ) SI_UNIT ( $, .STERADIAN. ) SOLID_ANGLE_UNIT ( ) );
#279 = CARTESIAN_POINT ( 'NONE',  ( -0.1968308149500000714, 0.0000000000000000000, 0.0000000000000000000 ) ) ;
#280 = AXIS2_PLACEMENT_3D ( 'NONE', #52, #338, #135 ) ;
#281 = ADVANCED_BREP_SHAPE_REPRESENTATION ( 'Micro_GLRM-100-2', ( #364, #284 ), #94 ) ;
#282 = CARTESIAN_POINT ( 'NONE',  ( -0.1968504999999999838, 0.0000000000000000000, 4.724409000000001413 ) ) ;
#283 = CARTESIAN_POINT ( 'NONE',  ( 0.0000000000000000000, 0.0000000000000000000, 2.559054999999999858 ) ) ;
#284 = AXIS2_PLACEMENT_3D ( 'NONE', #161, #101, #131 ) ;
#285 = CARTESIAN_POINT ( 'NONE',  ( 0.0000000000000000000, 0.0000000000000000000, 0.7086609999999999854 ) ) ;
#286 = CARTESIAN_POINT ( 'NONE',  ( -0.1968308149500000714, 0.0000000000000000000, 0.7086609999999999854 ) ) ;
#287 = ORIENTED_EDGE ( 'NONE', *, *, #191, .T. ) ;
#288 = CARTESIAN_POINT ( 'NONE',  ( 0.1968308149500000714, 2.410482275020825838E-17, 0.7086609999999999854 ) ) ;
#289 = VERTEX_POINT ( 'NONE', #204 ) ;
#290 = CONICAL_SURFACE ( 'NONE', #335, 0.1818504999999994431, 0.7853981633974403964 ) ;
#291 = FACE_OUTER_BOUND ( 'NONE', #196, .T. ) ;
#292 = ORIENTED_EDGE ( 'NONE', *, *, #223, .T. ) ;
#293 = ORIENTED_EDGE ( 'NONE', *, *, #137, .T. ) ;
#294 = ADVANCED_FACE ( 'NONE', ( #110 ), #229, .T. ) ;
#295 = CARTESIAN_POINT ( 'NONE',  ( 0.0000000000000000000, 0.0000000000000000000, 0.0000000000000000000 ) ) ;
#296 = DIMENSIONAL_EXPONENTS ( 1.000000000000000000, 0.0000000000000000000, 0.0000000000000000000, 0.0000000000000000000, 0.0000000000000000000, 0.0000000000000000000, 0.0000000000000000000 ) ;
#297 = ORIENTED_EDGE ( 'NONE', *, *, #54, .T. ) ;
#298 = CARTESIAN_POINT ( 'NONE',  ( 0.0000000000000000000, 0.0000000000000000000, 0.7643689518434039210 ) ) ;
#299 = DIRECTION ( 'NONE',  ( 0.0000000000000000000, 0.0000000000000000000, 1.000000000000000000 ) ) ;
#300 = VECTOR ( 'NONE', #220, 39.37007874015748143 ) ;
#301 = EDGE_CURVE ( 'NONE', #329, #111, #239, .T. ) ;
#302 = MECHANICAL_DESIGN_GEOMETRIC_PRESENTATION_REPRESENTATION (  '', ( #106 ), #163 ) ;
#303 = PRESENTATION_STYLE_ASSIGNMENT (( #129 ) ) ;
#304 = ORIENTED_EDGE ( 'NONE', *, *, #13, .T. ) ;
#305 = LENGTH_MEASURE_WITH_UNIT ( LENGTH_MEASURE( 0.02539999999999999897 ), #248 );
#306 = ORIENTED_EDGE ( 'NONE', *, *, #42, .F. ) ;
#307 = AXIS2_PLACEMENT_3D ( 'NONE', #174, #89, #344 ) ;
#308 = EDGE_CURVE ( 'NONE', #111, #168, #267, .T. ) ;
#309 = ORIENTED_EDGE ( 'NONE', *, *, #29, .F. ) ;
#310 = ORIENTED_EDGE ( 'NONE', *, *, #330, .T. ) ;
#311 = VECTOR ( 'NONE', #109, 39.37007874015748143 ) ;
#312 = PRODUCT ( 'Micro_GLRM-100-2', 'Micro_GLRM-100-2', '', ( #49 ) ) ;
#313 = DIRECTION ( 'NONE',  ( -0.0000000000000000000, -0.0000000000000000000, -1.000000000000000000 ) ) ;
#314 = DIRECTION ( 'NONE',  ( 0.0000000000000000000, 0.0000000000000000000, 1.000000000000000000 ) ) ;
#315 = DIRECTION ( 'NONE',  ( -0.0000000000000000000, -0.0000000000000000000, -1.000000000000000000 ) ) ;
#316 = AXIS2_PLACEMENT_3D ( 'NONE', #285, #197, #74 ) ;
#317 = EDGE_CURVE ( 'NONE', #357, #22, #117, .T. ) ;
#318 = LINE ( 'NONE', #226, #300 ) ;
#319 = CARTESIAN_POINT ( 'NONE',  ( -0.1818504999999994431, 0.0000000000000000000, 4.724409000000001413 ) ) ;
#320 =( GEOMETRIC_REPRESENTATION_CONTEXT ( 3 ) GLOBAL_UNCERTAINTY_ASSIGNED_CONTEXT ( ( #133 ) ) GLOBAL_UNIT_ASSIGNED_CONTEXT ( ( #124, #67, #33 ) ) REPRESENTATION_CONTEXT ( 'NONE', 'WORKASPACE' ) );
#321 = PLANE ( 'NONE',  #253 ) ;
#322 = ADVANCED_FACE ( 'NONE', ( #208 ), #290, .T. ) ;
#323 = CARTESIAN_POINT ( 'NONE',  ( 0.0000000000000000000, 0.0000000000000000000, 4.709409000000000844 ) ) ;
#324 = CARTESIAN_POINT ( 'NONE',  ( 0.0000000000000000000, 0.0000000000000000000, 0.0000000000000000000 ) ) ;
#325 = DIRECTION ( 'NONE',  ( -1.000000000000000000, 0.0000000000000000000, 0.0000000000000000000 ) ) ;
#326 = DIRECTION ( 'NONE',  ( -0.0000000000000000000, -0.0000000000000000000, -1.000000000000000000 ) ) ;
#327 = EDGE_LOOP ( 'NONE', ( #254, #304, #92, #306 ) ) ;
#328 = AXIS2_PLACEMENT_3D ( 'NONE', #119, #237, #350 ) ;
#329 = VERTEX_POINT ( 'NONE', #202 ) ;
#330 = EDGE_CURVE ( 'NONE', #354, #225, #271, .T. ) ;
#331 = ORIENTED_EDGE ( 'NONE', *, *, #301, .T. ) ;
#332 = AXIS2_PLACEMENT_3D ( 'NONE', #132, #164, #368 ) ;
#333 = ORIENTED_EDGE ( 'NONE', *, *, #42, .T. ) ;
#334 = SURFACE_SIDE_STYLE ('',( #91 ) ) ;
#335 = AXIS2_PLACEMENT_3D ( 'NONE', #172, #233, #84 ) ;
#336 = ORIENTED_EDGE ( 'NONE', *, *, #181, .F. ) ;
#337 = CIRCLE ( 'NONE', #100, 0.1818504999999994431 ) ;
#338 = DIRECTION ( 'NONE',  ( -0.0000000000000000000, 0.0000000000000000000, -1.000000000000000000 ) ) ;
#339 = CARTESIAN_POINT ( 'NONE',  ( 0.0000000000000000000, 0.0000000000000000000, 4.724409000000001413 ) ) ;
#340 = CARTESIAN_POINT ( 'NONE',  ( 0.0000000000000000000, 0.0000000000000000000, 0.7086609999999999854 ) ) ;
#341 = CYLINDRICAL_SURFACE ( 'NONE', #104, 0.1968504999999999838 ) ;
#342 = DIRECTION ( 'NONE',  ( 1.000000000000000000, 0.0000000000000000000, 0.0000000000000000000 ) ) ;
#343 = ADVANCED_FACE ( 'NONE', ( #234 ), #321, .T. ) ;
#344 = DIRECTION ( 'NONE',  ( -1.000000000000000000, 0.0000000000000000000, 0.0000000000000000000 ) ) ;
#345 = STYLED_ITEM ( 'NONE', ( #303 ), #281 ) ;
#346 = ORIENTED_EDGE ( 'NONE', *, *, #200, .T. ) ;
#347 = DIRECTION ( 'NONE',  ( -0.0000000000000000000, -0.0000000000000000000, -1.000000000000000000 ) ) ;
#348 = AXIS2_PLACEMENT_3D ( 'NONE', #295, #1, #120 ) ;
#349 = DIRECTION ( 'NONE',  ( -1.000000000000000000, 0.0000000000000000000, 0.0000000000000000000 ) ) ;
#350 = DIRECTION ( 'NONE',  ( -1.000000000000000000, 0.0000000000000000000, 0.0000000000000000000 ) ) ;
#351 = EDGE_CURVE ( 'NONE', #111, #22, #159, .T. ) ;
#352 = DIRECTION ( 'NONE',  ( 0.0000000000000000000, 0.0000000000000000000, 1.000000000000000000 ) ) ;
#353 = VECTOR ( 'NONE', #105, 39.37007874015748143 ) ;
#354 = VERTEX_POINT ( 'NONE', #148 ) ;
#355 = ADVANCED_FACE ( 'NONE', ( #268 ), #41, .T. ) ;
#356 = EDGE_LOOP ( 'NONE', ( #245, #227 ) ) ;
#357 = VERTEX_POINT ( 'NONE', #61 ) ;
#358 = CARTESIAN_POINT ( 'NONE',  ( 0.0000000000000000000, 0.0000000000000000000, 0.7086609999999999854 ) ) ;
#359 = CIRCLE ( 'NONE', #90, 0.1968504999999999838 ) ;
#360 = CIRCLE ( 'NONE', #62, 0.1870080000000003406 ) ;
#361 = DIRECTION ( 'NONE',  ( -1.000000000000000000, 0.0000000000000000000, 0.0000000000000000000 ) ) ;
#362 = EDGE_CURVE ( 'NONE', #158, #231, #337, .T. ) ;
#363 = CARTESIAN_POINT ( 'NONE',  ( -0.1968308149500000714, 0.0000000000000000000, 0.0000000000000000000 ) ) ;
#364 = MANIFOLD_SOLID_BREP ( 'Cut-Revolve1', #157 ) ;
#365 = APPLICATION_PROTOCOL_DEFINITION ( 'draft international standard', 'automotive_design', 1998, #138 ) ;
#366 = CYLINDRICAL_SURFACE ( 'NONE', #209, 0.1968308149500000714 ) ;
#367 = AXIS2_PLACEMENT_3D ( 'NONE', #134, #139, #136 ) ;
#368 = DIRECTION ( 'NONE',  ( -1.000000000000000000, 0.0000000000000000000, 0.0000000000000000000 ) ) ;
#369 = EDGE_CURVE ( 'NONE', #57, #44, #246, .T. ) ;
#370 = DIRECTION ( 'NONE',  ( -1.000000000000000000, 0.0000000000000000000, 0.0000000000000000000 ) ) ;
#371 = CARTESIAN_POINT ( 'NONE',  ( 0.1818504999999994431, 2.227026327483450676E-17, 4.724409000000001413 ) ) ;
#372 = VECTOR ( 'NONE', #153, 39.37007874015748143 ) ;
#373 = DIRECTION ( 'NONE',  ( 1.000000000000000000, 0.0000000000000000000, -0.0000000000000000000 ) ) ;
#374 = ORIENTED_EDGE ( 'NONE', *, *, #308, .T. ) ;
#375 = CARTESIAN_POINT ( 'NONE',  ( 0.1968308149500000714, 2.410482275020825838E-17, 0.0000000000000000000 ) ) ;
#376 = ORIENTED_EDGE ( 'NONE', *, *, #351, .T. ) ;
#377 = FACE_OUTER_BOUND ( 'NONE', #182, .T. ) ;
#378 = VECTOR ( 'NONE', #255, 39.37007874015748143 ) ;
#379 = CARTESIAN_POINT ( 'NONE',  ( 0.1870080000000002018, 2.290187486149484802E-17, 0.0000000000000000000 ) ) ;
ENDSEC;
END-ISO-10303-21;
