ISO-10303-21;
HEADER;
FILE_DESCRIPTION (( 'STEP AP214' ),
    '1' );
FILE_NAME ('59804.STEP',
    '2023-07-24T15:42:28',
    ( '' ),
    ( '' ),
    'SwSTEP 2.0',
    'SolidWorks 2023',
    '' );
FILE_SCHEMA (( 'AUTOMOTIVE_DESIGN' ));
ENDSEC;

DATA;
#1 = EDGE_CURVE ( 'NONE', #302, #268, #325, .T. ) ;
#2 = DIRECTION ( 'NONE',  ( 0.000000000000000000, 0.000000000000000000, -1.000000000000000000 ) ) ;
#3 = CIRCLE ( 'NONE', #366, 4.000000000000001776 ) ;
#4 = CARTESIAN_POINT ( 'NONE',  ( 4.898587196589412829E-16, 0.000000000000000000, 4.000000000000000000 ) ) ;
#5 = CARTESIAN_POINT ( 'NONE',  ( 0.000000000000000000, 0.000000000000000000, 0.000000000000000000 ) ) ;
#6 = CARTESIAN_POINT ( 'NONE',  ( 0.000000000000000000, 24.00000000000000000, 0.000000000000000000 ) ) ;
#7 = ORIENTED_EDGE ( 'NONE', *, *, #118, .T. ) ;
#8 = DIRECTION ( 'NONE',  ( -0.000000000000000000, -1.000000000000000000, -0.000000000000000000 ) ) ;
#9 = STYLED_ITEM ( 'NONE', ( #70 ), #52 ) ;
#10 = AXIS2_PLACEMENT_3D ( 'NONE', #243, #245, #134 ) ;
#11 = ORIENTED_EDGE ( 'NONE', *, *, #270, .F. ) ;
#12 = AXIS2_PLACEMENT_3D ( 'NONE', #188, #23, #319 ) ;
#13 = ADVANCED_FACE ( 'NONE', ( #113 ), #322, .F. ) ;
#14 = ORIENTED_EDGE ( 'NONE', *, *, #174, .F. ) ;
#15 = DIRECTION ( 'NONE',  ( 1.000000000000000000, 0.000000000000000000, -1.224646799147353207E-16 ) ) ;
#16 = FACE_OUTER_BOUND ( 'NONE', #210, .T. ) ;
#17 = FILL_AREA_STYLE_COLOUR ( '', #255 ) ;
#18 = CARTESIAN_POINT ( 'NONE',  ( 0.000000000000000000, 0.000000000000000000, -3.000000000000000000 ) ) ;
#19 = CIRCLE ( 'NONE', #262, 3.000000000000000000 ) ;
#20 = CARTESIAN_POINT ( 'NONE',  ( 3.673940397442059868E-16, 1.000000000000000000, 3.000000000000000000 ) ) ;
#21 =( LENGTH_UNIT ( ) NAMED_UNIT ( * ) SI_UNIT ( .MILLI., .METRE. ) );
#22 = DIRECTION ( 'NONE',  ( -1.223542297630008506E-16, 1.000000000000000000, -0.000000000000000000 ) ) ;
#23 = DIRECTION ( 'NONE',  ( -1.000000000000000000, 0.000000000000000000, 0.000000000000000000 ) ) ;
#24 = UNCERTAINTY_MEASURE_WITH_UNIT (LENGTH_MEASURE( 1.000000000000000082E-05 ), #291, 'distance_accuracy_value', 'NONE');
#25 = FACE_OUTER_BOUND ( 'NONE', #32, .T. ) ;
#26 = CARTESIAN_POINT ( 'NONE',  ( 0.000000000000000000, 24.00000000000000000, -4.000000000000000000 ) ) ;
#27 =( GEOMETRIC_REPRESENTATION_CONTEXT ( 3 ) GLOBAL_UNCERTAINTY_ASSIGNED_CONTEXT ( ( #74 ) ) GLOBAL_UNIT_ASSIGNED_CONTEXT ( ( #211, #183, #284 ) ) REPRESENTATION_CONTEXT ( 'NONE', 'WORKASPACE' ) );
#28 = CARTESIAN_POINT ( 'NONE',  ( 0.000000000000000000, 1.000000000000000000, 0.000000000000000000 ) ) ;
#29 = DIRECTION ( 'NONE',  ( -1.223542297630008506E-16, 1.000000000000000000, -0.000000000000000000 ) ) ;
#30 = MANIFOLD_SOLID_BREP ( 'Revolve - Tool Body (Straight Shanked)', #117 ) ;
#31 = APPLICATION_PROTOCOL_DEFINITION ( 'draft international standard', 'automotive_design', 1998, #49 ) ;
#32 = EDGE_LOOP ( 'NONE', ( #261, #332, #148, #324 ) ) ;
#33 = VECTOR ( 'NONE', #101, 1000.000000000000000 ) ;
#34 = VECTOR ( 'NONE', #341, 1000.000000000000000 ) ;
#35 = ORIENTED_EDGE ( 'NONE', *, *, #328, .T. ) ;
#36 = PRESENTATION_STYLE_ASSIGNMENT (( #301 ) ) ;
#37 = PRODUCT_CONTEXT ( 'NONE', #49, 'mechanical' ) ;
#38 = PRESENTATION_LAYER_ASSIGNMENT (  '', '', ( #75 ) ) ;
#39 = EDGE_CURVE ( 'NONE', #150, #257, #144, .T. ) ;
#40 = ORIENTED_EDGE ( 'NONE', *, *, #351, .T. ) ;
#41 = ORIENTED_EDGE ( 'NONE', *, *, #196, .T. ) ;
#42 = SURFACE_STYLE_USAGE ( .BOTH. , #158 ) ;
#43 = DIRECTION ( 'NONE',  ( -1.224646799147352961E-16, 0.000000000000000000, -1.000000000000000000 ) ) ;
#44 = DIRECTION ( 'NONE',  ( -1.000000000000000000, 0.000000000000000000, 0.000000000000000000 ) ) ;
#45 = COLOUR_RGB ( '',1.000000000000000000, 0.000000000000000000, 0.000000000000000000 ) ;
#46 = ADVANCED_FACE ( 'NONE', ( #25 ), #298, .T. ) ;
#47 = SURFACE_STYLE_USAGE ( .BOTH. , #218 ) ;
#48 =( NAMED_UNIT ( * ) SI_UNIT ( $, .STERADIAN. ) SOLID_ANGLE_UNIT ( ) );
#49 = APPLICATION_CONTEXT ( 'automotive_design' ) ;
#50 = FACE_OUTER_BOUND ( 'NONE', #154, .T. ) ;
#51 = SURFACE_STYLE_FILL_AREA ( #198 ) ;
#52 = ADVANCED_FACE ( 'NONE', ( #50 ), #102, .T. ) ;
#53 = DIRECTION ( 'NONE',  ( 0.000000000000000000, 0.000000000000000000, -1.000000000000000000 ) ) ;
#54 = COLOUR_RGB ( '',1.000000000000000000, 0.000000000000000000, 0.000000000000000000 ) ;
#55 = CARTESIAN_POINT ( 'NONE',  ( 4.770489558936219510E-15, 24.00000000000000000, 0.000000000000000000 ) ) ;
#56 = CARTESIAN_POINT ( 'NONE',  ( 0.000000000000000000, 1.000000000000000000, 0.000000000000000000 ) ) ;
#57 = CARTESIAN_POINT ( 'NONE',  ( 4.898587196589412829E-16, 24.00000000000000000, 4.000000000000000000 ) ) ;
#58 = ADVANCED_FACE ( 'NONE', ( #16 ), #316, .T. ) ;
#59 = PRESENTATION_LAYER_ASSIGNMENT (  '', '', ( #209 ) ) ;
#60 = ORIENTED_EDGE ( 'NONE', *, *, #174, .T. ) ;
#61 = DIRECTION ( 'NONE',  ( -0.000000000000000000, -1.000000000000000000, -0.000000000000000000 ) ) ;
#62 = TOROIDAL_SURFACE ( 'NONE', #131, 3.000000000000000000, 1.000000000000000000 ) ;
#63 =( NAMED_UNIT ( * ) SI_UNIT ( $, .STERADIAN. ) SOLID_ANGLE_UNIT ( ) );
#64 = EDGE_CURVE ( 'NONE', #205, #257, #108, .T. ) ;
#65 = VECTOR ( 'NONE', #8, 1000.000000000000000 ) ;
#66 = ORIENTED_EDGE ( 'NONE', *, *, #169, .F. ) ;
#67 = AXIS2_PLACEMENT_3D ( 'NONE', #236, #297, #313 ) ;
#68 = SURFACE_SIDE_STYLE ('',( #333 ) ) ;
#69 = AXIS2_PLACEMENT_3D ( 'NONE', #347, #219, #342 ) ;
#70 = PRESENTATION_STYLE_ASSIGNMENT (( #42 ) ) ;
#71 = SURFACE_STYLE_USAGE ( .BOTH. , #68 ) ;
#72 = CARTESIAN_POINT ( 'NONE',  ( 4.770489558936219510E-15, 24.00000000000000000, 0.000000000000000000 ) ) ;
#73 = CARTESIAN_POINT ( 'NONE',  ( 0.000000000000000000, 1.000000000000000000, 0.000000000000000000 ) ) ;
#74 = UNCERTAINTY_MEASURE_WITH_UNIT (LENGTH_MEASURE( 1.000000000000000082E-05 ), #211, 'distance_accuracy_value', 'NONE');
#75 = STYLED_ITEM ( 'NONE', ( #216 ), #46 ) ;
#76 = MECHANICAL_DESIGN_GEOMETRIC_PRESENTATION_REPRESENTATION (  '', ( #139 ), #228 ) ;
#77 = FILL_AREA_STYLE_COLOUR ( '', #310 ) ;
#78 = CARTESIAN_POINT ( 'NONE',  ( 0.000000000000000000, 0.000000000000000000, -4.000000000000000000 ) ) ;
#79 = SURFACE_STYLE_FILL_AREA ( #365 ) ;
#80 = DIRECTION ( 'NONE',  ( -1.000000000000000000, 0.000000000000000000, 0.000000000000000000 ) ) ;
#81 = DIRECTION ( 'NONE',  ( -1.223542297630008506E-16, 1.000000000000000000, -0.000000000000000000 ) ) ;
#82 = PRODUCT_RELATED_PRODUCT_CATEGORY ( 'part', '', ( #89 ) ) ;
#83 = FACE_OUTER_BOUND ( 'NONE', #271, .T. ) ;
#84 = PRODUCT_DEFINITION_CONTEXT ( 'detailed design', #266, 'design' ) ;
#85 = PRESENTATION_STYLE_ASSIGNMENT (( #288 ) ) ;
#86 =( LENGTH_UNIT ( ) NAMED_UNIT ( * ) SI_UNIT ( .MILLI., .METRE. ) );
#87 = COLOUR_RGB ( '',1.000000000000000000, 0.000000000000000000, 0.000000000000000000 ) ;
#88 = CIRCLE ( 'NONE', #176, 3.999999999999996447 ) ;
#89 = PRODUCT ( '59804', '59804', '', ( #37 ) ) ;
#90 = EDGE_CURVE ( 'NONE', #143, #248, #110, .T. ) ;
#91 = ORIENTED_EDGE ( 'NONE', *, *, #196, .F. ) ;
#92 = MECHANICAL_DESIGN_GEOMETRIC_PRESENTATION_REPRESENTATION (  '', ( #279 ), #303 ) ;
#93 = ORIENTED_EDGE ( 'NONE', *, *, #100, .T. ) ;
#94 = SURFACE_STYLE_FILL_AREA ( #153 ) ;
#95 = ORIENTED_EDGE ( 'NONE', *, *, #1, .T. ) ;
#96 = PRESENTATION_STYLE_ASSIGNMENT (( #71 ) ) ;
#97 =( NAMED_UNIT ( * ) SI_UNIT ( $, .STERADIAN. ) SOLID_ANGLE_UNIT ( ) );
#98 = SURFACE_SIDE_STYLE ('',( #126 ) ) ;
#99 =( LENGTH_UNIT ( ) NAMED_UNIT ( * ) SI_UNIT ( .MILLI., .METRE. ) );
#100 = EDGE_CURVE ( 'NONE', #268, #248, #274, .T. ) ;
#101 = DIRECTION ( 'NONE',  ( -1.223542297630008506E-16, 1.000000000000000000, -0.000000000000000000 ) ) ;
#102 = PLANE ( 'NONE',  #345 ) ;
#103 = PLANE ( 'NONE',  #352 ) ;
#104 = FACE_OUTER_BOUND ( 'NONE', #147, .T. ) ;
#105 = AXIS2_PLACEMENT_3D ( 'NONE', #367, #81, #294 ) ;
#106 = AXIS2_PLACEMENT_3D ( 'NONE', #349, #260, #140 ) ;
#107 = FILL_AREA_STYLE_COLOUR ( '', #130 ) ;
#108 = LINE ( 'NONE', #220, #33 ) ;
#109 = DIRECTION ( 'NONE',  ( -0.000000000000000000, -1.000000000000000000, -0.000000000000000000 ) ) ;
#110 = LINE ( 'NONE', #78, #34 ) ;
#111 = PRESENTATION_LAYER_ASSIGNMENT (  '', '', ( #279 ) ) ;
#112 = UNCERTAINTY_MEASURE_WITH_UNIT (LENGTH_MEASURE( 1.000000000000000082E-05 ), #21, 'distance_accuracy_value', 'NONE');
#113 = FACE_OUTER_BOUND ( 'NONE', #295, .T. ) ;
#114 = DIRECTION ( 'NONE',  ( 1.000000000000000000, 0.000000000000000000, 0.000000000000000000 ) ) ;
#115 = ORIENTED_EDGE ( 'NONE', *, *, #90, .T. ) ;
#116 = EDGE_LOOP ( 'NONE', ( #11, #93, #305, #355 ) ) ;
#117 = CLOSED_SHELL ( 'NONE', ( #300, #357, #296, #13 ) ) ;
#118 = EDGE_CURVE ( 'NONE', #143, #302, #122, .T. ) ;
#119 = PRESENTATION_LAYER_ASSIGNMENT (  '', '', ( #286 ) ) ;
#120 = PRODUCT_DEFINITION_FORMATION_WITH_SPECIFIED_SOURCE ( 'ANY', '', #89, .NOT_KNOWN. ) ;
#121 = PRESENTATION_LAYER_ASSIGNMENT (  '', '', ( #9 ) ) ;
#122 = CIRCLE ( 'NONE', #329, 4.000000000000000000 ) ;
#123 = ORIENTED_EDGE ( 'NONE', *, *, #100, .F. ) ;
#124 = PRESENTATION_STYLE_ASSIGNMENT (( #127 ) ) ;
#125 = ORIENTED_EDGE ( 'NONE', *, *, #39, .T. ) ;
#126 = SURFACE_STYLE_FILL_AREA ( #277 ) ;
#127 = SURFACE_STYLE_USAGE ( .BOTH. , #189 ) ;
#128 =( GEOMETRIC_REPRESENTATION_CONTEXT ( 3 ) GLOBAL_UNCERTAINTY_ASSIGNED_CONTEXT ( ( #142 ) ) GLOBAL_UNIT_ASSIGNED_CONTEXT ( ( #157, #339, #336 ) ) REPRESENTATION_CONTEXT ( 'NONE', 'WORKASPACE' ) );
#129 = CARTESIAN_POINT ( 'NONE',  ( 0.000000000000000000, 1.000000000000000000, -4.000000000000000000 ) ) ;
#130 = COLOUR_RGB ( '',1.000000000000000000, 0.000000000000000000, 0.000000000000000000 ) ;
#131 = AXIS2_PLACEMENT_3D ( 'NONE', #56, #344, #323 ) ;
#132 = CYLINDRICAL_SURFACE ( 'NONE', #145, 3.999999999999998224 ) ;
#133 =( NAMED_UNIT ( * ) SI_UNIT ( $, .STERADIAN. ) SOLID_ANGLE_UNIT ( ) );
#134 = DIRECTION ( 'NONE',  ( 0.000000000000000000, 0.000000000000000000, -1.000000000000000000 ) ) ;
#135 = FACE_OUTER_BOUND ( 'NONE', #292, .T. ) ;
#136 = UNCERTAINTY_MEASURE_WITH_UNIT (LENGTH_MEASURE( 1.000000000000000082E-05 ), #275, 'distance_accuracy_value', 'NONE');
#137 = FACE_OUTER_BOUND ( 'NONE', #180, .T. ) ;
#138 = PRESENTATION_STYLE_ASSIGNMENT (( #161 ) ) ;
#139 = STYLED_ITEM ( 'NONE', ( #96 ), #256 ) ;
#140 = DIRECTION ( 'NONE',  ( -1.000000000000000000, -1.223542297630008506E-16, 0.000000000000000000 ) ) ;
#141 = CARTESIAN_POINT ( 'NONE',  ( 0.000000000000000000, 24.00000000000000000, 0.000000000000000000 ) ) ;
#142 = UNCERTAINTY_MEASURE_WITH_UNIT (LENGTH_MEASURE( 1.000000000000000082E-05 ), #157, 'distance_accuracy_value', 'NONE');
#143 = VERTEX_POINT ( 'NONE', #26 ) ;
#144 = CIRCLE ( 'NONE', #67, 4.000000000000001776 ) ;
#145 = AXIS2_PLACEMENT_3D ( 'NONE', #215, #22, #312 ) ;
#146 = EDGE_CURVE ( 'NONE', #205, #199, #88, .T. ) ;
#147 = EDGE_LOOP ( 'NONE', ( #230, #190 ) ) ;
#148 = ORIENTED_EDGE ( 'NONE', *, *, #328, .F. ) ;
#149 = ORIENTED_EDGE ( 'NONE', *, *, #1, .F. ) ;
#150 = VERTEX_POINT ( 'NONE', #338 ) ;
#151 = PRESENTATION_LAYER_ASSIGNMENT (  '', '', ( #335 ) ) ;
#152 =( GEOMETRIC_REPRESENTATION_CONTEXT ( 3 ) GLOBAL_UNCERTAINTY_ASSIGNED_CONTEXT ( ( #24 ) ) GLOBAL_UNIT_ASSIGNED_CONTEXT ( ( #291, #258, #370 ) ) REPRESENTATION_CONTEXT ( 'NONE', 'WORKASPACE' ) );
#153 = FILL_AREA_STYLE ('',( #272 ) ) ;
#154 = EDGE_LOOP ( 'NONE', ( #35, #307 ) ) ;
#155 = FILL_AREA_STYLE_COLOUR ( '', #178 ) ;
#156 = APPLICATION_PROTOCOL_DEFINITION ( 'draft international standard', 'automotive_design', 1998, #266 ) ;
#157 =( LENGTH_UNIT ( ) NAMED_UNIT ( * ) SI_UNIT ( .MILLI., .METRE. ) );
#158 = SURFACE_SIDE_STYLE ('',( #79 ) ) ;
#159 = AXIS2_PLACEMENT_3D ( 'NONE', #73, #253, #362 ) ;
#160 = CIRCLE ( 'NONE', #12, 1.000000000000000000 ) ;
#161 = SURFACE_STYLE_USAGE ( .BOTH. , #213 ) ;
#162 = FILL_AREA_STYLE_COLOUR ( '', #54 ) ;
#163 = FILL_AREA_STYLE ('',( #77 ) ) ;
#164 =( NAMED_UNIT ( * ) SI_UNIT ( $, .STERADIAN. ) SOLID_ANGLE_UNIT ( ) );
#165 =( GEOMETRIC_REPRESENTATION_CONTEXT ( 3 ) GLOBAL_UNCERTAINTY_ASSIGNED_CONTEXT ( ( #112 ) ) GLOBAL_UNIT_ASSIGNED_CONTEXT ( ( #21, #182, #97 ) ) REPRESENTATION_CONTEXT ( 'NONE', 'WORKASPACE' ) );
#166 = CARTESIAN_POINT ( 'NONE',  ( -1.469576158976823750E-15, 75.00000000000000000, 0.000000000000000000 ) ) ;
#167 = CIRCLE ( 'NONE', #238, 4.000000000000000000 ) ;
#168 = DIRECTION ( 'NONE',  ( -1.223542297630008506E-16, 1.000000000000000000, -0.000000000000000000 ) ) ;
#169 = EDGE_CURVE ( 'NONE', #199, #205, #280, .T. ) ;
#170 = UNCERTAINTY_MEASURE_WITH_UNIT (LENGTH_MEASURE( 1.000000000000000082E-05 ), #250, 'distance_accuracy_value', 'NONE');
#171 = PLANE ( 'NONE',  #106 ) ;
#172 = DIRECTION ( 'NONE',  ( 1.223542297630008506E-16, -1.000000000000000000, 0.000000000000000000 ) ) ;
#173 = AXIS2_PLACEMENT_3D ( 'NONE', #20, #15, #43 ) ;
#174 = EDGE_CURVE ( 'NONE', #199, #150, #368, .T. ) ;
#175 = ORIENTED_EDGE ( 'NONE', *, *, #146, .T. ) ;
#176 = AXIS2_PLACEMENT_3D ( 'NONE', #72, #282, #80 ) ;
#177 = DIRECTION ( 'NONE',  ( 1.000000000000000000, 1.223542297630008506E-16, 0.000000000000000000 ) ) ;
#178 = COLOUR_RGB ( '',0.7921568627450980005, 0.8196078431372548767, 0.9333333333333333481 ) ;
#179 = EDGE_CURVE ( 'NONE', #248, #202, #160, .T. ) ;
#180 = EDGE_LOOP ( 'NONE', ( #273, #237, #194, #14 ) ) ;
#181 =( NAMED_UNIT ( * ) SI_UNIT ( $, .STERADIAN. ) SOLID_ANGLE_UNIT ( ) );
#182 =( NAMED_UNIT ( * ) PLANE_ANGLE_UNIT ( ) SI_UNIT ( $, .RADIAN. ) );
#183 =( NAMED_UNIT ( * ) PLANE_ANGLE_UNIT ( ) SI_UNIT ( $, .RADIAN. ) );
#184 = FILL_AREA_STYLE_COLOUR ( '', #87 ) ;
#185 = SURFACE_STYLE_FILL_AREA ( #285 ) ;
#186 = FILL_AREA_STYLE_COLOUR ( '', #45 ) ;
#187 =( GEOMETRIC_REPRESENTATION_CONTEXT ( 3 ) GLOBAL_UNCERTAINTY_ASSIGNED_CONTEXT ( ( #170 ) ) GLOBAL_UNIT_ASSIGNED_CONTEXT ( ( #250, #207, #181 ) ) REPRESENTATION_CONTEXT ( 'NONE', 'WORKASPACE' ) );
#188 = CARTESIAN_POINT ( 'NONE',  ( 0.000000000000000000, 1.000000000000000000, -3.000000000000000000 ) ) ;
#189 = SURFACE_SIDE_STYLE ('',( #251 ) ) ;
#190 = ORIENTED_EDGE ( 'NONE', *, *, #351, .F. ) ;
#191 = DIRECTION ( 'NONE',  ( -1.223542297630008506E-16, 1.000000000000000000, -0.000000000000000000 ) ) ;
#192 = DIRECTION ( 'NONE',  ( 0.000000000000000000, -1.000000000000000000, -0.000000000000000000 ) ) ;
#193 = DIRECTION ( 'NONE',  ( 0.000000000000000000, 0.000000000000000000, -1.000000000000000000 ) ) ;
#194 = ORIENTED_EDGE ( 'NONE', *, *, #39, .F. ) ;
#195 = FACE_OUTER_BOUND ( 'NONE', #116, .T. ) ;
#196 = EDGE_CURVE ( 'NONE', #257, #150, #3, .T. ) ;
#197 = MECHANICAL_DESIGN_GEOMETRIC_PRESENTATION_REPRESENTATION (  '', ( #335 ), #269 ) ;
#198 = FILL_AREA_STYLE ('',( #107 ) ) ;
#199 = VERTEX_POINT ( 'NONE', #287 ) ;
#200 = CARTESIAN_POINT ( 'NONE',  ( 4.286263797015736595E-16, 0.000000000000000000, 3.000000000000000000 ) ) ;
#201 = MECHANICAL_DESIGN_GEOMETRIC_PRESENTATION_REPRESENTATION (  '', ( #286 ), #187 ) ;
#202 = VERTEX_POINT ( 'NONE', #18 ) ;
#203 = PRESENTATION_LAYER_ASSIGNMENT (  '', '', ( #139 ) ) ;
#204 = SURFACE_SIDE_STYLE ('',( #94 ) ) ;
#205 = VERTEX_POINT ( 'NONE', #217 ) ;
#206 =( NAMED_UNIT ( * ) PLANE_ANGLE_UNIT ( ) SI_UNIT ( $, .RADIAN. ) );
#207 =( NAMED_UNIT ( * ) PLANE_ANGLE_UNIT ( ) SI_UNIT ( $, .RADIAN. ) );
#208 = MECHANICAL_DESIGN_GEOMETRIC_PRESENTATION_REPRESENTATION (  '', ( #9 ), #128 ) ;
#209 = STYLED_ITEM ( 'NONE', ( #212 ), #267 ) ;
#210 = EDGE_LOOP ( 'NONE', ( #7, #95, #242, #289 ) ) ;
#211 =( LENGTH_UNIT ( ) NAMED_UNIT ( * ) SI_UNIT ( .MILLI., .METRE. ) );
#212 = PRESENTATION_STYLE_ASSIGNMENT (( #337 ) ) ;
#213 = SURFACE_SIDE_STYLE ('',( #185 ) ) ;
#214 =( NAMED_UNIT ( * ) PLANE_ANGLE_UNIT ( ) SI_UNIT ( $, .RADIAN. ) );
#215 = CARTESIAN_POINT ( 'NONE',  ( -1.469576158976823750E-15, 75.00000000000000000, 0.000000000000000000 ) ) ;
#216 = PRESENTATION_STYLE_ASSIGNMENT (( #47 ) ) ;
#217 = CARTESIAN_POINT ( 'NONE',  ( 4.000000000000000000, 24.00000000000000000, 4.898587196589413815E-16 ) ) ;
#218 = SURFACE_SIDE_STYLE ('',( #241 ) ) ;
#219 = DIRECTION ( 'NONE',  ( -0.000000000000000000, -1.000000000000000000, -0.000000000000000000 ) ) ;
#220 = CARTESIAN_POINT ( 'NONE',  ( 3.999999999999996447, 75.00000000000000000, 4.898587196589410857E-16 ) ) ;
#221 = DIRECTION ( 'NONE',  ( 0.000000000000000000, 0.000000000000000000, -1.000000000000000000 ) ) ;
#222 = EDGE_CURVE ( 'NONE', #330, #202, #19, .T. ) ;
#223 = CYLINDRICAL_SURFACE ( 'NONE', #105, 3.999999999999998224 ) ;
#224 = DIRECTION ( 'NONE',  ( -0.000000000000000000, -1.000000000000000000, -0.000000000000000000 ) ) ;
#225 = UNCERTAINTY_MEASURE_WITH_UNIT (LENGTH_MEASURE( 1.000000000000000082E-05 ), #99, 'distance_accuracy_value', 'NONE');
#226 = MECHANICAL_DESIGN_GEOMETRIC_PRESENTATION_REPRESENTATION (  '', ( #75 ), #165 ) ;
#227 = PRODUCT_DEFINITION ( 'UNKNOWN', '', #120, #84 ) ;
#228 =( GEOMETRIC_REPRESENTATION_CONTEXT ( 3 ) GLOBAL_UNCERTAINTY_ASSIGNED_CONTEXT ( ( #317 ) ) GLOBAL_UNIT_ASSIGNED_CONTEXT ( ( #249, #340, #48 ) ) REPRESENTATION_CONTEXT ( 'NONE', 'WORKASPACE' ) );
#229 = AXIS2_PLACEMENT_3D ( 'NONE', #5, #232, #114 ) ;
#230 = ORIENTED_EDGE ( 'NONE', *, *, #118, .F. ) ;
#231 = EDGE_LOOP ( 'NONE', ( #290, #175, #60, #91 ) ) ;
#232 = DIRECTION ( 'NONE',  ( 0.000000000000000000, 0.000000000000000000, 1.000000000000000000 ) ) ;
#233 = STYLED_ITEM ( 'NONE', ( #85 ), #318 ) ;
#234 = CIRCLE ( 'NONE', #69, 3.000000000000000000 ) ;
#235 = UNCERTAINTY_MEASURE_WITH_UNIT (LENGTH_MEASURE( 1.000000000000000082E-05 ), #86, 'distance_accuracy_value', 'NONE');
#236 = CARTESIAN_POINT ( 'NONE',  ( -1.469576158976823750E-15, 75.00000000000000000, 0.000000000000000000 ) ) ;
#237 = ORIENTED_EDGE ( 'NONE', *, *, #64, .T. ) ;
#238 = AXIS2_PLACEMENT_3D ( 'NONE', #28, #326, #2 ) ;
#239 = ADVANCED_FACE ( 'NONE', ( #135 ), #240, .T. ) ;
#240 = CYLINDRICAL_SURFACE ( 'NONE', #10, 4.000000000000000000 ) ;
#241 = SURFACE_STYLE_FILL_AREA ( #311 ) ;
#242 = ORIENTED_EDGE ( 'NONE', *, *, #331, .F. ) ;
#243 = CARTESIAN_POINT ( 'NONE',  ( 0.000000000000000000, 0.000000000000000000, 0.000000000000000000 ) ) ;
#244 = AXIS2_PLACEMENT_3D ( 'NONE', #55, #191, #44 ) ;
#245 = DIRECTION ( 'NONE',  ( -0.000000000000000000, -1.000000000000000000, -0.000000000000000000 ) ) ;
#246 = CARTESIAN_POINT ( 'NONE',  ( 0.000000000000000000, 0.000000000000000000, 0.000000000000000000 ) ) ;
#247 = DIRECTION ( 'NONE',  ( 0.000000000000000000, 0.000000000000000000, -1.000000000000000000 ) ) ;
#248 = VERTEX_POINT ( 'NONE', #129 ) ;
#249 =( LENGTH_UNIT ( ) NAMED_UNIT ( * ) SI_UNIT ( .MILLI., .METRE. ) );
#250 =( LENGTH_UNIT ( ) NAMED_UNIT ( * ) SI_UNIT ( .MILLI., .METRE. ) );
#251 = SURFACE_STYLE_FILL_AREA ( #163 ) ;
#252 = DIRECTION ( 'NONE',  ( -0.000000000000000000, -1.000000000000000000, -0.000000000000000000 ) ) ;
#253 = DIRECTION ( 'NONE',  ( -0.000000000000000000, -1.000000000000000000, -0.000000000000000000 ) ) ;
#254 = AXIS2_PLACEMENT_3D ( 'NONE', #348, #172, #177 ) ;
#255 = COLOUR_RGB ( '',1.000000000000000000, 0.000000000000000000, 0.000000000000000000 ) ;
#256 = ADVANCED_FACE ( 'NONE', ( #104 ), #103, .T. ) ;
#257 = VERTEX_POINT ( 'NONE', #306 ) ;
#258 =( NAMED_UNIT ( * ) PLANE_ANGLE_UNIT ( ) SI_UNIT ( $, .RADIAN. ) );
#259 = DIRECTION ( 'NONE',  ( -1.000000000000000000, 0.000000000000000000, 0.000000000000000000 ) ) ;
#260 = DIRECTION ( 'NONE',  ( -1.223542297630008506E-16, 1.000000000000000000, 0.000000000000000000 ) ) ;
#261 = ORIENTED_EDGE ( 'NONE', *, *, #331, .T. ) ;
#262 = AXIS2_PLACEMENT_3D ( 'NONE', #246, #361, #315 ) ;
#263 = ADVANCED_BREP_SHAPE_REPRESENTATION ( '59804', ( #267, #30, #229 ), #152 ) ;
#264 =( NAMED_UNIT ( * ) PLANE_ANGLE_UNIT ( ) SI_UNIT ( $, .RADIAN. ) );
#265 = SHAPE_DEFINITION_REPRESENTATION ( #283, #263 ) ;
#266 = APPLICATION_CONTEXT ( 'automotive_design' ) ;
#267 = MANIFOLD_SOLID_BREP ( 'Revolve - Cutting Edge', #320 ) ;
#268 = VERTEX_POINT ( 'NONE', #308 ) ;
#269 =( GEOMETRIC_REPRESENTATION_CONTEXT ( 3 ) GLOBAL_UNCERTAINTY_ASSIGNED_CONTEXT ( ( #225 ) ) GLOBAL_UNIT_ASSIGNED_CONTEXT ( ( #99, #214, #133 ) ) REPRESENTATION_CONTEXT ( 'NONE', 'WORKASPACE' ) );
#270 = EDGE_CURVE ( 'NONE', #268, #330, #293, .T. ) ;
#271 = EDGE_LOOP ( 'NONE', ( #66, #276 ) ) ;
#272 = FILL_AREA_STYLE_COLOUR ( '', #334 ) ;
#273 = ORIENTED_EDGE ( 'NONE', *, *, #169, .T. ) ;
#274 = CIRCLE ( 'NONE', #356, 4.000000000000000000 ) ;
#275 =( LENGTH_UNIT ( ) NAMED_UNIT ( * ) SI_UNIT ( .MILLI., .METRE. ) );
#276 = ORIENTED_EDGE ( 'NONE', *, *, #146, .F. ) ;
#277 = FILL_AREA_STYLE ('',( #155 ) ) ;
#278 = CARTESIAN_POINT ( 'NONE',  ( 0.000000000000000000, 0.000000000000000000, 0.000000000000000000 ) ) ;
#279 = STYLED_ITEM ( 'NONE', ( #36 ), #30 ) ;
#280 = CIRCLE ( 'NONE', #244, 3.999999999999996447 ) ;
#281 = FACE_OUTER_BOUND ( 'NONE', #231, .T. ) ;
#282 = DIRECTION ( 'NONE',  ( -1.223542297630008506E-16, 1.000000000000000000, -0.000000000000000000 ) ) ;
#283 = PRODUCT_DEFINITION_SHAPE ( 'NONE', 'NONE',  #227 ) ;
#284 =( NAMED_UNIT ( * ) SI_UNIT ( $, .STERADIAN. ) SOLID_ANGLE_UNIT ( ) );
#285 = FILL_AREA_STYLE ('',( #162 ) ) ;
#286 = STYLED_ITEM ( 'NONE', ( #138 ), #239 ) ;
#287 = CARTESIAN_POINT ( 'NONE',  ( -3.999999999999991562, 24.00000000000000000, 0.000000000000000000 ) ) ;
#288 = SURFACE_STYLE_USAGE ( .BOTH. , #350 ) ;
#289 = ORIENTED_EDGE ( 'NONE', *, *, #90, .F. ) ;
#290 = ORIENTED_EDGE ( 'NONE', *, *, #64, .F. ) ;
#291 =( LENGTH_UNIT ( ) NAMED_UNIT ( * ) SI_UNIT ( .MILLI., .METRE. ) );
#292 = EDGE_LOOP ( 'NONE', ( #149, #40, #115, #123 ) ) ;
#293 = CIRCLE ( 'NONE', #173, 1.000000000000000000 ) ;
#294 = DIRECTION ( 'NONE',  ( -1.000000000000000000, 0.000000000000000000, 0.000000000000000000 ) ) ;
#295 = EDGE_LOOP ( 'NONE', ( #125, #41 ) ) ;
#296 = ADVANCED_FACE ( 'NONE', ( #281 ), #132, .T. ) ;
#297 = DIRECTION ( 'NONE',  ( -1.223542297630008506E-16, 1.000000000000000000, -0.000000000000000000 ) ) ;
#298 = TOROIDAL_SURFACE ( 'NONE', #159, 3.000000000000000000, 1.000000000000000000 ) ;
#299 =( GEOMETRIC_REPRESENTATION_CONTEXT ( 3 ) GLOBAL_UNCERTAINTY_ASSIGNED_CONTEXT ( ( #235 ) ) GLOBAL_UNIT_ASSIGNED_CONTEXT ( ( #86, #264, #164 ) ) REPRESENTATION_CONTEXT ( 'NONE', 'WORKASPACE' ) );
#300 = ADVANCED_FACE ( 'NONE', ( #137 ), #223, .T. ) ;
#301 = SURFACE_STYLE_USAGE ( .BOTH. , #204 ) ;
#302 = VERTEX_POINT ( 'NONE', #57 ) ;
#303 =( GEOMETRIC_REPRESENTATION_CONTEXT ( 3 ) GLOBAL_UNCERTAINTY_ASSIGNED_CONTEXT ( ( #136 ) ) GLOBAL_UNIT_ASSIGNED_CONTEXT ( ( #275, #206, #63 ) ) REPRESENTATION_CONTEXT ( 'NONE', 'WORKASPACE' ) );
#304 = VECTOR ( 'NONE', #29, 1000.000000000000000 ) ;
#305 = ORIENTED_EDGE ( 'NONE', *, *, #179, .T. ) ;
#306 = CARTESIAN_POINT ( 'NONE',  ( 4.000000000000000000, 75.00000000000000000, 4.898587196589412829E-16 ) ) ;
#307 = ORIENTED_EDGE ( 'NONE', *, *, #222, .T. ) ;
#308 = CARTESIAN_POINT ( 'NONE',  ( 4.898587196589412829E-16, 1.000000000000000000, 4.000000000000000000 ) ) ;
#309 = CARTESIAN_POINT ( 'NONE',  ( 0.000000000000000000, 1.000000000000000000, 0.000000000000000000 ) ) ;
#310 = COLOUR_RGB ( '',1.000000000000000000, 0.000000000000000000, 0.000000000000000000 ) ;
#311 = FILL_AREA_STYLE ('',( #184 ) ) ;
#312 = DIRECTION ( 'NONE',  ( -1.000000000000000000, 0.000000000000000000, 0.000000000000000000 ) ) ;
#313 = DIRECTION ( 'NONE',  ( -1.000000000000000000, 0.000000000000000000, 0.000000000000000000 ) ) ;
#314 = CARTESIAN_POINT ( 'NONE',  ( 0.000000000000000000, 24.00000000000000000, 0.000000000000000000 ) ) ;
#315 = DIRECTION ( 'NONE',  ( 0.000000000000000000, 0.000000000000000000, -1.000000000000000000 ) ) ;
#316 = CYLINDRICAL_SURFACE ( 'NONE', #327, 4.000000000000000000 ) ;
#317 = UNCERTAINTY_MEASURE_WITH_UNIT (LENGTH_MEASURE( 1.000000000000000082E-05 ), #249, 'distance_accuracy_value', 'NONE');
#318 = ADVANCED_FACE ( 'NONE', ( #195 ), #62, .T. ) ;
#319 = DIRECTION ( 'NONE',  ( 0.000000000000000000, 0.000000000000000000, 1.000000000000000000 ) ) ;
#320 = CLOSED_SHELL ( 'NONE', ( #58, #46, #52, #318, #239, #256 ) ) ;
#321 = MECHANICAL_DESIGN_GEOMETRIC_PRESENTATION_REPRESENTATION (  '', ( #209 ), #27 ) ;
#322 = PLANE ( 'NONE',  #254 ) ;
#323 = DIRECTION ( 'NONE',  ( 0.000000000000000000, 0.000000000000000000, -1.000000000000000000 ) ) ;
#324 = ORIENTED_EDGE ( 'NONE', *, *, #179, .F. ) ;
#325 = LINE ( 'NONE', #4, #65 ) ;
#326 = DIRECTION ( 'NONE',  ( -0.000000000000000000, -1.000000000000000000, -0.000000000000000000 ) ) ;
#327 = AXIS2_PLACEMENT_3D ( 'NONE', #369, #109, #221 ) ;
#328 = EDGE_CURVE ( 'NONE', #202, #330, #234, .T. ) ;
#329 = AXIS2_PLACEMENT_3D ( 'NONE', #141, #224, #343 ) ;
#330 = VERTEX_POINT ( 'NONE', #200 ) ;
#331 = EDGE_CURVE ( 'NONE', #248, #268, #167, .T. ) ;
#332 = ORIENTED_EDGE ( 'NONE', *, *, #270, .T. ) ;
#333 = SURFACE_STYLE_FILL_AREA ( #363 ) ;
#334 = COLOUR_RGB ( '',0.7921568627450980005, 0.8196078431372548767, 0.9333333333333333481 ) ;
#335 = STYLED_ITEM ( 'NONE', ( #124 ), #58 ) ;
#336 =( NAMED_UNIT ( * ) SI_UNIT ( $, .STERADIAN. ) SOLID_ANGLE_UNIT ( ) );
#337 = SURFACE_STYLE_USAGE ( .BOTH. , #98 ) ;
#338 = CARTESIAN_POINT ( 'NONE',  ( -4.000000000000003553, 75.00000000000000000, 0.000000000000000000 ) ) ;
#339 =( NAMED_UNIT ( * ) PLANE_ANGLE_UNIT ( ) SI_UNIT ( $, .RADIAN. ) );
#340 =( NAMED_UNIT ( * ) PLANE_ANGLE_UNIT ( ) SI_UNIT ( $, .RADIAN. ) );
#341 = DIRECTION ( 'NONE',  ( -0.000000000000000000, -1.000000000000000000, -0.000000000000000000 ) ) ;
#342 = DIRECTION ( 'NONE',  ( 0.000000000000000000, 0.000000000000000000, -1.000000000000000000 ) ) ;
#343 = DIRECTION ( 'NONE',  ( 0.000000000000000000, 0.000000000000000000, -1.000000000000000000 ) ) ;
#344 = DIRECTION ( 'NONE',  ( -0.000000000000000000, -1.000000000000000000, -0.000000000000000000 ) ) ;
#345 = AXIS2_PLACEMENT_3D ( 'NONE', #278, #192, #247 ) ;
#346 = MECHANICAL_DESIGN_GEOMETRIC_PRESENTATION_REPRESENTATION (  '', ( #233 ), #299 ) ;
#347 = CARTESIAN_POINT ( 'NONE',  ( 0.000000000000000000, 0.000000000000000000, 0.000000000000000000 ) ) ;
#348 = CARTESIAN_POINT ( 'NONE',  ( 4.000000000000000000, 75.00000000000000000, 0.000000000000000000 ) ) ;
#349 = CARTESIAN_POINT ( 'NONE',  ( 4.770489558936219510E-15, 24.00000000000000000, 0.000000000000000000 ) ) ;
#350 = SURFACE_SIDE_STYLE ('',( #51 ) ) ;
#351 = EDGE_CURVE ( 'NONE', #302, #143, #354, .T. ) ;
#352 = AXIS2_PLACEMENT_3D ( 'NONE', #314, #358, #360 ) ;
#353 = AXIS2_PLACEMENT_3D ( 'NONE', #6, #61, #193 ) ;
#354 = CIRCLE ( 'NONE', #353, 4.000000000000000000 ) ;
#355 = ORIENTED_EDGE ( 'NONE', *, *, #222, .F. ) ;
#356 = AXIS2_PLACEMENT_3D ( 'NONE', #309, #252, #53 ) ;
#357 = ADVANCED_FACE ( 'NONE', ( #83 ), #171, .F. ) ;
#358 = DIRECTION ( 'NONE',  ( 0.000000000000000000, 1.000000000000000000, 0.000000000000000000 ) ) ;
#359 = PRESENTATION_LAYER_ASSIGNMENT (  '', '', ( #233 ) ) ;
#360 = DIRECTION ( 'NONE',  ( 0.000000000000000000, -0.000000000000000000, 1.000000000000000000 ) ) ;
#361 = DIRECTION ( 'NONE',  ( -0.000000000000000000, -1.000000000000000000, -0.000000000000000000 ) ) ;
#362 = DIRECTION ( 'NONE',  ( 0.000000000000000000, 0.000000000000000000, -1.000000000000000000 ) ) ;
#363 = FILL_AREA_STYLE ('',( #17 ) ) ;
#364 = CARTESIAN_POINT ( 'NONE',  ( -4.000000000000000000, 75.00000000000000000, 0.000000000000000000 ) ) ;
#365 = FILL_AREA_STYLE ('',( #186 ) ) ;
#366 = AXIS2_PLACEMENT_3D ( 'NONE', #166, #168, #259 ) ;
#367 = CARTESIAN_POINT ( 'NONE',  ( -1.469576158976823750E-15, 75.00000000000000000, 0.000000000000000000 ) ) ;
#368 = LINE ( 'NONE', #364, #304 ) ;
#369 = CARTESIAN_POINT ( 'NONE',  ( 0.000000000000000000, 0.000000000000000000, 0.000000000000000000 ) ) ;
#370 =( NAMED_UNIT ( * ) SI_UNIT ( $, .STERADIAN. ) SOLID_ANGLE_UNIT ( ) );
ENDSEC;
END-ISO-10303-21;
