ISO-10303-21;
HEADER;
FILE_DESCRIPTION (( 'STEP AP214' ),
    '1' );
FILE_NAME ('06348.STEP',
    '2023-07-05T16:01:57',
    ( '' ),
    ( '' ),
    'SwSTEP 2.0',
    'SolidWorks 2023',
    '' );
FILE_SCHEMA (( 'AUTOMOTIVE_DESIGN' ));
ENDSEC;

DATA;
#1 =( NAMED_UNIT ( * ) PLANE_ANGLE_UNIT ( ) SI_UNIT ( $, .RADIAN. ) );
#2 =( NAMED_UNIT ( * ) PLANE_ANGLE_UNIT ( ) SI_UNIT ( $, .RADIAN. ) );
#3 = COLOUR_RGB ( '',1.000000000000000000, 0.000000000000000000, 0.000000000000000000 ) ;
#4 = DIRECTION ( 'NONE',  ( -1.221490049109858028E-16, 1.000000000000000000, -0.000000000000000000 ) ) ;
#5 = CARTESIAN_POINT ( 'NONE',  ( -6.123233995736766036E-17, 2.500000000000000000, 0.000000000000000000 ) ) ;
#6 = VERTEX_POINT ( 'NONE', #174 ) ;
#7 = AXIS2_PLACEMENT_3D ( 'NONE', #170, #128, #236 ) ;
#8 = VERTEX_POINT ( 'NONE', #258 ) ;
#9 = VERTEX_POINT ( 'NONE', #222 ) ;
#10 = EDGE_CURVE ( 'NONE', #6, #67, #219, .T. ) ;
#11 = ORIENTED_EDGE ( 'NONE', *, *, #57, .F. ) ;
#12 = LENGTH_MEASURE_WITH_UNIT ( LENGTH_MEASURE( 0.02539999999999999897 ), #152 );
#13 = AXIS2_PLACEMENT_3D ( 'NONE', #77, #162, #56 ) ;
#14 = DIRECTION ( 'NONE',  ( 0.000000000000000000, -0.000000000000000000, 1.000000000000000000 ) ) ;
#15 =( NAMED_UNIT ( * ) SI_UNIT ( $, .STERADIAN. ) SOLID_ANGLE_UNIT ( ) );
#16 = PRODUCT ( '06348', '06348', '', ( #55 ) ) ;
#17 = PRODUCT_RELATED_PRODUCT_CATEGORY ( 'part', '', ( #16 ) ) ;
#18 = FILL_AREA_STYLE ('',( #158 ) ) ;
#19 =( GEOMETRIC_REPRESENTATION_CONTEXT ( 3 ) GLOBAL_UNCERTAINTY_ASSIGNED_CONTEXT ( ( #217 ) ) GLOBAL_UNIT_ASSIGNED_CONTEXT ( ( #72, #115, #94 ) ) REPRESENTATION_CONTEXT ( 'NONE', 'WORKASPACE' ) );
#20 = LENGTH_MEASURE_WITH_UNIT ( LENGTH_MEASURE( 0.02539999999999999897 ), #74 );
#21 = CARTESIAN_POINT ( 'NONE',  ( 0.000000000000000000, 0.000000000000000000, 0.000000000000000000 ) ) ;
#22 = FILL_AREA_STYLE ('',( #141 ) ) ;
#23 = PLANE ( 'NONE',  #35 ) ;
#24 = PRESENTATION_LAYER_ASSIGNMENT (  '', '', ( #83 ) ) ;
#25 = CIRCLE ( 'NONE', #7, 0.1249999999999997780 ) ;
#26 = DIMENSIONAL_EXPONENTS ( 1.000000000000000000, 0.000000000000000000, 0.000000000000000000, 0.000000000000000000, 0.000000000000000000, 0.000000000000000000, 0.000000000000000000 ) ;
#27 = VECTOR ( 'NONE', #76, 39.37007874015748143 ) ;
#28 = EDGE_CURVE ( 'NONE', #254, #9, #239, .T. ) ;
#29 = ORIENTED_EDGE ( 'NONE', *, *, #117, .T. ) ;
#30 = CARTESIAN_POINT ( 'NONE',  ( 0.000000000000000000, 0.000000000000000000, 0.000000000000000000 ) ) ;
#31 = STYLED_ITEM ( 'NONE', ( #44 ), #155 ) ;
#32 = ORIENTED_EDGE ( 'NONE', *, *, #28, .T. ) ;
#33 = FILL_AREA_STYLE_COLOUR ( '', #104 ) ;
#34 = CARTESIAN_POINT ( 'NONE',  ( -6.123233995736766036E-17, 2.500000000000000000, 0.000000000000000000 ) ) ;
#35 = AXIS2_PLACEMENT_3D ( 'NONE', #233, #210, #42 ) ;
#36 = SURFACE_STYLE_USAGE ( .BOTH. , #138 ) ;
#37 = DIRECTION ( 'NONE',  ( -1.221490049109858028E-16, 1.000000000000000000, -0.000000000000000000 ) ) ;
#38 = AXIS2_PLACEMENT_3D ( 'NONE', #34, #201, #137 ) ;
#39 = DIRECTION ( 'NONE',  ( 1.221490049109858028E-16, -1.000000000000000000, 0.000000000000000000 ) ) ;
#40 = PRESENTATION_STYLE_ASSIGNMENT (( #36 ) ) ;
#41 = DIMENSIONAL_EXPONENTS ( 1.000000000000000000, 0.000000000000000000, 0.000000000000000000, 0.000000000000000000, 0.000000000000000000, 0.000000000000000000, 0.000000000000000000 ) ;
#42 = DIRECTION ( 'NONE',  ( -1.000000000000000000, -1.221490049109858028E-16, 0.000000000000000000 ) ) ;
#43 = PRESENTATION_LAYER_ASSIGNMENT (  '', '', ( #126 ) ) ;
#44 = PRESENTATION_STYLE_ASSIGNMENT (( #52 ) ) ;
#45 = AXIS2_PLACEMENT_3D ( 'NONE', #116, #4, #253 ) ;
#46 = ORIENTED_EDGE ( 'NONE', *, *, #131, .F. ) ;
#47 = ADVANCED_FACE ( 'NONE', ( #89 ), #156, .T. ) ;
#48 = STYLED_ITEM ( 'NONE', ( #225 ), #53 ) ;
#49 = ORIENTED_EDGE ( 'NONE', *, *, #131, .T. ) ;
#50 = DIRECTION ( 'NONE',  ( -1.221490049109858028E-16, 1.000000000000000000, -0.000000000000000000 ) ) ;
#51 = SURFACE_SIDE_STYLE ('',( #240 ) ) ;
#52 = SURFACE_STYLE_USAGE ( .BOTH. , #237 ) ;
#53 = ADVANCED_FACE ( 'NONE', ( #205 ), #230, .T. ) ;
#54 = PRESENTATION_LAYER_ASSIGNMENT (  '', '', ( #31 ) ) ;
#55 = PRODUCT_CONTEXT ( 'NONE', #110, 'mechanical' ) ;
#56 = DIRECTION ( 'NONE',  ( 0.000000000000000000, 0.000000000000000000, -1.000000000000000000 ) ) ;
#57 = EDGE_CURVE ( 'NONE', #153, #176, #179, .T. ) ;
#58 =( NAMED_UNIT ( * ) PLANE_ANGLE_UNIT ( ) SI_UNIT ( $, .RADIAN. ) );
#59 =( GEOMETRIC_REPRESENTATION_CONTEXT ( 3 ) GLOBAL_UNCERTAINTY_ASSIGNED_CONTEXT ( ( #149 ) ) GLOBAL_UNIT_ASSIGNED_CONTEXT ( ( #186, #2, #81 ) ) REPRESENTATION_CONTEXT ( 'NONE', 'WORKASPACE' ) );
#60 = PRODUCT_DEFINITION_FORMATION_WITH_SPECIFIED_SOURCE ( 'ANY', '', #16, .NOT_KNOWN. ) ;
#61 = PLANE ( 'NONE',  #124 ) ;
#62 =( CONVERSION_BASED_UNIT ( 'INCH', #248 ) LENGTH_UNIT ( ) NAMED_UNIT ( #215 ) );
#63 = DIMENSIONAL_EXPONENTS ( 1.000000000000000000, 0.000000000000000000, 0.000000000000000000, 0.000000000000000000, 0.000000000000000000, 0.000000000000000000, 0.000000000000000000 ) ;
#64 = SURFACE_STYLE_FILL_AREA ( #262 ) ;
#65 = UNCERTAINTY_MEASURE_WITH_UNIT (LENGTH_MEASURE( 1.000000000000000082E-05 ), #62, 'distance_accuracy_value', 'NONE');
#66 = CLOSED_SHELL ( 'NONE', ( #155, #53, #47 ) ) ;
#67 = VERTEX_POINT ( 'NONE', #118 ) ;
#68 = FILL_AREA_STYLE_COLOUR ( '', #3 ) ;
#69 = ORIENTED_EDGE ( 'NONE', *, *, #166, .T. ) ;
#70 = COLOUR_RGB ( '',0.7921568627450980005, 0.8196078431372548767, 0.9333333333333333481 ) ;
#71 = ORIENTED_EDGE ( 'NONE', *, *, #249, .F. ) ;
#72 =( CONVERSION_BASED_UNIT ( 'INCH', #12 ) LENGTH_UNIT ( ) NAMED_UNIT ( #194 ) );
#73 = ADVANCED_FACE ( 'NONE', ( #135 ), #61, .F. ) ;
#74 =( LENGTH_UNIT ( ) NAMED_UNIT ( * ) SI_UNIT ( $, .METRE. ) );
#75 = CYLINDRICAL_SURFACE ( 'NONE', #38, 0.1249999999999999029 ) ;
#76 = DIRECTION ( 'NONE',  ( -1.221490049109858028E-16, 1.000000000000000000, -0.000000000000000000 ) ) ;
#77 = CARTESIAN_POINT ( 'NONE',  ( 0.000000000000000000, 0.2165063509461090385, 0.000000000000000000 ) ) ;
#78 = SURFACE_STYLE_USAGE ( .BOTH. , #160 ) ;
#79 =( LENGTH_UNIT ( ) NAMED_UNIT ( * ) SI_UNIT ( $, .METRE. ) );
#80 = LENGTH_MEASURE_WITH_UNIT ( LENGTH_MEASURE( 0.02539999999999999897 ), #184 );
#81 =( NAMED_UNIT ( * ) SI_UNIT ( $, .STERADIAN. ) SOLID_ANGLE_UNIT ( ) );
#82 = MECHANICAL_DESIGN_GEOMETRIC_PRESENTATION_REPRESENTATION (  '', ( #126 ), #246 ) ;
#83 = STYLED_ITEM ( 'NONE', ( #207 ), #47 ) ;
#84 = UNCERTAINTY_MEASURE_WITH_UNIT (LENGTH_MEASURE( 1.000000000000000082E-05 ), #95, 'distance_accuracy_value', 'NONE');
#85 = CARTESIAN_POINT ( 'NONE',  ( 2.176941369951209721E-16, 0.2165063509461089553, 0.000000000000000000 ) ) ;
#86 = MECHANICAL_DESIGN_GEOMETRIC_PRESENTATION_REPRESENTATION (  '', ( #83 ), #234 ) ;
#87 =( GEOMETRIC_REPRESENTATION_CONTEXT ( 3 ) GLOBAL_UNCERTAINTY_ASSIGNED_CONTEXT ( ( #127 ) ) GLOBAL_UNIT_ASSIGNED_CONTEXT ( ( #103, #214, #190 ) ) REPRESENTATION_CONTEXT ( 'NONE', 'WORKASPACE' ) );
#88 = EDGE_LOOP ( 'NONE', ( #29, #32, #112, #11 ) ) ;
#89 = FACE_OUTER_BOUND ( 'NONE', #259, .T. ) ;
#90 = ORIENTED_EDGE ( 'NONE', *, *, #166, .F. ) ;
#91 = MANIFOLD_SOLID_BREP ( 'Revolve - Cutting Edge', #66 ) ;
#92 = VECTOR ( 'NONE', #50, 39.37007874015748143 ) ;
#93 = ORIENTED_EDGE ( 'NONE', *, *, #28, .F. ) ;
#94 =( NAMED_UNIT ( * ) SI_UNIT ( $, .STERADIAN. ) SOLID_ANGLE_UNIT ( ) );
#95 =( CONVERSION_BASED_UNIT ( 'INCH', #20 ) LENGTH_UNIT ( ) NAMED_UNIT ( #145 ) );
#96 = DIRECTION ( 'NONE',  ( 0.000000000000000000, 1.000000000000000000, 0.000000000000000000 ) ) ;
#97 = ADVANCED_FACE ( 'NONE', ( #241 ), #101, .T. ) ;
#98 = CARTESIAN_POINT ( 'NONE',  ( -0.1250000000000001110, 2.500000000000000000, 0.000000000000000000 ) ) ;
#99 = MECHANICAL_DESIGN_GEOMETRIC_PRESENTATION_REPRESENTATION (  '', ( #48 ), #59 ) ;
#100 = SURFACE_STYLE_USAGE ( .BOTH. , #51 ) ;
#101 = CYLINDRICAL_SURFACE ( 'NONE', #45, 0.1249999999999999029 ) ;
#102 = SURFACE_STYLE_FILL_AREA ( #250 ) ;
#103 =( CONVERSION_BASED_UNIT ( 'INCH', #235 ) LENGTH_UNIT ( ) NAMED_UNIT ( #26 ) );
#104 = COLOUR_RGB ( '',1.000000000000000000, 0.000000000000000000, 0.000000000000000000 ) ;
#105 = PRODUCT_DEFINITION ( 'UNKNOWN', '', #60, #169 ) ;
#106 = EDGE_CURVE ( 'NONE', #254, #153, #182, .T. ) ;
#107 = UNCERTAINTY_MEASURE_WITH_UNIT (LENGTH_MEASURE( 1.000000000000000082E-05 ), #183, 'distance_accuracy_value', 'NONE');
#108 = ORIENTED_EDGE ( 'NONE', *, *, #260, .T. ) ;
#109 = CIRCLE ( 'NONE', #242, 0.1249999999999999861 ) ;
#110 = APPLICATION_CONTEXT ( 'automotive_design' ) ;
#111 = EDGE_LOOP ( 'NONE', ( #71, #46 ) ) ;
#112 = ORIENTED_EDGE ( 'NONE', *, *, #260, .F. ) ;
#113 = ORIENTED_EDGE ( 'NONE', *, *, #151, .T. ) ;
#114 = STYLED_ITEM ( 'NONE', ( #232 ), #91 ) ;
#115 =( NAMED_UNIT ( * ) PLANE_ANGLE_UNIT ( ) SI_UNIT ( $, .RADIAN. ) );
#116 = CARTESIAN_POINT ( 'NONE',  ( -6.123233995736766036E-17, 2.500000000000000000, 0.000000000000000000 ) ) ;
#117 = EDGE_CURVE ( 'NONE', #153, #254, #25, .T. ) ;
#118 = CARTESIAN_POINT ( 'NONE',  ( 1.530808498934191201E-17, 0.2165063509461090385, -0.1249999999999999861 ) ) ;
#119 = CARTESIAN_POINT ( 'NONE',  ( 0.000000000000000000, 0.2165063509461090385, 0.000000000000000000 ) ) ;
#120 = VECTOR ( 'NONE', #140, 39.37007874015748143 ) ;
#121 = CIRCLE ( 'NONE', #229, 0.1250000000000000278 ) ;
#122 =( NAMED_UNIT ( * ) SI_UNIT ( $, .STERADIAN. ) SOLID_ANGLE_UNIT ( ) );
#123 = DIRECTION ( 'NONE',  ( -1.000000000000000000, 0.000000000000000000, 0.000000000000000000 ) ) ;
#124 = AXIS2_PLACEMENT_3D ( 'NONE', #181, #39, #211 ) ;
#125 = ADVANCED_BREP_SHAPE_REPRESENTATION ( '06348', ( #91, #185, #255 ), #224 ) ;
#126 = STYLED_ITEM ( 'NONE', ( #40 ), #185 ) ;
#127 = UNCERTAINTY_MEASURE_WITH_UNIT (LENGTH_MEASURE( 1.000000000000000082E-05 ), #103, 'distance_accuracy_value', 'NONE');
#128 = DIRECTION ( 'NONE',  ( -1.221490049109858028E-16, 1.000000000000000000, -0.000000000000000000 ) ) ;
#129 = ORIENTED_EDGE ( 'NONE', *, *, #106, .F. ) ;
#130 = MECHANICAL_DESIGN_GEOMETRIC_PRESENTATION_REPRESENTATION (  '', ( #114 ), #87 ) ;
#131 = EDGE_CURVE ( 'NONE', #67, #8, #109, .T. ) ;
#132 = ORIENTED_EDGE ( 'NONE', *, *, #10, .F. ) ;
#133 = DIRECTION ( 'NONE',  ( -1.000000000000000000, 0.000000000000000000, 0.000000000000000000 ) ) ;
#134 = CLOSED_SHELL ( 'NONE', ( #97, #209, #144, #73 ) ) ;
#135 = FACE_OUTER_BOUND ( 'NONE', #220, .T. ) ;
#136 = AXIS2_PLACEMENT_3D ( 'NONE', #85, #148, #133 ) ;
#137 = DIRECTION ( 'NONE',  ( -1.000000000000000000, 0.000000000000000000, 0.000000000000000000 ) ) ;
#138 = SURFACE_SIDE_STYLE ('',( #102 ) ) ;
#139 = DIRECTION ( 'NONE',  ( 0.000000000000000000, 1.000000000000000000, 0.000000000000000000 ) ) ;
#140 = DIRECTION ( 'NONE',  ( 0.000000000000000000, 0.8660254037844380415, 0.5000000000000009992 ) ) ;
#141 = FILL_AREA_STYLE_COLOUR ( '', #143 ) ;
#142 = LINE ( 'NONE', #21, #120 ) ;
#143 = COLOUR_RGB ( '',0.7921568627450980005, 0.8196078431372548767, 0.9333333333333333481 ) ;
#144 = ADVANCED_FACE ( 'NONE', ( #168 ), #75, .T. ) ;
#145 = DIMENSIONAL_EXPONENTS ( 1.000000000000000000, 0.000000000000000000, 0.000000000000000000, 0.000000000000000000, 0.000000000000000000, 0.000000000000000000, 0.000000000000000000 ) ;
#146 = DIRECTION ( 'NONE',  ( -0.000000000000000000, -1.000000000000000000, -0.000000000000000000 ) ) ;
#147 = CONICAL_SURFACE ( 'NONE', #161, 22.73032555864674364, 0.5235987755983000369 ) ;
#148 = DIRECTION ( 'NONE',  ( -1.221490049109858028E-16, 1.000000000000000000, -0.000000000000000000 ) ) ;
#149 = UNCERTAINTY_MEASURE_WITH_UNIT (LENGTH_MEASURE( 1.000000000000000082E-05 ), #186, 'distance_accuracy_value', 'NONE');
#150 = ORIENTED_EDGE ( 'NONE', *, *, #117, .F. ) ;
#151 = EDGE_CURVE ( 'NONE', #9, #176, #216, .T. ) ;
#152 =( LENGTH_UNIT ( ) NAMED_UNIT ( * ) SI_UNIT ( $, .METRE. ) );
#153 = VERTEX_POINT ( 'NONE', #159 ) ;
#154 = SURFACE_STYLE_FILL_AREA ( #175 ) ;
#155 = ADVANCED_FACE ( 'NONE', ( #256 ), #147, .T. ) ;
#156 = CONICAL_SURFACE ( 'NONE', #264, 22.73032555864674364, 0.5235987755983000369 ) ;
#157 = ORIENTED_EDGE ( 'NONE', *, *, #57, .T. ) ;
#158 = FILL_AREA_STYLE_COLOUR ( '', #208 ) ;
#159 = CARTESIAN_POINT ( 'NONE',  ( -0.1249999999999995559, 0.2165063509461089553, 0.000000000000000000 ) ) ;
#160 = SURFACE_SIDE_STYLE ('',( #265 ) ) ;
#161 = AXIS2_PLACEMENT_3D ( 'NONE', #252, #96, #178 ) ;
#162 = DIRECTION ( 'NONE',  ( -0.000000000000000000, -1.000000000000000000, -0.000000000000000000 ) ) ;
#163 =( NAMED_UNIT ( * ) SI_UNIT ( $, .STERADIAN. ) SOLID_ANGLE_UNIT ( ) );
#164 = CARTESIAN_POINT ( 'NONE',  ( -0.1249999999999999584, 2.500000000000000000, 0.000000000000000000 ) ) ;
#165 = LENGTH_MEASURE_WITH_UNIT ( LENGTH_MEASURE( 0.02539999999999999897 ), #187 );
#166 = EDGE_CURVE ( 'NONE', #6, #8, #142, .T. ) ;
#167 =( LENGTH_UNIT ( ) NAMED_UNIT ( * ) SI_UNIT ( $, .METRE. ) );
#168 = FACE_OUTER_BOUND ( 'NONE', #261, .T. ) ;
#169 = PRODUCT_DEFINITION_CONTEXT ( 'detailed design', #193, 'design' ) ;
#170 = CARTESIAN_POINT ( 'NONE',  ( 2.176941369951209721E-16, 0.2165063509461089553, 0.000000000000000000 ) ) ;
#171 = ORIENTED_EDGE ( 'NONE', *, *, #10, .T. ) ;
#172 = AXIS2_PLACEMENT_3D ( 'NONE', #5, #218, #173 ) ;
#173 = DIRECTION ( 'NONE',  ( -1.000000000000000000, 0.000000000000000000, 0.000000000000000000 ) ) ;
#174 = CARTESIAN_POINT ( 'NONE',  ( 0.000000000000000000, 0.000000000000000000, 0.000000000000000000 ) ) ;
#175 = FILL_AREA_STYLE ('',( #33 ) ) ;
#176 = VERTEX_POINT ( 'NONE', #98 ) ;
#177 = DIRECTION ( 'NONE',  ( 6.123233995736778362E-17, 0.8660254037844380415, -0.5000000000000009992 ) ) ;
#178 = DIRECTION ( 'NONE',  ( 0.000000000000000000, 0.000000000000000000, 1.000000000000000000 ) ) ;
#179 = LINE ( 'NONE', #164, #27 ) ;
#180 = DIRECTION ( 'NONE',  ( 0.000000000000000000, 0.000000000000000000, 1.000000000000000000 ) ) ;
#181 = CARTESIAN_POINT ( 'NONE',  ( 0.1249999999999999584, 2.500000000000000000, 0.000000000000000000 ) ) ;
#182 = CIRCLE ( 'NONE', #136, 0.1249999999999997780 ) ;
#183 =( CONVERSION_BASED_UNIT ( 'INCH', #165 ) LENGTH_UNIT ( ) NAMED_UNIT ( #41 ) );
#184 =( LENGTH_UNIT ( ) NAMED_UNIT ( * ) SI_UNIT ( $, .METRE. ) );
#185 = MANIFOLD_SOLID_BREP ( 'Revolve - Tool Body (Pointed)', #134 ) ;
#186 =( CONVERSION_BASED_UNIT ( 'INCH', #80 ) LENGTH_UNIT ( ) NAMED_UNIT ( #63 ) );
#187 =( LENGTH_UNIT ( ) NAMED_UNIT ( * ) SI_UNIT ( $, .METRE. ) );
#188 = CIRCLE ( 'NONE', #13, 0.1249999999999999861 ) ;
#189 =( NAMED_UNIT ( * ) PLANE_ANGLE_UNIT ( ) SI_UNIT ( $, .RADIAN. ) );
#190 =( NAMED_UNIT ( * ) SI_UNIT ( $, .STERADIAN. ) SOLID_ANGLE_UNIT ( ) );
#191 = SHAPE_DEFINITION_REPRESENTATION ( #221, #125 ) ;
#192 = MECHANICAL_DESIGN_GEOMETRIC_PRESENTATION_REPRESENTATION (  '', ( #31 ), #19 ) ;
#193 = APPLICATION_CONTEXT ( 'automotive_design' ) ;
#194 = DIMENSIONAL_EXPONENTS ( 1.000000000000000000, 0.000000000000000000, 0.000000000000000000, 0.000000000000000000, 0.000000000000000000, 0.000000000000000000, 0.000000000000000000 ) ;
#195 = DIRECTION ( 'NONE',  ( 0.000000000000000000, 0.000000000000000000, -1.000000000000000000 ) ) ;
#196 = ORIENTED_EDGE ( 'NONE', *, *, #151, .F. ) ;
#197 = AXIS2_PLACEMENT_3D ( 'NONE', #119, #247, #14 ) ;
#198 = CARTESIAN_POINT ( 'NONE',  ( 0.1249999999999998335, 2.500000000000000000, 1.530808498934190276E-17 ) ) ;
#199 = ORIENTED_EDGE ( 'NONE', *, *, #249, .T. ) ;
#200 = EDGE_LOOP ( 'NONE', ( #90, #171, #49 ) ) ;
#201 = DIRECTION ( 'NONE',  ( -1.221490049109858028E-16, 1.000000000000000000, -0.000000000000000000 ) ) ;
#202 = PRESENTATION_LAYER_ASSIGNMENT (  '', '', ( #114 ) ) ;
#203 = CARTESIAN_POINT ( 'NONE',  ( 0.000000000000000000, 0.2165063509461090385, 0.000000000000000000 ) ) ;
#204 = DIRECTION ( 'NONE',  ( 0.000000000000000000, 0.000000000000000000, 1.000000000000000000 ) ) ;
#205 = FACE_OUTER_BOUND ( 'NONE', #111, .T. ) ;
#206 = VECTOR ( 'NONE', #177, 39.37007874015748143 ) ;
#207 = PRESENTATION_STYLE_ASSIGNMENT (( #245 ) ) ;
#208 = COLOUR_RGB ( '',1.000000000000000000, 0.000000000000000000, 0.000000000000000000 ) ;
#209 = ADVANCED_FACE ( 'NONE', ( #212 ), #23, .F. ) ;
#210 = DIRECTION ( 'NONE',  ( -1.221490049109858028E-16, 1.000000000000000000, 0.000000000000000000 ) ) ;
#211 = DIRECTION ( 'NONE',  ( 1.000000000000000000, 1.221490049109858028E-16, 0.000000000000000000 ) ) ;
#212 = FACE_OUTER_BOUND ( 'NONE', #257, .T. ) ;
#213 = CARTESIAN_POINT ( 'NONE',  ( 0.000000000000000000, 0.000000000000000000, 0.000000000000000000 ) ) ;
#214 =( NAMED_UNIT ( * ) PLANE_ANGLE_UNIT ( ) SI_UNIT ( $, .RADIAN. ) );
#215 = DIMENSIONAL_EXPONENTS ( 1.000000000000000000, 0.000000000000000000, 0.000000000000000000, 0.000000000000000000, 0.000000000000000000, 0.000000000000000000, 0.000000000000000000 ) ;
#216 = CIRCLE ( 'NONE', #172, 0.1250000000000000278 ) ;
#217 = UNCERTAINTY_MEASURE_WITH_UNIT (LENGTH_MEASURE( 1.000000000000000082E-05 ), #72, 'distance_accuracy_value', 'NONE');
#218 = DIRECTION ( 'NONE',  ( -1.221490049109858028E-16, 1.000000000000000000, -0.000000000000000000 ) ) ;
#219 = LINE ( 'NONE', #30, #206 ) ;
#220 = EDGE_LOOP ( 'NONE', ( #108, #113 ) ) ;
#221 = PRODUCT_DEFINITION_SHAPE ( 'NONE', 'NONE',  #105 ) ;
#222 = CARTESIAN_POINT ( 'NONE',  ( 0.1249999999999999445, 2.500000000000000000, 1.530808498934190893E-17 ) ) ;
#223 = CARTESIAN_POINT ( 'NONE',  ( 0.000000000000000000, 39.37007874015748143, 0.000000000000000000 ) ) ;
#224 =( GEOMETRIC_REPRESENTATION_CONTEXT ( 3 ) GLOBAL_UNCERTAINTY_ASSIGNED_CONTEXT ( ( #107 ) ) GLOBAL_UNIT_ASSIGNED_CONTEXT ( ( #183, #1, #15 ) ) REPRESENTATION_CONTEXT ( 'NONE', 'WORKASPACE' ) );
#225 = PRESENTATION_STYLE_ASSIGNMENT (( #100 ) ) ;
#226 = DIRECTION ( 'NONE',  ( 1.000000000000000000, 0.000000000000000000, 0.000000000000000000 ) ) ;
#227 = SURFACE_SIDE_STYLE ('',( #154 ) ) ;
#228 = CARTESIAN_POINT ( 'NONE',  ( -6.123233995736766036E-17, 2.500000000000000000, 0.000000000000000000 ) ) ;
#229 = AXIS2_PLACEMENT_3D ( 'NONE', #228, #37, #123 ) ;
#230 = PLANE ( 'NONE',  #197 ) ;
#231 = FILL_AREA_STYLE_COLOUR ( '', #70 ) ;
#232 = PRESENTATION_STYLE_ASSIGNMENT (( #78 ) ) ;
#233 = CARTESIAN_POINT ( 'NONE',  ( 2.176941369951209721E-16, 0.2165063509461090385, 0.000000000000000000 ) ) ;
#234 =( GEOMETRIC_REPRESENTATION_CONTEXT ( 3 ) GLOBAL_UNCERTAINTY_ASSIGNED_CONTEXT ( ( #84 ) ) GLOBAL_UNIT_ASSIGNED_CONTEXT ( ( #95, #58, #163 ) ) REPRESENTATION_CONTEXT ( 'NONE', 'WORKASPACE' ) );
#235 = LENGTH_MEASURE_WITH_UNIT ( LENGTH_MEASURE( 0.02539999999999999897 ), #167 );
#236 = DIRECTION ( 'NONE',  ( -1.000000000000000000, 0.000000000000000000, 0.000000000000000000 ) ) ;
#237 = SURFACE_SIDE_STYLE ('',( #64 ) ) ;
#238 = ORIENTED_EDGE ( 'NONE', *, *, #106, .T. ) ;
#239 = LINE ( 'NONE', #198, #92 ) ;
#240 = SURFACE_STYLE_FILL_AREA ( #18 ) ;
#241 = FACE_OUTER_BOUND ( 'NONE', #88, .T. ) ;
#242 = AXIS2_PLACEMENT_3D ( 'NONE', #203, #146, #195 ) ;
#243 = CARTESIAN_POINT ( 'NONE',  ( 0.1250000000000000000, 0.2165063509461089553, 1.530808498934191201E-17 ) ) ;
#244 = APPLICATION_PROTOCOL_DEFINITION ( 'draft international standard', 'automotive_design', 1998, #193 ) ;
#245 = SURFACE_STYLE_USAGE ( .BOTH. , #227 ) ;
#246 =( GEOMETRIC_REPRESENTATION_CONTEXT ( 3 ) GLOBAL_UNCERTAINTY_ASSIGNED_CONTEXT ( ( #65 ) ) GLOBAL_UNIT_ASSIGNED_CONTEXT ( ( #62, #189, #122 ) ) REPRESENTATION_CONTEXT ( 'NONE', 'WORKASPACE' ) );
#247 = DIRECTION ( 'NONE',  ( 0.000000000000000000, 1.000000000000000000, 0.000000000000000000 ) ) ;
#248 = LENGTH_MEASURE_WITH_UNIT ( LENGTH_MEASURE( 0.02539999999999999897 ), #79 );
#249 = EDGE_CURVE ( 'NONE', #8, #67, #188, .T. ) ;
#250 = FILL_AREA_STYLE ('',( #231 ) ) ;
#251 = PRESENTATION_LAYER_ASSIGNMENT (  '', '', ( #48 ) ) ;
#252 = CARTESIAN_POINT ( 'NONE',  ( 0.000000000000000000, 39.37007874015748143, 0.000000000000000000 ) ) ;
#253 = DIRECTION ( 'NONE',  ( -1.000000000000000000, 0.000000000000000000, 0.000000000000000000 ) ) ;
#254 = VERTEX_POINT ( 'NONE', #243 ) ;
#255 = AXIS2_PLACEMENT_3D ( 'NONE', #213, #180, #226 ) ;
#256 = FACE_OUTER_BOUND ( 'NONE', #200, .T. ) ;
#257 = EDGE_LOOP ( 'NONE', ( #150, #129 ) ) ;
#258 = CARTESIAN_POINT ( 'NONE',  ( 0.000000000000000000, 0.2165063509461090385, 0.1249999999999999861 ) ) ;
#259 = EDGE_LOOP ( 'NONE', ( #132, #69, #199 ) ) ;
#260 = EDGE_CURVE ( 'NONE', #176, #9, #121, .T. ) ;
#261 = EDGE_LOOP ( 'NONE', ( #93, #238, #157, #196 ) ) ;
#262 = FILL_AREA_STYLE ('',( #68 ) ) ;
#263 = APPLICATION_PROTOCOL_DEFINITION ( 'draft international standard', 'automotive_design', 1998, #110 ) ;
#264 = AXIS2_PLACEMENT_3D ( 'NONE', #223, #139, #204 ) ;
#265 = SURFACE_STYLE_FILL_AREA ( #22 ) ;
ENDSEC;
END-ISO-10303-21;
