ISO-10303-21;
HEADER;
FILE_DESCRIPTION (( 'STEP AP214' ),
    '1' );
FILE_NAME ('Micro_BEMM-200-4.STEP',
    '2021-09-03T13:38:28',
    ( '' ),
    ( '' ),
    'SwSTEP 2.0',
    'SolidWorks 2020',
    '' );
FILE_SCHEMA (( 'AUTOMOTIVE_DESIGN' ));
ENDSEC;

DATA;
#1 = CARTESIAN_POINT ( 'NONE',  ( 0.0000000000000000000, 0.0000000000000000000, 0.0000000000000000000 ) ) ;
#2 = VECTOR ( 'NONE', #100, 39.37007874015748143 ) ;
#3 = CARTESIAN_POINT ( 'NONE',  ( 0.0000000000000000000, 0.0000000000000000000, 4.094488000000000127 ) ) ;
#4 = DIRECTION ( 'NONE',  ( -0.0000000000000000000, -0.0000000000000000000, -1.000000000000000000 ) ) ;
#5 = DIRECTION ( 'NONE',  ( -1.000000000000000000, 0.0000000000000000000, 1.736458998224860770E-16 ) ) ;
#6 = ADVANCED_FACE ( 'NONE', ( #80 ), #269, .T. ) ;
#7 = CARTESIAN_POINT ( 'NONE',  ( 0.3787010000000002319, 4.729598184775070620E-17, 4.094488000000000127 ) ) ;
#8 = ORIENTED_EDGE ( 'NONE', *, *, #123, .F. ) ;
#9 = CARTESIAN_POINT ( 'NONE',  ( -0.3933072989999998326, 4.819035971363765199E-17, 1.771654000000000062 ) ) ;
#10 = EDGE_LOOP ( 'NONE', ( #101, #287, #43, #135 ) ) ;
#11 = DIRECTION ( 'NONE',  ( 0.0000000000000000000, 0.0000000000000000000, -1.000000000000000000 ) ) ;
#12 = ORIENTED_EDGE ( 'NONE', *, *, #103, .T. ) ;
#13 = CARTESIAN_POINT ( 'NONE',  ( -0.3937009999999999676, 0.0000000000000000000, 4.079488000000000447 ) ) ;
#14 = AXIS2_PLACEMENT_3D ( 'NONE', #60, #131, #250 ) ;
#15 = CARTESIAN_POINT ( 'NONE',  ( 2.169650400296604887E-16, 0.0000000000000000000, 1.771654000000000062 ) ) ;
#16 =( NAMED_UNIT ( * ) PLANE_ANGLE_UNIT ( ) SI_UNIT ( $, .RADIAN. ) );
#17 = ORIENTED_EDGE ( 'NONE', *, *, #54, .F. ) ;
#18 = ORIENTED_EDGE ( 'NONE', *, *, #145, .T. ) ;
#19 = LINE ( 'NONE', #41, #199 ) ;
#20 = CYLINDRICAL_SURFACE ( 'NONE', #71, 0.3933072989999999991 ) ;
#21 = CIRCLE ( 'NONE', #14, 0.3937009999999999676 ) ;
#22 = VERTEX_POINT ( 'NONE', #84 ) ;
#23 = ORIENTED_EDGE ( 'NONE', *, *, #24, .T. ) ;
#24 = EDGE_CURVE ( 'NONE', #170, #284, #210, .T. ) ;
#25 = EDGE_CURVE ( 'NONE', #122, #230, #45, .T. ) ;
#26 = CLOSED_SHELL ( 'NONE', ( #137, #246, #315, #292, #69, #117, #107, #46, #178, #6, #322 ) ) ;
#27 = AXIS2_PLACEMENT_3D ( 'NONE', #196, #33, #256 ) ;
#28 = EDGE_LOOP ( 'NONE', ( #297, #150, #132, #70 ) ) ;
#29 = DIRECTION ( 'NONE',  ( 0.0000000000000000000, 1.000000000000000000, 0.0000000000000000000 ) ) ;
#30 = AXIS2_PLACEMENT_3D ( 'NONE', #34, #29, #130 ) ;
#31 = ADVANCED_BREP_SHAPE_REPRESENTATION ( 'Micro_BEMM-200-4', ( #192, #90 ), #207 ) ;
#32 = LINE ( 'NONE', #152, #257 ) ;
#33 = DIRECTION ( 'NONE',  ( 1.224646799147353207E-16, 0.0000000000000000000, 1.000000000000000000 ) ) ;
#34 = CARTESIAN_POINT ( 'NONE',  ( 4.816625248016410340E-17, 0.0000000000000000000, 0.3933072989999999991 ) ) ;
#35 = ORIENTED_EDGE ( 'NONE', *, *, #65, .T. ) ;
#36 = ORIENTED_EDGE ( 'NONE', *, *, #219, .T. ) ;
#37 = COLOUR_RGB ( '',0.7921568627450980005, 0.8196078431372548767, 0.9333333333333333481 ) ;
#38 = FILL_AREA_STYLE ('',( #309 ) ) ;
#39 = EDGE_CURVE ( 'NONE', #284, #249, #307, .T. ) ;
#40 = ORIENTED_EDGE ( 'NONE', *, *, #301, .T. ) ;
#41 = CARTESIAN_POINT ( 'NONE',  ( -0.3933072989999998326, 4.816625248016410340E-17, 1.771654000000000062 ) ) ;
#42 = DIRECTION ( 'NONE',  ( 1.000000000000000000, 0.0000000000000000000, 0.0000000000000000000 ) ) ;
#43 = ORIENTED_EDGE ( 'NONE', *, *, #123, .T. ) ;
#44 = CARTESIAN_POINT ( 'NONE',  ( 7.224937872024614277E-17, 0.0000000000000000000, 0.0000000000000000000 ) ) ;
#45 = CIRCLE ( 'NONE', #186, 0.3933072989999999991 ) ;
#46 = ADVANCED_FACE ( 'NONE', ( #229 ), #176, .T. ) ;
#47 = DIMENSIONAL_EXPONENTS ( 1.000000000000000000, 0.0000000000000000000, 0.0000000000000000000, 0.0000000000000000000, 0.0000000000000000000, 0.0000000000000000000, 0.0000000000000000000 ) ;
#48 = SURFACE_SIDE_STYLE ('',( #296 ) ) ;
#49 = AXIS2_PLACEMENT_3D ( 'NONE', #3, #85, #88 ) ;
#50 = FILL_AREA_STYLE_COLOUR ( '', #37 ) ;
#51 = PRODUCT_RELATED_PRODUCT_CATEGORY ( 'part', '', ( #128 ) ) ;
#52 = CARTESIAN_POINT ( 'NONE',  ( 0.0000000000000000000, 0.0000000000000000000, 0.0000000000000000000 ) ) ;
#53 = CIRCLE ( 'NONE', #271, 0.3937009999999999676 ) ;
#54 = EDGE_CURVE ( 'NONE', #170, #59, #206, .T. ) ;
#55 = LINE ( 'NONE', #56, #265 ) ;
#56 = CARTESIAN_POINT ( 'NONE',  ( 0.3933072989999999991, 4.816625248016410340E-17, -4.816625248016410340E-17 ) ) ;
#57 = MECHANICAL_DESIGN_GEOMETRIC_PRESENTATION_REPRESENTATION (  '', ( #217 ), #216 ) ;
#58 = CYLINDRICAL_SURFACE ( 'NONE', #49, 0.3937009999999999676 ) ;
#59 = VERTEX_POINT ( 'NONE', #172 ) ;
#60 = CARTESIAN_POINT ( 'NONE',  ( 2.172384778595001935E-16, 0.0000000000000000000, 1.773886789323665392 ) ) ;
#61 = CARTESIAN_POINT ( 'NONE',  ( -0.3787010000000002319, 0.0000000000000000000, 4.094488000000000127 ) ) ;
#62 = SURFACE_STYLE_USAGE ( .BOTH. , #83 ) ;
#63 = VECTOR ( 'NONE', #112, 39.37007874015748143 ) ;
#64 = DIRECTION ( 'NONE',  ( 1.000000000000000000, 0.0000000000000000000, 0.0000000000000000000 ) ) ;
#65 = EDGE_CURVE ( 'NONE', #318, #234, #82, .T. ) ;
#66 = FACE_OUTER_BOUND ( 'NONE', #310, .T. ) ;
#67 = ORIENTED_EDGE ( 'NONE', *, *, #39, .F. ) ;
#68 = FACE_OUTER_BOUND ( 'NONE', #255, .T. ) ;
#69 = ADVANCED_FACE ( 'NONE', ( #189 ), #58, .T. ) ;
#70 = ORIENTED_EDGE ( 'NONE', *, *, #237, .T. ) ;
#71 = AXIS2_PLACEMENT_3D ( 'NONE', #236, #316, #289 ) ;
#72 = DIRECTION ( 'NONE',  ( 1.000000000000000000, 0.0000000000000000000, 0.0000000000000000000 ) ) ;
#73 = ORIENTED_EDGE ( 'NONE', *, *, #103, .F. ) ;
#74 = FACE_OUTER_BOUND ( 'NONE', #119, .T. ) ;
#75 = VERTEX_POINT ( 'NONE', #277 ) ;
#76 = APPLICATION_CONTEXT ( 'automotive_design' ) ;
#77 = PRESENTATION_LAYER_ASSIGNMENT (  '', '', ( #217 ) ) ;
#78 =( GEOMETRIC_REPRESENTATION_CONTEXT ( 3 ) GLOBAL_UNCERTAINTY_ASSIGNED_CONTEXT ( ( #81 ) ) GLOBAL_UNIT_ASSIGNED_CONTEXT ( ( #169, #79, #146 ) ) REPRESENTATION_CONTEXT ( 'NONE', 'WORKASPACE' ) );
#79 =( NAMED_UNIT ( * ) PLANE_ANGLE_UNIT ( ) SI_UNIT ( $, .RADIAN. ) );
#80 = FACE_OUTER_BOUND ( 'NONE', #179, .T. ) ;
#81 = UNCERTAINTY_MEASURE_WITH_UNIT (LENGTH_MEASURE( 1.000000000000000082E-05 ), #169, 'distance_accuracy_value', 'NONE');
#82 = CIRCLE ( 'NONE', #89, 0.3933072989999999991 ) ;
#83 = SURFACE_SIDE_STYLE ('',( #92 ) ) ;
#84 = CARTESIAN_POINT ( 'NONE',  ( 0.3933072990000000546, 4.816625248016410340E-17, 0.3933072989999999436 ) ) ;
#85 = DIRECTION ( 'NONE',  ( -0.0000000000000000000, -0.0000000000000000000, -1.000000000000000000 ) ) ;
#86 = EDGE_CURVE ( 'NONE', #122, #234, #32, .T. ) ;
#87 = EDGE_CURVE ( 'NONE', #249, #59, #53, .T. ) ;
#88 = DIRECTION ( 'NONE',  ( -1.000000000000000000, 0.0000000000000000000, 0.0000000000000000000 ) ) ;
#89 = AXIS2_PLACEMENT_3D ( 'NONE', #260, #151, #159 ) ;
#90 = AXIS2_PLACEMENT_3D ( 'NONE', #52, #325, #273 ) ;
#91 = DIRECTION ( 'NONE',  ( 1.224646799147353207E-16, 0.0000000000000000000, 1.000000000000000000 ) ) ;
#92 = SURFACE_STYLE_FILL_AREA ( #38 ) ;
#93 = EDGE_LOOP ( 'NONE', ( #99, #12, #140, #312 ) ) ;
#94 = DIRECTION ( 'NONE',  ( -1.000000000000000000, 0.0000000000000000000, 0.0000000000000000000 ) ) ;
#95 = PRESENTATION_LAYER_ASSIGNMENT (  '', '', ( #324 ) ) ;
#96 = CARTESIAN_POINT ( 'NONE',  ( -0.3937009999999999676, 0.0000000000000000000, 4.094488000000000127 ) ) ;
#97 = EDGE_LOOP ( 'NONE', ( #156, #35, #8 ) ) ;
#98 = ORIENTED_EDGE ( 'NONE', *, *, #145, .F. ) ;
#99 = ORIENTED_EDGE ( 'NONE', *, *, #301, .F. ) ;
#100 = DIRECTION ( 'NONE',  ( -0.7071067811865491270, 0.0000000000000000000, -0.7071067811865459074 ) ) ;
#101 = ORIENTED_EDGE ( 'NONE', *, *, #25, .T. ) ;
#102 = DIRECTION ( 'NONE',  ( -0.1736481776669311639, 2.126576849575782392E-17, 0.9848077530122080203 ) ) ;
#103 = EDGE_CURVE ( 'NONE', #59, #249, #161, .T. ) ;
#104 = CARTESIAN_POINT ( 'NONE',  ( 0.3937009999999999676, 4.821446694711121291E-17, 4.094488000000000127 ) ) ;
#105 = ORIENTED_EDGE ( 'NONE', *, *, #87, .T. ) ;
#106 = PRESENTATION_STYLE_ASSIGNMENT (( #295 ) ) ;
#107 = ADVANCED_FACE ( 'NONE', ( #302 ), #275, .T. ) ;
#108 = CARTESIAN_POINT ( 'NONE',  ( 0.0000000000000000000, 0.0000000000000000000, 4.079488000000000447 ) ) ;
#109 = DIRECTION ( 'NONE',  ( 1.224646799147353207E-16, 0.0000000000000000000, 1.000000000000000000 ) ) ;
#110 = LINE ( 'NONE', #226, #63 ) ;
#111 = CIRCLE ( 'NONE', #187, 0.3933072989999999991 ) ;
#112 = DIRECTION ( 'NONE',  ( 0.1736481776669313304, 0.0000000000000000000, 0.9848077530122077983 ) ) ;
#113 = AXIS2_PLACEMENT_3D ( 'NONE', #114, #208, #181 ) ;
#114 = CARTESIAN_POINT ( 'NONE',  ( 0.0000000000000000000, 0.0000000000000000000, 4.094488000000000127 ) ) ;
#115 = EDGE_CURVE ( 'NONE', #230, #22, #55, .T. ) ;
#116 = ORIENTED_EDGE ( 'NONE', *, *, #153, .T. ) ;
#117 = ADVANCED_FACE ( 'NONE', ( #126 ), #198, .T. ) ;
#118 = CARTESIAN_POINT ( 'NONE',  ( 2.169650400296604887E-16, 0.0000000000000000000, 1.771654000000000062 ) ) ;
#119 = EDGE_LOOP ( 'NONE', ( #240, #298, #262 ) ) ;
#120 = LINE ( 'NONE', #96, #253 ) ;
#121 = DIMENSIONAL_EXPONENTS ( 1.000000000000000000, 0.0000000000000000000, 0.0000000000000000000, 0.0000000000000000000, 0.0000000000000000000, 0.0000000000000000000, 0.0000000000000000000 ) ;
#122 = VERTEX_POINT ( 'NONE', #9 ) ;
#123 = EDGE_CURVE ( 'NONE', #22, #234, #220, .T. ) ;
#124 = VERTEX_POINT ( 'NONE', #177 ) ;
#125 = CONICAL_SURFACE ( 'NONE', #113, 0.3787010000000002319, 0.7853981633974506105 ) ;
#126 = FACE_OUTER_BOUND ( 'NONE', #93, .T. ) ;
#127 = AXIS2_PLACEMENT_3D ( 'NONE', #313, #285, #94 ) ;
#128 = PRODUCT ( 'Micro_BEMM-200-4', 'Micro_BEMM-200-4', '', ( #147 ) ) ;
#129 = CARTESIAN_POINT ( 'NONE',  ( 0.0000000000000000000, 0.0000000000000000000, 4.094488000000000127 ) ) ;
#130 = DIRECTION ( 'NONE',  ( 1.000000000000000000, 0.0000000000000000000, 0.0000000000000000000 ) ) ;
#131 = DIRECTION ( 'NONE',  ( -1.224646799147353207E-16, -0.0000000000000000000, -1.000000000000000000 ) ) ;
#132 = ORIENTED_EDGE ( 'NONE', *, *, #185, .T. ) ;
#133 = DIRECTION ( 'NONE',  ( -1.224646799147353207E-16, -0.0000000000000000000, -1.000000000000000000 ) ) ;
#134 = DIRECTION ( 'NONE',  ( 0.0000000000000000000, 0.0000000000000000000, 1.000000000000000000 ) ) ;
#135 = ORIENTED_EDGE ( 'NONE', *, *, #86, .F. ) ;
#136 = DIRECTION ( 'NONE',  ( -0.0000000000000000000, -0.0000000000000000000, -1.000000000000000000 ) ) ;
#137 = ADVANCED_FACE ( 'NONE', ( #223 ), #157, .T. ) ;
#138 = AXIS2_PLACEMENT_3D ( 'NONE', #317, #204, #64 ) ;
#139 = LENGTH_MEASURE_WITH_UNIT ( LENGTH_MEASURE( 0.02539999999999999897 ), #228 );
#140 = ORIENTED_EDGE ( 'NONE', *, *, #290, .T. ) ;
#141 = DIRECTION ( 'NONE',  ( -1.224646799147353207E-16, -0.0000000000000000000, -1.000000000000000000 ) ) ;
#142 = UNCERTAINTY_MEASURE_WITH_UNIT (LENGTH_MEASURE( 1.000000000000000082E-05 ), #258, 'distance_accuracy_value', 'NONE');
#143 = CIRCLE ( 'NONE', #276, 0.3933072989999999991 ) ;
#144 =( NAMED_UNIT ( * ) PLANE_ANGLE_UNIT ( ) SI_UNIT ( $, .RADIAN. ) );
#145 = EDGE_CURVE ( 'NONE', #75, #124, #21, .T. ) ;
#146 =( NAMED_UNIT ( * ) SI_UNIT ( $, .STERADIAN. ) SOLID_ANGLE_UNIT ( ) );
#147 = PRODUCT_CONTEXT ( 'NONE', #76, 'mechanical' ) ;
#148 = AXIS2_PLACEMENT_3D ( 'NONE', #173, #4, #254 ) ;
#149 = CARTESIAN_POINT ( 'NONE',  ( 0.3787010000000002319, 4.637749674839021182E-17, 4.094488000000000127 ) ) ;
#150 = ORIENTED_EDGE ( 'NONE', *, *, #288, .F. ) ;
#151 = DIRECTION ( 'NONE',  ( 1.224646799147353207E-16, 1.000000000000000000, -0.0000000000000000000 ) ) ;
#152 = CARTESIAN_POINT ( 'NONE',  ( -0.3933072989999999991, 0.0000000000000000000, 4.816625248016410340E-17 ) ) ;
#153 = EDGE_CURVE ( 'NONE', #234, #22, #193, .T. ) ;
#154 = AXIS2_PLACEMENT_3D ( 'NONE', #281, #109, #5 ) ;
#155 = CARTESIAN_POINT ( 'NONE',  ( 4.816625248016410340E-17, 0.0000000000000000000, 0.3933072989999999991 ) ) ;
#156 = ORIENTED_EDGE ( 'NONE', *, *, #215, .F. ) ;
#157 = SPHERICAL_SURFACE ( 'NONE', #30, 0.3933072989999999991 ) ;
#158 = PRESENTATION_STYLE_ASSIGNMENT (( #62 ) ) ;
#159 = DIRECTION ( 'NONE',  ( -1.000000000000000000, 1.224646799147353207E-16, 0.0000000000000000000 ) ) ;
#160 = ORIENTED_EDGE ( 'NONE', *, *, #263, .T. ) ;
#161 = CIRCLE ( 'NONE', #293, 0.3937009999999999676 ) ;
#162 = SPHERICAL_SURFACE ( 'NONE', #321, 0.3933072989999999991 ) ;
#163 = DIRECTION ( 'NONE',  ( -1.224646799147353207E-16, -0.0000000000000000000, -1.000000000000000000 ) ) ;
#164 =( NAMED_UNIT ( * ) SI_UNIT ( $, .STERADIAN. ) SOLID_ANGLE_UNIT ( ) );
#165 = AXIS2_PLACEMENT_3D ( 'NONE', #155, #91, #221 ) ;
#166 = CARTESIAN_POINT ( 'NONE',  ( 2.169650400296604887E-16, 0.0000000000000000000, 1.771654000000000062 ) ) ;
#167 = DIMENSIONAL_EXPONENTS ( 1.000000000000000000, 0.0000000000000000000, 0.0000000000000000000, 0.0000000000000000000, 0.0000000000000000000, 0.0000000000000000000, 0.0000000000000000000 ) ;
#168 = VECTOR ( 'NONE', #248, 39.37007874015748143 ) ;
#169 =( CONVERSION_BASED_UNIT ( 'INCH', #191 ) LENGTH_UNIT ( ) NAMED_UNIT ( #121 ) );
#170 = VERTEX_POINT ( 'NONE', #7 ) ;
#171 = CIRCLE ( 'NONE', #138, 0.3937009999999999676 ) ;
#172 = CARTESIAN_POINT ( 'NONE',  ( 0.3937009999999999676, 4.821446694711121291E-17, 4.079488000000000447 ) ) ;
#173 = CARTESIAN_POINT ( 'NONE',  ( 0.0000000000000000000, 0.0000000000000000000, 4.094488000000000127 ) ) ;
#174 = DIRECTION ( 'NONE',  ( -1.224646799147353207E-16, -0.0000000000000000000, -1.000000000000000000 ) ) ;
#175 = FACE_OUTER_BOUND ( 'NONE', #28, .T. ) ;
#176 = CONICAL_SURFACE ( 'NONE', #127, 0.3787010000000002319, 0.7853981633974506105 ) ;
#177 = CARTESIAN_POINT ( 'NONE',  ( 0.3937010000000001897, 4.821446694711123140E-17, 1.773886789323665392 ) ) ;
#178 = ADVANCED_FACE ( 'NONE', ( #175 ), #304, .T. ) ;
#179 = EDGE_LOOP ( 'NONE', ( #200, #314, #278, #116 ) ) ;
#180 = DIRECTION ( 'NONE',  ( 0.0000000000000000000, 0.0000000000000000000, 1.000000000000000000 ) ) ;
#181 = DIRECTION ( 'NONE',  ( -1.000000000000000000, 0.0000000000000000000, 0.0000000000000000000 ) ) ;
#182 = DIRECTION ( 'NONE',  ( 0.0000000000000000000, 0.0000000000000000000, 1.000000000000000000 ) ) ;
#183 = CARTESIAN_POINT ( 'NONE',  ( -0.3933072989999999436, 0.0000000000000000000, 0.3933072990000000546 ) ) ;
#184 = DIRECTION ( 'NONE',  ( 1.000000000000000000, 0.0000000000000000000, 0.0000000000000000000 ) ) ;
#185 = EDGE_CURVE ( 'NONE', #230, #124, #110, .T. ) ;
#186 = AXIS2_PLACEMENT_3D ( 'NONE', #15, #133, #251 ) ;
#187 = AXIS2_PLACEMENT_3D ( 'NONE', #118, #141, #239 ) ;
#188 = DIRECTION ( 'NONE',  ( -0.0000000000000000000, -0.0000000000000000000, -1.000000000000000000 ) ) ;
#189 = FACE_OUTER_BOUND ( 'NONE', #300, .T. ) ;
#190 = AXIS2_PLACEMENT_3D ( 'NONE', #129, #180, #274 ) ;
#191 = LENGTH_MEASURE_WITH_UNIT ( LENGTH_MEASURE( 0.02539999999999999897 ), #268 );
#192 = MANIFOLD_SOLID_BREP ( 'Fillet1', #26 ) ;
#193 = CIRCLE ( 'NONE', #154, 0.3933072989999999991 ) ;
#194 = DIRECTION ( 'NONE',  ( 1.000000000000000000, 0.0000000000000000000, 0.0000000000000000000 ) ) ;
#195 = CARTESIAN_POINT ( 'NONE',  ( 0.0000000000000000000, 0.0000000000000000000, 4.094488000000000127 ) ) ;
#196 = CARTESIAN_POINT ( 'NONE',  ( 2.169650400296604887E-16, 0.0000000000000000000, 1.771654000000000062 ) ) ;
#197 = AXIS2_PLACEMENT_3D ( 'NONE', #1, #163, #259 ) ;
#198 = CYLINDRICAL_SURFACE ( 'NONE', #148, 0.3937009999999999676 ) ;
#199 = VECTOR ( 'NONE', #102, 39.37007874015747433 ) ;
#200 = ORIENTED_EDGE ( 'NONE', *, *, #115, .F. ) ;
#201 = CARTESIAN_POINT ( 'NONE',  ( 4.816625248016410340E-17, 0.0000000000000000000, 0.3933072989999999991 ) ) ;
#202 = DIRECTION ( 'NONE',  ( 1.224646799147353207E-16, 0.0000000000000000000, 1.000000000000000000 ) ) ;
#203 = ORIENTED_EDGE ( 'NONE', *, *, #185, .F. ) ;
#204 = DIRECTION ( 'NONE',  ( -1.224646799147353207E-16, -0.0000000000000000000, -1.000000000000000000 ) ) ;
#205 = COLOUR_RGB ( '',0.7921568627450980005, 0.8196078431372548767, 0.9333333333333333481 ) ;
#206 = LINE ( 'NONE', #149, #168 ) ;
#207 =( GEOMETRIC_REPRESENTATION_CONTEXT ( 3 ) GLOBAL_UNCERTAINTY_ASSIGNED_CONTEXT ( ( #142 ) ) GLOBAL_UNIT_ASSIGNED_CONTEXT ( ( #258, #144, #218 ) ) REPRESENTATION_CONTEXT ( 'NONE', 'WORKASPACE' ) );
#208 = DIRECTION ( 'NONE',  ( 0.0000000000000000000, 0.0000000000000000000, -1.000000000000000000 ) ) ;
#209 =( LENGTH_UNIT ( ) NAMED_UNIT ( * ) SI_UNIT ( $, .METRE. ) );
#210 = CIRCLE ( 'NONE', #233, 0.3787010000000002319 ) ;
#211 = FILL_AREA_STYLE ('',( #50 ) ) ;
#212 = ORIENTED_EDGE ( 'NONE', *, *, #39, .T. ) ;
#213 = APPLICATION_CONTEXT ( 'automotive_design' ) ;
#214 = ORIENTED_EDGE ( 'NONE', *, *, #25, .F. ) ;
#215 = EDGE_CURVE ( 'NONE', #318, #22, #143, .T. ) ;
#216 =( GEOMETRIC_REPRESENTATION_CONTEXT ( 3 ) GLOBAL_UNCERTAINTY_ASSIGNED_CONTEXT ( ( #320 ) ) GLOBAL_UNIT_ASSIGNED_CONTEXT ( ( #232, #16, #164 ) ) REPRESENTATION_CONTEXT ( 'NONE', 'WORKASPACE' ) );
#217 = STYLED_ITEM ( 'NONE', ( #158 ), #192 ) ;
#218 =( NAMED_UNIT ( * ) SI_UNIT ( $, .STERADIAN. ) SOLID_ANGLE_UNIT ( ) );
#219 = EDGE_CURVE ( 'NONE', #284, #170, #241, .T. ) ;
#220 = CIRCLE ( 'NONE', #165, 0.3933072989999999991 ) ;
#221 = DIRECTION ( 'NONE',  ( -1.000000000000000000, 0.0000000000000000000, 1.736458998224860770E-16 ) ) ;
#222 = DIRECTION ( 'NONE',  ( -1.224646799147353207E-16, -0.0000000000000000000, -1.000000000000000000 ) ) ;
#223 = FACE_OUTER_BOUND ( 'NONE', #97, .T. ) ;
#224 = PRODUCT_DEFINITION_SHAPE ( 'NONE', 'NONE',  #299 ) ;
#225 = ORIENTED_EDGE ( 'NONE', *, *, #24, .F. ) ;
#226 = CARTESIAN_POINT ( 'NONE',  ( 0.3933072990000002211, 0.0000000000000000000, 1.771654000000000062 ) ) ;
#227 = MECHANICAL_DESIGN_GEOMETRIC_PRESENTATION_REPRESENTATION (  '', ( #324 ), #78 ) ;
#228 =( LENGTH_UNIT ( ) NAMED_UNIT ( * ) SI_UNIT ( $, .METRE. ) );
#229 = FACE_OUTER_BOUND ( 'NONE', #243, .T. ) ;
#230 = VERTEX_POINT ( 'NONE', #261 ) ;
#231 = ORIENTED_EDGE ( 'NONE', *, *, #54, .T. ) ;
#232 =( CONVERSION_BASED_UNIT ( 'INCH', #139 ) LENGTH_UNIT ( ) NAMED_UNIT ( #167 ) );
#233 = AXIS2_PLACEMENT_3D ( 'NONE', #195, #182, #42 ) ;
#234 = VERTEX_POINT ( 'NONE', #183 ) ;
#235 = VECTOR ( 'NONE', #188, 39.37007874015748143 ) ;
#236 = CARTESIAN_POINT ( 'NONE',  ( 0.0000000000000000000, 0.0000000000000000000, 0.0000000000000000000 ) ) ;
#237 = EDGE_CURVE ( 'NONE', #124, #75, #171, .T. ) ;
#238 = DIRECTION ( 'NONE',  ( 0.0000000000000000000, -1.000000000000000000, 0.0000000000000000000 ) ) ;
#239 = DIRECTION ( 'NONE',  ( -1.000000000000000000, 0.0000000000000000000, 0.0000000000000000000 ) ) ;
#240 = ORIENTED_EDGE ( 'NONE', *, *, #65, .F. ) ;
#241 = CIRCLE ( 'NONE', #283, 0.3787010000000002319 ) ;
#242 = PRODUCT_DEFINITION_CONTEXT ( 'detailed design', #213, 'design' ) ;
#243 = EDGE_LOOP ( 'NONE', ( #17, #308, #212, #73 ) ) ;
#244 = APPLICATION_PROTOCOL_DEFINITION ( 'draft international standard', 'automotive_design', 1998, #213 ) ;
#245 = SHAPE_DEFINITION_REPRESENTATION ( #224, #31 ) ;
#246 = ADVANCED_FACE ( 'NONE', ( #264 ), #20, .T. ) ;
#247 = APPLICATION_PROTOCOL_DEFINITION ( 'draft international standard', 'automotive_design', 1998, #76 ) ;
#248 = DIRECTION ( 'NONE',  ( 0.7071067811865491270, 8.659560562354952580E-17, -0.7071067811865459074 ) ) ;
#249 = VERTEX_POINT ( 'NONE', #13 ) ;
#250 = DIRECTION ( 'NONE',  ( 1.000000000000000000, 0.0000000000000000000, 0.0000000000000000000 ) ) ;
#251 = DIRECTION ( 'NONE',  ( -1.000000000000000000, 0.0000000000000000000, 0.0000000000000000000 ) ) ;
#252 = CARTESIAN_POINT ( 'NONE',  ( 0.0000000000000000000, 0.0000000000000000000, 4.079488000000000447 ) ) ;
#253 = VECTOR ( 'NONE', #136, 39.37007874015748143 ) ;
#254 = DIRECTION ( 'NONE',  ( -1.000000000000000000, 0.0000000000000000000, 0.0000000000000000000 ) ) ;
#255 = EDGE_LOOP ( 'NONE', ( #225, #231, #280, #67 ) ) ;
#256 = DIRECTION ( 'NONE',  ( 1.000000000000000000, 0.0000000000000000000, 0.0000000000000000000 ) ) ;
#257 = VECTOR ( 'NONE', #174, 39.37007874015748143 ) ;
#258 =( CONVERSION_BASED_UNIT ( 'INCH', #282 ) LENGTH_UNIT ( ) NAMED_UNIT ( #47 ) );
#259 = DIRECTION ( 'NONE',  ( -1.000000000000000000, 0.0000000000000000000, 1.224646799147353207E-16 ) ) ;
#260 = CARTESIAN_POINT ( 'NONE',  ( 4.816625248016410340E-17, 0.0000000000000000000, 0.3933072989999999991 ) ) ;
#261 = CARTESIAN_POINT ( 'NONE',  ( 0.3933072990000002211, 0.0000000000000000000, 1.771654000000000062 ) ) ;
#262 = ORIENTED_EDGE ( 'NONE', *, *, #153, .F. ) ;
#263 = EDGE_CURVE ( 'NONE', #122, #75, #19, .T. ) ;
#264 = FACE_OUTER_BOUND ( 'NONE', #10, .T. ) ;
#265 = VECTOR ( 'NONE', #222, 39.37007874015748143 ) ;
#266 = DIRECTION ( 'NONE',  ( 0.0000000000000000000, 1.000000000000000000, 0.0000000000000000000 ) ) ;
#267 = DIRECTION ( 'NONE',  ( 1.000000000000000000, 0.0000000000000000000, 0.0000000000000000000 ) ) ;
#268 =( LENGTH_UNIT ( ) NAMED_UNIT ( * ) SI_UNIT ( $, .METRE. ) );
#269 = CYLINDRICAL_SURFACE ( 'NONE', #197, 0.3933072989999999991 ) ;
#270 = ORIENTED_EDGE ( 'NONE', *, *, #290, .F. ) ;
#271 = AXIS2_PLACEMENT_3D ( 'NONE', #252, #303, #306 ) ;
#272 = CONICAL_SURFACE ( 'NONE', #305, 0.3933072989999999991, 0.1745329251994338360 ) ;
#273 = DIRECTION ( 'NONE',  ( 1.000000000000000000, 0.0000000000000000000, 0.0000000000000000000 ) ) ;
#274 = DIRECTION ( 'NONE',  ( 1.000000000000000000, 0.0000000000000000000, -0.0000000000000000000 ) ) ;
#275 = PLANE ( 'NONE',  #190 ) ;
#276 = AXIS2_PLACEMENT_3D ( 'NONE', #201, #238, #11 ) ;
#277 = CARTESIAN_POINT ( 'NONE',  ( -0.3937009999999998011, 0.0000000000000000000, 1.773886789323665392 ) ) ;
#278 = ORIENTED_EDGE ( 'NONE', *, *, #86, .T. ) ;
#279 = DIRECTION ( 'NONE',  ( 0.0000000000000000000, 0.0000000000000000000, -1.000000000000000000 ) ) ;
#280 = ORIENTED_EDGE ( 'NONE', *, *, #87, .F. ) ;
#281 = CARTESIAN_POINT ( 'NONE',  ( 4.816625248016410340E-17, 0.0000000000000000000, 0.3933072989999999991 ) ) ;
#282 = LENGTH_MEASURE_WITH_UNIT ( LENGTH_MEASURE( 0.02539999999999999897 ), #209 );
#283 = AXIS2_PLACEMENT_3D ( 'NONE', #311, #134, #184 ) ;
#284 = VERTEX_POINT ( 'NONE', #319 ) ;
#285 = DIRECTION ( 'NONE',  ( 0.0000000000000000000, 0.0000000000000000000, -1.000000000000000000 ) ) ;
#286 = LINE ( 'NONE', #104, #235 ) ;
#287 = ORIENTED_EDGE ( 'NONE', *, *, #115, .T. ) ;
#288 = EDGE_CURVE ( 'NONE', #230, #122, #111, .T. ) ;
#289 = DIRECTION ( 'NONE',  ( -1.000000000000000000, 0.0000000000000000000, 1.224646799147353207E-16 ) ) ;
#290 = EDGE_CURVE ( 'NONE', #249, #75, #120, .T. ) ;
#291 = CARTESIAN_POINT ( 'NONE',  ( 4.816625248016410340E-17, 0.0000000000000000000, 0.3933072989999999991 ) ) ;
#292 = ADVANCED_FACE ( 'NONE', ( #68 ), #125, .T. ) ;
#293 = AXIS2_PLACEMENT_3D ( 'NONE', #108, #279, #194 ) ;
#294 = PRODUCT_DEFINITION_FORMATION_WITH_SPECIFIED_SOURCE ( 'ANY', '', #128, .NOT_KNOWN. ) ;
#295 = SURFACE_STYLE_USAGE ( .BOTH. , #48 ) ;
#296 = SURFACE_STYLE_FILL_AREA ( #211 ) ;
#297 = ORIENTED_EDGE ( 'NONE', *, *, #263, .F. ) ;
#298 = ORIENTED_EDGE ( 'NONE', *, *, #215, .T. ) ;
#299 = PRODUCT_DEFINITION ( 'UNKNOWN', '', #294, #242 ) ;
#300 = EDGE_LOOP ( 'NONE', ( #105, #40, #98, #270 ) ) ;
#301 = EDGE_CURVE ( 'NONE', #59, #124, #286, .T. ) ;
#302 = FACE_OUTER_BOUND ( 'NONE', #323, .T. ) ;
#303 = DIRECTION ( 'NONE',  ( 0.0000000000000000000, 0.0000000000000000000, -1.000000000000000000 ) ) ;
#304 = CONICAL_SURFACE ( 'NONE', #27, 0.3933072989999999991, 0.1745329251994338360 ) ;
#305 = AXIS2_PLACEMENT_3D ( 'NONE', #166, #202, #72 ) ;
#306 = DIRECTION ( 'NONE',  ( 1.000000000000000000, 0.0000000000000000000, 0.0000000000000000000 ) ) ;
#307 = LINE ( 'NONE', #61, #2 ) ;
#308 = ORIENTED_EDGE ( 'NONE', *, *, #219, .F. ) ;
#309 = FILL_AREA_STYLE_COLOUR ( '', #205 ) ;
#310 = EDGE_LOOP ( 'NONE', ( #214, #160, #18, #203 ) ) ;
#311 = CARTESIAN_POINT ( 'NONE',  ( 0.0000000000000000000, 0.0000000000000000000, 4.094488000000000127 ) ) ;
#312 = ORIENTED_EDGE ( 'NONE', *, *, #237, .F. ) ;
#313 = CARTESIAN_POINT ( 'NONE',  ( 0.0000000000000000000, 0.0000000000000000000, 4.094488000000000127 ) ) ;
#314 = ORIENTED_EDGE ( 'NONE', *, *, #288, .T. ) ;
#315 = ADVANCED_FACE ( 'NONE', ( #66 ), #272, .T. ) ;
#316 = DIRECTION ( 'NONE',  ( -1.224646799147353207E-16, -0.0000000000000000000, -1.000000000000000000 ) ) ;
#317 = CARTESIAN_POINT ( 'NONE',  ( 2.172384778595001935E-16, 0.0000000000000000000, 1.773886789323665392 ) ) ;
#318 = VERTEX_POINT ( 'NONE', #44 ) ;
#319 = CARTESIAN_POINT ( 'NONE',  ( -0.3787010000000002319, 0.0000000000000000000, 4.094488000000000127 ) ) ;
#320 = UNCERTAINTY_MEASURE_WITH_UNIT (LENGTH_MEASURE( 1.000000000000000082E-05 ), #232, 'distance_accuracy_value', 'NONE');
#321 = AXIS2_PLACEMENT_3D ( 'NONE', #291, #266, #267 ) ;
#322 = ADVANCED_FACE ( 'NONE', ( #74 ), #162, .T. ) ;
#323 = EDGE_LOOP ( 'NONE', ( #36, #23 ) ) ;
#324 = STYLED_ITEM ( 'NONE', ( #106 ), #31 ) ;
#325 = DIRECTION ( 'NONE',  ( 0.0000000000000000000, 0.0000000000000000000, 1.000000000000000000 ) ) ;
ENDSEC;
END-ISO-10303-21;
