ISO-10303-21;
HEADER;
FILE_DESCRIPTION (( 'STEP AP214' ),
    '1' );
FILE_NAME ('59853W.STEP',
    '2023-06-22T23:41:36',
    ( '' ),
    ( '' ),
    'SwSTEP 2.0',
    'SolidWorks 2023',
    '' );
FILE_SCHEMA (( 'AUTOMOTIVE_DESIGN' ));
ENDSEC;

DATA;
#1 = EDGE_LOOP ( 'NONE', ( #228, #99, #77, #150 ) ) ;
#2 =( GEOMETRIC_REPRESENTATION_CONTEXT ( 3 ) GLOBAL_UNCERTAINTY_ASSIGNED_CONTEXT ( ( #51 ) ) GLOBAL_UNIT_ASSIGNED_CONTEXT ( ( #155, #270, #11 ) ) REPRESENTATION_CONTEXT ( 'NONE', 'WORKASPACE' ) );
#3 = SURFACE_STYLE_USAGE ( .BOTH. , #84 ) ;
#4 = CARTESIAN_POINT ( 'NONE',  ( 0.000000000000000000, 0.000000000000000000, 0.000000000000000000 ) ) ;
#5 =( LENGTH_UNIT ( ) NAMED_UNIT ( * ) SI_UNIT ( $, .METRE. ) );
#6 = AXIS2_PLACEMENT_3D ( 'NONE', #177, #226, #131 ) ;
#7 = MECHANICAL_DESIGN_GEOMETRIC_PRESENTATION_REPRESENTATION (  '', ( #103 ), #260 ) ;
#8 = EDGE_CURVE ( 'NONE', #78, #284, #81, .T. ) ;
#9 = DIRECTION ( 'NONE',  ( 0.000000000000000000, 0.000000000000000000, -1.000000000000000000 ) ) ;
#10 = SURFACE_SIDE_STYLE ('',( #250 ) ) ;
#11 =( NAMED_UNIT ( * ) SI_UNIT ( $, .STERADIAN. ) SOLID_ANGLE_UNIT ( ) );
#12 = ORIENTED_EDGE ( 'NONE', *, *, #281, .T. ) ;
#13 = AXIS2_PLACEMENT_3D ( 'NONE', #239, #300, #215 ) ;
#14 = DIRECTION ( 'NONE',  ( -0.000000000000000000, -1.000000000000000000, -0.000000000000000000 ) ) ;
#15 = DIRECTION ( 'NONE',  ( -5.156407575357275916E-17, 1.000000000000000000, -0.000000000000000000 ) ) ;
#16 = DIRECTION ( 'NONE',  ( 0.000000000000000000, 0.000000000000000000, -1.000000000000000000 ) ) ;
#17 = LENGTH_MEASURE_WITH_UNIT ( LENGTH_MEASURE( 0.02539999999999999897 ), #97 );
#18 = LINE ( 'NONE', #68, #288 ) ;
#19 = ADVANCED_FACE ( 'NONE', ( #65 ), #129, .T. ) ;
#20 = PRESENTATION_STYLE_ASSIGNMENT (( #280 ) ) ;
#21 = PLANE ( 'NONE',  #13 ) ;
#22 = CIRCLE ( 'NONE', #126, 0.3750000000000000555 ) ;
#23 = DIMENSIONAL_EXPONENTS ( 1.000000000000000000, 0.000000000000000000, 0.000000000000000000, 0.000000000000000000, 0.000000000000000000, 0.000000000000000000, 0.000000000000000000 ) ;
#24 = SURFACE_SIDE_STYLE ('',( #276 ) ) ;
#25 = FILL_AREA_STYLE_COLOUR ( '', #194 ) ;
#26 = MANIFOLD_SOLID_BREP ( 'Revolve - Tool Body (Straight Shanked)', #116 ) ;
#27 = EDGE_LOOP ( 'NONE', ( #143, #290 ) ) ;
#28 = LENGTH_MEASURE_WITH_UNIT ( LENGTH_MEASURE( 0.02539999999999999897 ), #96 );
#29 = ORIENTED_EDGE ( 'NONE', *, *, #127, .F. ) ;
#30 = EDGE_CURVE ( 'NONE', #147, #100, #188, .T. ) ;
#31 =( GEOMETRIC_REPRESENTATION_CONTEXT ( 3 ) GLOBAL_UNCERTAINTY_ASSIGNED_CONTEXT ( ( #279 ) ) GLOBAL_UNIT_ASSIGNED_CONTEXT ( ( #199, #151, #124 ) ) REPRESENTATION_CONTEXT ( 'NONE', 'WORKASPACE' ) );
#32 = DIRECTION ( 'NONE',  ( -1.000000000000000000, -5.156407575357275916E-17, 0.000000000000000000 ) ) ;
#33 = EDGE_LOOP ( 'NONE', ( #12, #41 ) ) ;
#34 = SURFACE_SIDE_STYLE ('',( #275 ) ) ;
#35 = SURFACE_STYLE_FILL_AREA ( #246 ) ;
#36 = EDGE_LOOP ( 'NONE', ( #121, #85 ) ) ;
#37 = PRESENTATION_LAYER_ASSIGNMENT (  '', '', ( #309 ) ) ;
#38 = LENGTH_MEASURE_WITH_UNIT ( LENGTH_MEASURE( 0.02539999999999999897 ), #5 );
#39 = FILL_AREA_STYLE_COLOUR ( '', #287 ) ;
#40 = LINE ( 'NONE', #204, #245 ) ;
#41 = ORIENTED_EDGE ( 'NONE', *, *, #197, .T. ) ;
#42 = CARTESIAN_POINT ( 'NONE',  ( 0.3750000000000000555, 4.000000000000000000, 4.592425496802576684E-17 ) ) ;
#43 = MECHANICAL_DESIGN_GEOMETRIC_PRESENTATION_REPRESENTATION (  '', ( #167 ), #66 ) ;
#44 = DIRECTION ( 'NONE',  ( -5.156407575357275299E-17, 1.000000000000000000, -0.000000000000000000 ) ) ;
#45 =( GEOMETRIC_REPRESENTATION_CONTEXT ( 3 ) GLOBAL_UNCERTAINTY_ASSIGNED_CONTEXT ( ( #73 ) ) GLOBAL_UNIT_ASSIGNED_CONTEXT ( ( #285, #289, #75 ) ) REPRESENTATION_CONTEXT ( 'NONE', 'WORKASPACE' ) );
#46 = SURFACE_STYLE_FILL_AREA ( #277 ) ;
#47 = CARTESIAN_POINT ( 'NONE',  ( 0.000000000000000000, 0.000000000000000000, 0.000000000000000000 ) ) ;
#48 = FACE_OUTER_BOUND ( 'NONE', #36, .T. ) ;
#49 = ADVANCED_FACE ( 'NONE', ( #48 ), #21, .F. ) ;
#50 = CARTESIAN_POINT ( 'NONE',  ( -1.224646799147352714E-16, 4.000000000000000000, 0.000000000000000000 ) ) ;
#51 = UNCERTAINTY_MEASURE_WITH_UNIT (LENGTH_MEASURE( 1.000000000000000082E-05 ), #155, 'distance_accuracy_value', 'NONE');
#52 = APPLICATION_CONTEXT ( 'automotive_design' ) ;
#53 = CARTESIAN_POINT ( 'NONE',  ( 3.032960542342103792E-32, 1.625000000000000000, 0.000000000000000000 ) ) ;
#54 = DIRECTION ( 'NONE',  ( 0.000000000000000000, 1.000000000000000000, 0.000000000000000000 ) ) ;
#55 = CIRCLE ( 'NONE', #217, 0.3750000000000000555 ) ;
#56 = STYLED_ITEM ( 'NONE', ( #269 ), #19 ) ;
#57 = VERTEX_POINT ( 'NONE', #184 ) ;
#58 = EDGE_CURVE ( 'NONE', #147, #57, #233, .T. ) ;
#59 = DIRECTION ( 'NONE',  ( 1.000000000000000000, 0.000000000000000000, 0.000000000000000000 ) ) ;
#60 = ORIENTED_EDGE ( 'NONE', *, *, #216, .T. ) ;
#61 = DIRECTION ( 'NONE',  ( -0.000000000000000000, -1.000000000000000000, -0.000000000000000000 ) ) ;
#62 = DIRECTION ( 'NONE',  ( -0.000000000000000000, -1.000000000000000000, -0.000000000000000000 ) ) ;
#63 = EDGE_CURVE ( 'NONE', #100, #147, #212, .T. ) ;
#64 = PRESENTATION_STYLE_ASSIGNMENT (( #3 ) ) ;
#65 = FACE_OUTER_BOUND ( 'NONE', #198, .T. ) ;
#66 =( GEOMETRIC_REPRESENTATION_CONTEXT ( 3 ) GLOBAL_UNCERTAINTY_ASSIGNED_CONTEXT ( ( #192 ) ) GLOBAL_UNIT_ASSIGNED_CONTEXT ( ( #193, #92, #146 ) ) REPRESENTATION_CONTEXT ( 'NONE', 'WORKASPACE' ) );
#67 = FILL_AREA_STYLE_COLOUR ( '', #182 ) ;
#68 = CARTESIAN_POINT ( 'NONE',  ( 0.3749999999999999445, 4.000000000000000000, 4.592425496802576068E-17 ) ) ;
#69 =( NAMED_UNIT ( * ) SI_UNIT ( $, .STERADIAN. ) SOLID_ANGLE_UNIT ( ) );
#70 = LINE ( 'NONE', #258, #156 ) ;
#71 =( GEOMETRIC_REPRESENTATION_CONTEXT ( 3 ) GLOBAL_UNCERTAINTY_ASSIGNED_CONTEXT ( ( #283 ) ) GLOBAL_UNIT_ASSIGNED_CONTEXT ( ( #109, #110, #69 ) ) REPRESENTATION_CONTEXT ( 'NONE', 'WORKASPACE' ) );
#72 = CARTESIAN_POINT ( 'NONE',  ( -1.224646799147352714E-16, 4.000000000000000000, 0.000000000000000000 ) ) ;
#73 = UNCERTAINTY_MEASURE_WITH_UNIT (LENGTH_MEASURE( 1.000000000000000082E-05 ), #285, 'distance_accuracy_value', 'NONE');
#74 = PRESENTATION_STYLE_ASSIGNMENT (( #301 ) ) ;
#75 =( NAMED_UNIT ( * ) SI_UNIT ( $, .STERADIAN. ) SOLID_ANGLE_UNIT ( ) );
#76 = COLOUR_RGB ( '',1.000000000000000000, 0.000000000000000000, 0.000000000000000000 ) ;
#77 = ORIENTED_EDGE ( 'NONE', *, *, #58, .T. ) ;
#78 = VERTEX_POINT ( 'NONE', #95 ) ;
#79 = CARTESIAN_POINT ( 'NONE',  ( 0.000000000000000000, 0.000000000000000000, -0.3750000000000000555 ) ) ;
#80 = ORIENTED_EDGE ( 'NONE', *, *, #281, .F. ) ;
#81 = CIRCLE ( 'NONE', #6, 0.3750000000000000555 ) ;
#82 = CARTESIAN_POINT ( 'NONE',  ( 0.000000000000000000, 1.625000000000000000, 0.000000000000000000 ) ) ;
#83 = SURFACE_STYLE_USAGE ( .BOTH. , #10 ) ;
#84 = SURFACE_SIDE_STYLE ('',( #273 ) ) ;
#85 = ORIENTED_EDGE ( 'NONE', *, *, #306, .T. ) ;
#86 = ORIENTED_EDGE ( 'NONE', *, *, #144, .T. ) ;
#87 = PRESENTATION_LAYER_ASSIGNMENT (  '', '', ( #103 ) ) ;
#88 = CARTESIAN_POINT ( 'NONE',  ( 0.000000000000000000, 0.000000000000000000, 0.000000000000000000 ) ) ;
#89 = EDGE_LOOP ( 'NONE', ( #29, #106 ) ) ;
#90 = CYLINDRICAL_SURFACE ( 'NONE', #240, 0.3750000000000001110 ) ;
#91 = FACE_OUTER_BOUND ( 'NONE', #247, .T. ) ;
#92 =( NAMED_UNIT ( * ) PLANE_ANGLE_UNIT ( ) SI_UNIT ( $, .RADIAN. ) );
#93 = VECTOR ( 'NONE', #15, 39.37007874015748143 ) ;
#94 = ADVANCED_FACE ( 'NONE', ( #187 ), #139, .T. ) ;
#95 = CARTESIAN_POINT ( 'NONE',  ( 4.592425496802575451E-17, 1.625000000000000000, 0.3750000000000000555 ) ) ;
#96 =( LENGTH_UNIT ( ) NAMED_UNIT ( * ) SI_UNIT ( $, .METRE. ) );
#97 =( LENGTH_UNIT ( ) NAMED_UNIT ( * ) SI_UNIT ( $, .METRE. ) );
#98 = AXIS2_PLACEMENT_3D ( 'NONE', #47, #189, #16 ) ;
#99 = ORIENTED_EDGE ( 'NONE', *, *, #63, .T. ) ;
#100 = VERTEX_POINT ( 'NONE', #252 ) ;
#101 = APPLICATION_PROTOCOL_DEFINITION ( 'draft international standard', 'automotive_design', 1998, #52 ) ;
#102 = COLOUR_RGB ( '',0.7921568627450980005, 0.8196078431372548767, 0.9333333333333333481 ) ;
#103 = STYLED_ITEM ( 'NONE', ( #20 ), #171 ) ;
#104 = VERTEX_POINT ( 'NONE', #79 ) ;
#105 = DIMENSIONAL_EXPONENTS ( 1.000000000000000000, 0.000000000000000000, 0.000000000000000000, 0.000000000000000000, 0.000000000000000000, 0.000000000000000000, 0.000000000000000000 ) ;
#106 = ORIENTED_EDGE ( 'NONE', *, *, #8, .F. ) ;
#107 = LENGTH_MEASURE_WITH_UNIT ( LENGTH_MEASURE( 0.02539999999999999897 ), #200 );
#108 = COLOUR_RGB ( '',1.000000000000000000, 0.000000000000000000, 0.000000000000000000 ) ;
#109 =( CONVERSION_BASED_UNIT ( 'INCH', #298 ) LENGTH_UNIT ( ) NAMED_UNIT ( #169 ) );
#110 =( NAMED_UNIT ( * ) PLANE_ANGLE_UNIT ( ) SI_UNIT ( $, .RADIAN. ) );
#111 = VERTEX_POINT ( 'NONE', #130 ) ;
#112 = CIRCLE ( 'NONE', #220, 0.3750000000000001665 ) ;
#113 = DIRECTION ( 'NONE',  ( -1.000000000000000000, 0.000000000000000000, 0.000000000000000000 ) ) ;
#114 = ADVANCED_FACE ( 'NONE', ( #274 ), #178, .F. ) ;
#115 = CARTESIAN_POINT ( 'NONE',  ( 0.000000000000000000, 0.000000000000000000, 0.000000000000000000 ) ) ;
#116 = CLOSED_SHELL ( 'NONE', ( #165, #114, #267, #49 ) ) ;
#117 = DIRECTION ( 'NONE',  ( 0.000000000000000000, 0.000000000000000000, -1.000000000000000000 ) ) ;
#118 = MECHANICAL_DESIGN_GEOMETRIC_PRESENTATION_REPRESENTATION (  '', ( #309 ), #2 ) ;
#119 = DIMENSIONAL_EXPONENTS ( 1.000000000000000000, 0.000000000000000000, 0.000000000000000000, 0.000000000000000000, 0.000000000000000000, 0.000000000000000000, 0.000000000000000000 ) ;
#120 = SHAPE_DEFINITION_REPRESENTATION ( #185, #241 ) ;
#121 = ORIENTED_EDGE ( 'NONE', *, *, #295, .T. ) ;
#122 = CARTESIAN_POINT ( 'NONE',  ( 4.985351078100356093E-34, 1.625000000000000000, 0.000000000000000000 ) ) ;
#123 = DIRECTION ( 'NONE',  ( -0.000000000000000000, -1.000000000000000000, -0.000000000000000000 ) ) ;
#124 =( NAMED_UNIT ( * ) SI_UNIT ( $, .STERADIAN. ) SOLID_ANGLE_UNIT ( ) );
#125 =( LENGTH_UNIT ( ) NAMED_UNIT ( * ) SI_UNIT ( $, .METRE. ) );
#126 = AXIS2_PLACEMENT_3D ( 'NONE', #115, #14, #117 ) ;
#127 = EDGE_CURVE ( 'NONE', #284, #78, #55, .T. ) ;
#128 = SURFACE_STYLE_USAGE ( .BOTH. , #153 ) ;
#129 = CYLINDRICAL_SURFACE ( 'NONE', #291, 0.3750000000000000555 ) ;
#130 = CARTESIAN_POINT ( 'NONE',  ( 4.592425496802575451E-17, 0.000000000000000000, 0.3750000000000000555 ) ) ;
#131 = DIRECTION ( 'NONE',  ( 0.000000000000000000, 0.000000000000000000, -1.000000000000000000 ) ) ;
#132 = MANIFOLD_SOLID_BREP ( 'Revolve - Cutting Edge', #308 ) ;
#133 = PRODUCT ( '59853W', '59853W', '', ( #261 ) ) ;
#134 = CARTESIAN_POINT ( 'NONE',  ( -1.224646799147352714E-16, 4.000000000000000000, 0.000000000000000000 ) ) ;
#135 = AXIS2_PLACEMENT_3D ( 'NONE', #207, #136, #163 ) ;
#136 = DIRECTION ( 'NONE',  ( -5.156407575357275299E-17, 1.000000000000000000, -0.000000000000000000 ) ) ;
#137 = DIRECTION ( 'NONE',  ( -1.000000000000000000, 0.000000000000000000, 0.000000000000000000 ) ) ;
#138 = DIRECTION ( 'NONE',  ( -5.156407575357275916E-17, 1.000000000000000000, -0.000000000000000000 ) ) ;
#139 = CYLINDRICAL_SURFACE ( 'NONE', #149, 0.3750000000000000555 ) ;
#140 = MECHANICAL_DESIGN_GEOMETRIC_PRESENTATION_REPRESENTATION (  '', ( #244 ), #304 ) ;
#141 =( NAMED_UNIT ( * ) PLANE_ANGLE_UNIT ( ) SI_UNIT ( $, .RADIAN. ) );
#142 = MECHANICAL_DESIGN_GEOMETRIC_PRESENTATION_REPRESENTATION (  '', ( #236 ), #31 ) ;
#143 = ORIENTED_EDGE ( 'NONE', *, *, #30, .F. ) ;
#144 = EDGE_CURVE ( 'NONE', #78, #111, #40, .T. ) ;
#145 = UNCERTAINTY_MEASURE_WITH_UNIT (LENGTH_MEASURE( 1.000000000000000082E-05 ), #203, 'distance_accuracy_value', 'NONE');
#146 =( NAMED_UNIT ( * ) SI_UNIT ( $, .STERADIAN. ) SOLID_ANGLE_UNIT ( ) );
#147 = VERTEX_POINT ( 'NONE', #294 ) ;
#148 = FILL_AREA_STYLE_COLOUR ( '', #76 ) ;
#149 = AXIS2_PLACEMENT_3D ( 'NONE', #201, #62, #9 ) ;
#150 = ORIENTED_EDGE ( 'NONE', *, *, #306, .F. ) ;
#151 =( NAMED_UNIT ( * ) PLANE_ANGLE_UNIT ( ) SI_UNIT ( $, .RADIAN. ) );
#152 = SURFACE_STYLE_USAGE ( .BOTH. , #34 ) ;
#153 = SURFACE_SIDE_STYLE ('',( #35 ) ) ;
#154 = EDGE_LOOP ( 'NONE', ( #263, #86, #80, #286 ) ) ;
#155 =( CONVERSION_BASED_UNIT ( 'INCH', #225 ) LENGTH_UNIT ( ) NAMED_UNIT ( #190 ) );
#156 = VECTOR ( 'NONE', #209, 39.37007874015748143 ) ;
#157 = DIRECTION ( 'NONE',  ( -5.156407575357275916E-17, 1.000000000000000000, 0.000000000000000000 ) ) ;
#158 = CYLINDRICAL_SURFACE ( 'NONE', #266, 0.3750000000000001110 ) ;
#159 = FACE_OUTER_BOUND ( 'NONE', #33, .T. ) ;
#160 = PRODUCT_DEFINITION_CONTEXT ( 'detailed design', #52, 'design' ) ;
#161 = ADVANCED_FACE ( 'NONE', ( #293 ), #221, .T. ) ;
#162 = FILL_AREA_STYLE ('',( #186 ) ) ;
#163 = DIRECTION ( 'NONE',  ( -1.000000000000000000, 0.000000000000000000, 0.000000000000000000 ) ) ;
#164 =( NAMED_UNIT ( * ) SI_UNIT ( $, .STERADIAN. ) SOLID_ANGLE_UNIT ( ) );
#165 = ADVANCED_FACE ( 'NONE', ( #91 ), #90, .T. ) ;
#166 =( CONVERSION_BASED_UNIT ( 'INCH', #234 ) LENGTH_UNIT ( ) NAMED_UNIT ( #237 ) );
#167 = STYLED_ITEM ( 'NONE', ( #74 ), #94 ) ;
#168 = APPLICATION_PROTOCOL_DEFINITION ( 'draft international standard', 'automotive_design', 1998, #272 ) ;
#169 = DIMENSIONAL_EXPONENTS ( 1.000000000000000000, 0.000000000000000000, 0.000000000000000000, 0.000000000000000000, 0.000000000000000000, 0.000000000000000000, 0.000000000000000000 ) ;
#170 = UNCERTAINTY_MEASURE_WITH_UNIT (LENGTH_MEASURE( 1.000000000000000082E-05 ), #166, 'distance_accuracy_value', 'NONE');
#171 = ADVANCED_FACE ( 'NONE', ( #159 ), #211, .T. ) ;
#172 = VERTEX_POINT ( 'NONE', #42 ) ;
#173 = ORIENTED_EDGE ( 'NONE', *, *, #262, .T. ) ;
#174 = DIRECTION ( 'NONE',  ( -0.000000000000000000, -1.000000000000000000, -0.000000000000000000 ) ) ;
#175 = ORIENTED_EDGE ( 'NONE', *, *, #30, .T. ) ;
#176 = AXIS2_PLACEMENT_3D ( 'NONE', #251, #307, #259 ) ;
#177 = CARTESIAN_POINT ( 'NONE',  ( 0.000000000000000000, 1.625000000000000000, 0.000000000000000000 ) ) ;
#178 = PLANE ( 'NONE',  #257 ) ;
#179 = PRESENTATION_LAYER_ASSIGNMENT (  '', '', ( #56 ) ) ;
#180 =( LENGTH_UNIT ( ) NAMED_UNIT ( * ) SI_UNIT ( $, .METRE. ) );
#181 = PRESENTATION_LAYER_ASSIGNMENT (  '', '', ( #167 ) ) ;
#182 = COLOUR_RGB ( '',0.7921568627450980005, 0.8196078431372548767, 0.9333333333333333481 ) ;
#183 = ORIENTED_EDGE ( 'NONE', *, *, #197, .F. ) ;
#184 = CARTESIAN_POINT ( 'NONE',  ( -0.3750000000000002776, 4.000000000000000000, 0.000000000000000000 ) ) ;
#185 = PRODUCT_DEFINITION_SHAPE ( 'NONE', 'NONE',  #227 ) ;
#186 = FILL_AREA_STYLE_COLOUR ( '', #108 ) ;
#187 = FACE_OUTER_BOUND ( 'NONE', #154, .T. ) ;
#188 = CIRCLE ( 'NONE', #176, 0.3750000000000000555 ) ;
#189 = DIRECTION ( 'NONE',  ( -0.000000000000000000, -1.000000000000000000, -0.000000000000000000 ) ) ;
#190 = DIMENSIONAL_EXPONENTS ( 1.000000000000000000, 0.000000000000000000, 0.000000000000000000, 0.000000000000000000, 0.000000000000000000, 0.000000000000000000, 0.000000000000000000 ) ;
#191 = DIRECTION ( 'NONE',  ( 0.000000000000000000, -0.000000000000000000, 1.000000000000000000 ) ) ;
#192 = UNCERTAINTY_MEASURE_WITH_UNIT (LENGTH_MEASURE( 1.000000000000000082E-05 ), #193, 'distance_accuracy_value', 'NONE');
#193 =( CONVERSION_BASED_UNIT ( 'INCH', #17 ) LENGTH_UNIT ( ) NAMED_UNIT ( #119 ) );
#194 = COLOUR_RGB ( '',1.000000000000000000, 0.000000000000000000, 0.000000000000000000 ) ;
#195 = ORIENTED_EDGE ( 'NONE', *, *, #295, .F. ) ;
#196 = CIRCLE ( 'NONE', #135, 0.3750000000000001665 ) ;
#197 = EDGE_CURVE ( 'NONE', #111, #104, #230, .T. ) ;
#198 = EDGE_LOOP ( 'NONE', ( #218, #265, #60, #183 ) ) ;
#199 =( CONVERSION_BASED_UNIT ( 'INCH', #38 ) LENGTH_UNIT ( ) NAMED_UNIT ( #214 ) );
#200 =( LENGTH_UNIT ( ) NAMED_UNIT ( * ) SI_UNIT ( $, .METRE. ) );
#201 = CARTESIAN_POINT ( 'NONE',  ( 0.000000000000000000, 0.000000000000000000, 0.000000000000000000 ) ) ;
#202 = AXIS2_PLACEMENT_3D ( 'NONE', #243, #242, #59 ) ;
#203 =( CONVERSION_BASED_UNIT ( 'INCH', #107 ) LENGTH_UNIT ( ) NAMED_UNIT ( #105 ) );
#204 = CARTESIAN_POINT ( 'NONE',  ( 4.592425496802575451E-17, 0.000000000000000000, 0.3750000000000000555 ) ) ;
#205 = FILL_AREA_STYLE ('',( #39 ) ) ;
#206 = FILL_AREA_STYLE_COLOUR ( '', #102 ) ;
#207 = CARTESIAN_POINT ( 'NONE',  ( -1.224646799147352714E-16, 4.000000000000000000, 0.000000000000000000 ) ) ;
#208 = PRODUCT_RELATED_PRODUCT_CATEGORY ( 'part', '', ( #133 ) ) ;
#209 = DIRECTION ( 'NONE',  ( -0.000000000000000000, -1.000000000000000000, -0.000000000000000000 ) ) ;
#210 = DIRECTION ( 'NONE',  ( -1.000000000000000000, 0.000000000000000000, 0.000000000000000000 ) ) ;
#211 = PLANE ( 'NONE',  #264 ) ;
#212 = CIRCLE ( 'NONE', #282, 0.3750000000000000555 ) ;
#213 = DIRECTION ( 'NONE',  ( -5.156407575357275299E-17, 1.000000000000000000, -0.000000000000000000 ) ) ;
#214 = DIMENSIONAL_EXPONENTS ( 1.000000000000000000, 0.000000000000000000, 0.000000000000000000, 0.000000000000000000, 0.000000000000000000, 0.000000000000000000, 0.000000000000000000 ) ;
#215 = DIRECTION ( 'NONE',  ( 1.000000000000000000, 5.156407575357275916E-17, 0.000000000000000000 ) ) ;
#216 = EDGE_CURVE ( 'NONE', #284, #104, #70, .T. ) ;
#217 = AXIS2_PLACEMENT_3D ( 'NONE', #82, #174, #296 ) ;
#218 = ORIENTED_EDGE ( 'NONE', *, *, #144, .F. ) ;
#219 = AXIS2_PLACEMENT_3D ( 'NONE', #299, #54, #191 ) ;
#220 = AXIS2_PLACEMENT_3D ( 'NONE', #50, #232, #113 ) ;
#221 = PLANE ( 'NONE',  #219 ) ;
#222 = PRESENTATION_STYLE_ASSIGNMENT (( #152 ) ) ;
#223 = ORIENTED_EDGE ( 'NONE', *, *, #58, .F. ) ;
#224 = MECHANICAL_DESIGN_GEOMETRIC_PRESENTATION_REPRESENTATION (  '', ( #56 ), #71 ) ;
#225 = LENGTH_MEASURE_WITH_UNIT ( LENGTH_MEASURE( 0.02539999999999999897 ), #125 );
#226 = DIRECTION ( 'NONE',  ( -0.000000000000000000, -1.000000000000000000, -0.000000000000000000 ) ) ;
#227 = PRODUCT_DEFINITION ( 'UNKNOWN', '', #231, #160 ) ;
#228 = ORIENTED_EDGE ( 'NONE', *, *, #262, .F. ) ;
#229 =( LENGTH_UNIT ( ) NAMED_UNIT ( * ) SI_UNIT ( $, .METRE. ) );
#230 = CIRCLE ( 'NONE', #98, 0.3750000000000000555 ) ;
#231 = PRODUCT_DEFINITION_FORMATION_WITH_SPECIFIED_SOURCE ( 'ANY', '', #133, .NOT_KNOWN. ) ;
#232 = DIRECTION ( 'NONE',  ( -5.156407575357275299E-17, 1.000000000000000000, -0.000000000000000000 ) ) ;
#233 = LINE ( 'NONE', #303, #93 ) ;
#234 = LENGTH_MEASURE_WITH_UNIT ( LENGTH_MEASURE( 0.02539999999999999897 ), #229 );
#235 = FACE_OUTER_BOUND ( 'NONE', #1, .T. ) ;
#236 = STYLED_ITEM ( 'NONE', ( #64 ), #161 ) ;
#237 = DIMENSIONAL_EXPONENTS ( 1.000000000000000000, 0.000000000000000000, 0.000000000000000000, 0.000000000000000000, 0.000000000000000000, 0.000000000000000000, 0.000000000000000000 ) ;
#238 = DIRECTION ( 'NONE',  ( 0.000000000000000000, -1.000000000000000000, -0.000000000000000000 ) ) ;
#239 = CARTESIAN_POINT ( 'NONE',  ( 0.3750000000000000555, 4.000000000000000000, 0.000000000000000000 ) ) ;
#240 = AXIS2_PLACEMENT_3D ( 'NONE', #72, #213, #253 ) ;
#241 = ADVANCED_BREP_SHAPE_REPRESENTATION ( '59853W', ( #132, #26, #202 ), #45 ) ;
#242 = DIRECTION ( 'NONE',  ( 0.000000000000000000, 0.000000000000000000, 1.000000000000000000 ) ) ;
#243 = CARTESIAN_POINT ( 'NONE',  ( 0.000000000000000000, 0.000000000000000000, 0.000000000000000000 ) ) ;
#244 = STYLED_ITEM ( 'NONE', ( #222 ), #26 ) ;
#245 = VECTOR ( 'NONE', #61, 39.37007874015748143 ) ;
#246 = FILL_AREA_STYLE ('',( #67 ) ) ;
#247 = EDGE_LOOP ( 'NONE', ( #175, #173, #195, #223 ) ) ;
#248 = DIRECTION ( 'NONE',  ( 0.000000000000000000, 0.000000000000000000, -1.000000000000000000 ) ) ;
#249 = PRESENTATION_STYLE_ASSIGNMENT (( #128 ) ) ;
#250 = SURFACE_STYLE_FILL_AREA ( #205 ) ;
#251 = CARTESIAN_POINT ( 'NONE',  ( 3.032960542342103792E-32, 1.625000000000000000, 0.000000000000000000 ) ) ;
#252 = CARTESIAN_POINT ( 'NONE',  ( 0.3750000000000000555, 1.625000000000000000, 4.592425496802576684E-17 ) ) ;
#253 = DIRECTION ( 'NONE',  ( -1.000000000000000000, 0.000000000000000000, 0.000000000000000000 ) ) ;
#254 =( NAMED_UNIT ( * ) SI_UNIT ( $, .STERADIAN. ) SOLID_ANGLE_UNIT ( ) );
#255 = PRESENTATION_LAYER_ASSIGNMENT (  '', '', ( #244 ) ) ;
#256 = DIRECTION ( 'NONE',  ( -5.156407575357275299E-17, 1.000000000000000000, -0.000000000000000000 ) ) ;
#257 = AXIS2_PLACEMENT_3D ( 'NONE', #122, #157, #32 ) ;
#258 = CARTESIAN_POINT ( 'NONE',  ( 0.000000000000000000, 0.000000000000000000, -0.3750000000000000555 ) ) ;
#259 = DIRECTION ( 'NONE',  ( -1.000000000000000000, 0.000000000000000000, 0.000000000000000000 ) ) ;
#260 =( GEOMETRIC_REPRESENTATION_CONTEXT ( 3 ) GLOBAL_UNCERTAINTY_ASSIGNED_CONTEXT ( ( #170 ) ) GLOBAL_UNIT_ASSIGNED_CONTEXT ( ( #166, #141, #254 ) ) REPRESENTATION_CONTEXT ( 'NONE', 'WORKASPACE' ) );
#261 = PRODUCT_CONTEXT ( 'NONE', #272, 'mechanical' ) ;
#262 = EDGE_CURVE ( 'NONE', #100, #172, #18, .T. ) ;
#263 = ORIENTED_EDGE ( 'NONE', *, *, #127, .T. ) ;
#264 = AXIS2_PLACEMENT_3D ( 'NONE', #88, #238, #302 ) ;
#265 = ORIENTED_EDGE ( 'NONE', *, *, #8, .T. ) ;
#266 = AXIS2_PLACEMENT_3D ( 'NONE', #134, #44, #137 ) ;
#267 = ADVANCED_FACE ( 'NONE', ( #235 ), #158, .T. ) ;
#268 = FILL_AREA_STYLE ('',( #148 ) ) ;
#269 = PRESENTATION_STYLE_ASSIGNMENT (( #83 ) ) ;
#270 =( NAMED_UNIT ( * ) PLANE_ANGLE_UNIT ( ) SI_UNIT ( $, .RADIAN. ) );
#271 =( NAMED_UNIT ( * ) PLANE_ANGLE_UNIT ( ) SI_UNIT ( $, .RADIAN. ) );
#272 = APPLICATION_CONTEXT ( 'automotive_design' ) ;
#273 = SURFACE_STYLE_FILL_AREA ( #268 ) ;
#274 = FACE_OUTER_BOUND ( 'NONE', #27, .T. ) ;
#275 = SURFACE_STYLE_FILL_AREA ( #297 ) ;
#276 = SURFACE_STYLE_FILL_AREA ( #162 ) ;
#277 = FILL_AREA_STYLE ('',( #25 ) ) ;
#278 = CARTESIAN_POINT ( 'NONE',  ( 0.000000000000000000, 1.625000000000000000, -0.3750000000000000555 ) ) ;
#279 = UNCERTAINTY_MEASURE_WITH_UNIT (LENGTH_MEASURE( 1.000000000000000082E-05 ), #199, 'distance_accuracy_value', 'NONE');
#280 = SURFACE_STYLE_USAGE ( .BOTH. , #24 ) ;
#281 = EDGE_CURVE ( 'NONE', #104, #111, #22, .T. ) ;
#282 = AXIS2_PLACEMENT_3D ( 'NONE', #53, #256, #210 ) ;
#283 = UNCERTAINTY_MEASURE_WITH_UNIT (LENGTH_MEASURE( 1.000000000000000082E-05 ), #109, 'distance_accuracy_value', 'NONE');
#284 = VERTEX_POINT ( 'NONE', #278 ) ;
#285 =( CONVERSION_BASED_UNIT ( 'INCH', #28 ) LENGTH_UNIT ( ) NAMED_UNIT ( #23 ) );
#286 = ORIENTED_EDGE ( 'NONE', *, *, #216, .F. ) ;
#287 = COLOUR_RGB ( '',1.000000000000000000, 0.000000000000000000, 0.000000000000000000 ) ;
#288 = VECTOR ( 'NONE', #138, 39.37007874015748143 ) ;
#289 =( NAMED_UNIT ( * ) PLANE_ANGLE_UNIT ( ) SI_UNIT ( $, .RADIAN. ) );
#290 = ORIENTED_EDGE ( 'NONE', *, *, #63, .F. ) ;
#291 = AXIS2_PLACEMENT_3D ( 'NONE', #4, #123, #248 ) ;
#292 = PRESENTATION_LAYER_ASSIGNMENT (  '', '', ( #236 ) ) ;
#293 = FACE_OUTER_BOUND ( 'NONE', #89, .T. ) ;
#294 = CARTESIAN_POINT ( 'NONE',  ( -0.3750000000000000555, 1.625000000000000000, 0.000000000000000000 ) ) ;
#295 = EDGE_CURVE ( 'NONE', #57, #172, #196, .T. ) ;
#296 = DIRECTION ( 'NONE',  ( 0.000000000000000000, 0.000000000000000000, -1.000000000000000000 ) ) ;
#297 = FILL_AREA_STYLE ('',( #206 ) ) ;
#298 = LENGTH_MEASURE_WITH_UNIT ( LENGTH_MEASURE( 0.02539999999999999897 ), #180 );
#299 = CARTESIAN_POINT ( 'NONE',  ( 0.000000000000000000, 1.625000000000000000, 0.000000000000000000 ) ) ;
#300 = DIRECTION ( 'NONE',  ( 5.156407575357275916E-17, -1.000000000000000000, 0.000000000000000000 ) ) ;
#301 = SURFACE_STYLE_USAGE ( .BOTH. , #305 ) ;
#302 = DIRECTION ( 'NONE',  ( 0.000000000000000000, 0.000000000000000000, -1.000000000000000000 ) ) ;
#303 = CARTESIAN_POINT ( 'NONE',  ( -0.3750000000000002220, 4.000000000000000000, 0.000000000000000000 ) ) ;
#304 =( GEOMETRIC_REPRESENTATION_CONTEXT ( 3 ) GLOBAL_UNCERTAINTY_ASSIGNED_CONTEXT ( ( #145 ) ) GLOBAL_UNIT_ASSIGNED_CONTEXT ( ( #203, #271, #164 ) ) REPRESENTATION_CONTEXT ( 'NONE', 'WORKASPACE' ) );
#305 = SURFACE_SIDE_STYLE ('',( #46 ) ) ;
#306 = EDGE_CURVE ( 'NONE', #172, #57, #112, .T. ) ;
#307 = DIRECTION ( 'NONE',  ( -5.156407575357275299E-17, 1.000000000000000000, -0.000000000000000000 ) ) ;
#308 = CLOSED_SHELL ( 'NONE', ( #94, #161, #19, #171 ) ) ;
#309 = STYLED_ITEM ( 'NONE', ( #249 ), #132 ) ;
ENDSEC;
END-ISO-10303-21;
