ISO-10303-21;
HEADER;
FILE_DESCRIPTION (( 'STEP AP214' ),
    '1' );
FILE_NAME ('59499.STEP',
    '2023-07-24T15:48:05',
    ( '' ),
    ( '' ),
    'SwSTEP 2.0',
    'SolidWorks 2023',
    '' );
FILE_SCHEMA (( 'AUTOMOTIVE_DESIGN' ));
ENDSEC;

DATA;
#1 = SURFACE_STYLE_USAGE ( .BOTH. , #201 ) ;
#2 =( LENGTH_UNIT ( ) NAMED_UNIT ( * ) SI_UNIT ( .MILLI., .METRE. ) );
#3 = AXIS2_PLACEMENT_3D ( 'NONE', #187, #80, #163 ) ;
#4 =( NAMED_UNIT ( * ) SI_UNIT ( $, .STERADIAN. ) SOLID_ANGLE_UNIT ( ) );
#5 =( LENGTH_UNIT ( ) NAMED_UNIT ( * ) SI_UNIT ( .MILLI., .METRE. ) );
#6 = UNCERTAINTY_MEASURE_WITH_UNIT (LENGTH_MEASURE( 1.000000000000000082E-05 ), #202, 'distance_accuracy_value', 'NONE');
#7 = LINE ( 'NONE', #273, #254 ) ;
#8 = FACE_OUTER_BOUND ( 'NONE', #87, .T. ) ;
#9 = COLOUR_RGB ( '',0.7921568627450980005, 0.8196078431372548767, 0.9333333333333333481 ) ;
#10 = DIRECTION ( 'NONE',  ( 1.360718665719280903E-16, 1.000000000000000000, -0.000000000000000000 ) ) ;
#11 = CARTESIAN_POINT ( 'NONE',  ( 0.000000000000000000, 30.00000000000000000, -6.000000000000000000 ) ) ;
#12 =( NAMED_UNIT ( * ) SI_UNIT ( $, .STERADIAN. ) SOLID_ANGLE_UNIT ( ) );
#13 = SURFACE_STYLE_USAGE ( .BOTH. , #209 ) ;
#14 = MECHANICAL_DESIGN_GEOMETRIC_PRESENTATION_REPRESENTATION (  '', ( #24 ), #99 ) ;
#15 = DIRECTION ( 'NONE',  ( -1.000000000000000000, 0.000000000000000000, 0.000000000000000000 ) ) ;
#16 = EDGE_LOOP ( 'NONE', ( #90, #64 ) ) ;
#17 = DIRECTION ( 'NONE',  ( 1.360718665719280903E-16, 1.000000000000000000, -0.000000000000000000 ) ) ;
#18 = FILL_AREA_STYLE_COLOUR ( '', #216 ) ;
#19 = MECHANICAL_DESIGN_GEOMETRIC_PRESENTATION_REPRESENTATION (  '', ( #158 ), #176 ) ;
#20 = DIRECTION ( 'NONE',  ( -1.000000000000000000, 0.000000000000000000, 0.000000000000000000 ) ) ;
#21 = ORIENTED_EDGE ( 'NONE', *, *, #182, .F. ) ;
#22 = DIRECTION ( 'NONE',  ( 0.000000000000000000, 0.000000000000000000, -1.000000000000000000 ) ) ;
#23 = SURFACE_SIDE_STYLE ('',( #268 ) ) ;
#24 = STYLED_ITEM ( 'NONE', ( #281 ), #179 ) ;
#25 = FILL_AREA_STYLE_COLOUR ( '', #180 ) ;
#26 = SURFACE_STYLE_FILL_AREA ( #120 ) ;
#27 = STYLED_ITEM ( 'NONE', ( #222 ), #88 ) ;
#28 = EDGE_CURVE ( 'NONE', #193, #154, #212, .T. ) ;
#29 =( GEOMETRIC_REPRESENTATION_CONTEXT ( 3 ) GLOBAL_UNCERTAINTY_ASSIGNED_CONTEXT ( ( #255 ) ) GLOBAL_UNIT_ASSIGNED_CONTEXT ( ( #58, #232, #144 ) ) REPRESENTATION_CONTEXT ( 'NONE', 'WORKASPACE' ) );
#30 = DIRECTION ( 'NONE',  ( 0.000000000000000000, -0.000000000000000000, 1.000000000000000000 ) ) ;
#31 =( LENGTH_UNIT ( ) NAMED_UNIT ( * ) SI_UNIT ( .MILLI., .METRE. ) );
#32 =( GEOMETRIC_REPRESENTATION_CONTEXT ( 3 ) GLOBAL_UNCERTAINTY_ASSIGNED_CONTEXT ( ( #244 ) ) GLOBAL_UNIT_ASSIGNED_CONTEXT ( ( #2, #50, #197 ) ) REPRESENTATION_CONTEXT ( 'NONE', 'WORKASPACE' ) );
#33 = CARTESIAN_POINT ( 'NONE',  ( 0.000000000000000000, 0.000000000000000000, -6.000000000000000000 ) ) ;
#34 = FILL_AREA_STYLE ('',( #61 ) ) ;
#35 = CARTESIAN_POINT ( 'NONE',  ( 0.000000000000000000, 30.00000000000000000, 0.000000000000000000 ) ) ;
#36 = VERTEX_POINT ( 'NONE', #263 ) ;
#37 = CIRCLE ( 'NONE', #284, 6.000000000000000000 ) ;
#38 = PRESENTATION_LAYER_ASSIGNMENT (  '', '', ( #247 ) ) ;
#39 = EDGE_LOOP ( 'NONE', ( #21, #130, #240, #135 ) ) ;
#40 = FACE_OUTER_BOUND ( 'NONE', #113, .T. ) ;
#41 = EDGE_CURVE ( 'NONE', #193, #174, #37, .T. ) ;
#42 = FACE_OUTER_BOUND ( 'NONE', #16, .T. ) ;
#43 = ORIENTED_EDGE ( 'NONE', *, *, #28, .F. ) ;
#44 = AXIS2_PLACEMENT_3D ( 'NONE', #105, #257, #274 ) ;
#45 = DIRECTION ( 'NONE',  ( -0.000000000000000000, -1.000000000000000000, -0.000000000000000000 ) ) ;
#46 = ADVANCED_FACE ( 'NONE', ( #152 ), #134, .T. ) ;
#47 = FACE_OUTER_BOUND ( 'NONE', #234, .T. ) ;
#48 = CARTESIAN_POINT ( 'NONE',  ( 6.000000000000000000, 75.00000000000000000, 7.347880794884117764E-16 ) ) ;
#49 =( LENGTH_UNIT ( ) NAMED_UNIT ( * ) SI_UNIT ( .MILLI., .METRE. ) );
#50 =( NAMED_UNIT ( * ) PLANE_ANGLE_UNIT ( ) SI_UNIT ( $, .RADIAN. ) );
#51 = PRODUCT_DEFINITION_FORMATION_WITH_SPECIFIED_SOURCE ( 'ANY', '', #220, .NOT_KNOWN. ) ;
#52 = CYLINDRICAL_SURFACE ( 'NONE', #3, 5.999999999999996447 ) ;
#53 = UNCERTAINTY_MEASURE_WITH_UNIT (LENGTH_MEASURE( 1.000000000000000082E-05 ), #31, 'distance_accuracy_value', 'NONE');
#54 = PRODUCT_CONTEXT ( 'NONE', #121, 'mechanical' ) ;
#55 = SURFACE_STYLE_FILL_AREA ( #250 ) ;
#56 = DIRECTION ( 'NONE',  ( 0.000000000000000000, 0.000000000000000000, -1.000000000000000000 ) ) ;
#57 = SURFACE_SIDE_STYLE ('',( #55 ) ) ;
#58 =( LENGTH_UNIT ( ) NAMED_UNIT ( * ) SI_UNIT ( .MILLI., .METRE. ) );
#59 = DIRECTION ( 'NONE',  ( 1.360718665719280903E-16, 1.000000000000000000, -0.000000000000000000 ) ) ;
#60 = CIRCLE ( 'NONE', #44, 6.000000000000000000 ) ;
#61 = FILL_AREA_STYLE_COLOUR ( '', #104 ) ;
#62 = ADVANCED_FACE ( 'NONE', ( #47 ), #287, .F. ) ;
#63 =( NAMED_UNIT ( * ) PLANE_ANGLE_UNIT ( ) SI_UNIT ( $, .RADIAN. ) );
#64 = ORIENTED_EDGE ( 'NONE', *, *, #141, .T. ) ;
#65 = CARTESIAN_POINT ( 'NONE',  ( -7.703719777548943412E-31, 30.00000000000000000, 0.000000000000000000 ) ) ;
#66 = DIRECTION ( 'NONE',  ( 1.360718665719280903E-16, 1.000000000000000000, -0.000000000000000000 ) ) ;
#67 = ORIENTED_EDGE ( 'NONE', *, *, #98, .T. ) ;
#68 = LINE ( 'NONE', #85, #95 ) ;
#69 = ORIENTED_EDGE ( 'NONE', *, *, #41, .F. ) ;
#70 = FILL_AREA_STYLE ('',( #18 ) ) ;
#71 = AXIS2_PLACEMENT_3D ( 'NONE', #127, #208, #30 ) ;
#72 = FACE_OUTER_BOUND ( 'NONE', #279, .T. ) ;
#73 = MECHANICAL_DESIGN_GEOMETRIC_PRESENTATION_REPRESENTATION (  '', ( #198 ), #32 ) ;
#74 = CIRCLE ( 'NONE', #203, 6.000000000000000000 ) ;
#75 = PRODUCT_RELATED_PRODUCT_CATEGORY ( 'part', '', ( #220 ) ) ;
#76 = FACE_OUTER_BOUND ( 'NONE', #266, .T. ) ;
#77 = FACE_OUTER_BOUND ( 'NONE', #286, .T. ) ;
#78 = CIRCLE ( 'NONE', #235, 6.000000000000000000 ) ;
#79 = UNCERTAINTY_MEASURE_WITH_UNIT (LENGTH_MEASURE( 1.000000000000000082E-05 ), #5, 'distance_accuracy_value', 'NONE');
#80 = DIRECTION ( 'NONE',  ( 1.360718665719280903E-16, 1.000000000000000000, -0.000000000000000000 ) ) ;
#81 = DIRECTION ( 'NONE',  ( -1.000000000000000000, 0.000000000000000000, 0.000000000000000000 ) ) ;
#82 = DIRECTION ( 'NONE',  ( -0.000000000000000000, -1.000000000000000000, -0.000000000000000000 ) ) ;
#83 =( NAMED_UNIT ( * ) SI_UNIT ( $, .STERADIAN. ) SOLID_ANGLE_UNIT ( ) );
#84 = PRODUCT_DEFINITION ( 'UNKNOWN', '', #51, #184 ) ;
#85 = CARTESIAN_POINT ( 'NONE',  ( 7.347880794884119736E-16, 0.000000000000000000, 6.000000000000000000 ) ) ;
#86 = VECTOR ( 'NONE', #215, 1000.000000000000000 ) ;
#87 = EDGE_LOOP ( 'NONE', ( #195, #262, #149, #238 ) ) ;
#88 = MANIFOLD_SOLID_BREP ( 'Revolve - Tool Body (Straight Shanked)', #288 ) ;
#89 = VERTEX_POINT ( 'NONE', #48 ) ;
#90 = ORIENTED_EDGE ( 'NONE', *, *, #94, .T. ) ;
#91 = PRODUCT_DEFINITION_SHAPE ( 'NONE', 'NONE',  #84 ) ;
#92 = SURFACE_STYLE_USAGE ( .BOTH. , #181 ) ;
#93 = CIRCLE ( 'NONE', #253, 6.000000000000000000 ) ;
#94 = EDGE_CURVE ( 'NONE', #169, #36, #93, .T. ) ;
#95 = VECTOR ( 'NONE', #147, 1000.000000000000000 ) ;
#96 = PRESENTATION_STYLE_ASSIGNMENT (( #1 ) ) ;
#97 = PRESENTATION_STYLE_ASSIGNMENT (( #13 ) ) ;
#98 = EDGE_CURVE ( 'NONE', #117, #196, #78, .T. ) ;
#99 =( GEOMETRIC_REPRESENTATION_CONTEXT ( 3 ) GLOBAL_UNCERTAINTY_ASSIGNED_CONTEXT ( ( #102 ) ) GLOBAL_UNIT_ASSIGNED_CONTEXT ( ( #132, #171, #83 ) ) REPRESENTATION_CONTEXT ( 'NONE', 'WORKASPACE' ) );
#100 = FILL_AREA_STYLE_COLOUR ( '', #155 ) ;
#101 = CARTESIAN_POINT ( 'NONE',  ( 6.000000000000000000, 30.00000000000000000, 7.347880794884117764E-16 ) ) ;
#102 = UNCERTAINTY_MEASURE_WITH_UNIT (LENGTH_MEASURE( 1.000000000000000082E-05 ), #132, 'distance_accuracy_value', 'NONE');
#103 = DIRECTION ( 'NONE',  ( -0.000000000000000000, -1.000000000000000000, -0.000000000000000000 ) ) ;
#104 = COLOUR_RGB ( '',1.000000000000000000, 0.000000000000000000, 0.000000000000000000 ) ;
#105 = CARTESIAN_POINT ( 'NONE',  ( -7.703719777548943412E-31, 30.00000000000000000, 0.000000000000000000 ) ) ;
#106 = CARTESIAN_POINT ( 'NONE',  ( -5.999999999999987566, 75.00000000000000000, 0.000000000000000000 ) ) ;
#107 = ADVANCED_FACE ( 'NONE', ( #72 ), #219, .T. ) ;
#108 = CARTESIAN_POINT ( 'NONE',  ( 0.000000000000000000, 0.000000000000000000, 0.000000000000000000 ) ) ;
#109 = MECHANICAL_DESIGN_GEOMETRIC_PRESENTATION_REPRESENTATION (  '', ( #27 ), #210 ) ;
#110 = AXIS2_PLACEMENT_3D ( 'NONE', #108, #164, #56 ) ;
#111 = ORIENTED_EDGE ( 'NONE', *, *, #94, .F. ) ;
#112 = DIRECTION ( 'NONE',  ( -0.000000000000000000, -1.000000000000000000, -0.000000000000000000 ) ) ;
#113 = EDGE_LOOP ( 'NONE', ( #190, #115 ) ) ;
#114 = FILL_AREA_STYLE_COLOUR ( '', #9 ) ;
#115 = ORIENTED_EDGE ( 'NONE', *, *, #275, .T. ) ;
#116 = SURFACE_SIDE_STYLE ('',( #168 ) ) ;
#117 = VERTEX_POINT ( 'NONE', #11 ) ;
#118 = DIRECTION ( 'NONE',  ( -0.000000000000000000, -1.000000000000000000, -0.000000000000000000 ) ) ;
#119 = AXIS2_PLACEMENT_3D ( 'NONE', #233, #82, #278 ) ;
#120 = FILL_AREA_STYLE ('',( #25 ) ) ;
#121 = APPLICATION_CONTEXT ( 'automotive_design' ) ;
#122 = SURFACE_STYLE_FILL_AREA ( #159 ) ;
#123 = AXIS2_PLACEMENT_3D ( 'NONE', #248, #118, #22 ) ;
#124 = CARTESIAN_POINT ( 'NONE',  ( 6.123233995736762930E-15, 75.00000000000000000, 0.000000000000000000 ) ) ;
#125 = ADVANCED_FACE ( 'NONE', ( #8 ), #226, .T. ) ;
#126 = DIRECTION ( 'NONE',  ( 0.000000000000000000, 0.000000000000000000, 1.000000000000000000 ) ) ;
#127 = CARTESIAN_POINT ( 'NONE',  ( 0.000000000000000000, 30.00000000000000000, 0.000000000000000000 ) ) ;
#128 =( NAMED_UNIT ( * ) SI_UNIT ( $, .STERADIAN. ) SOLID_ANGLE_UNIT ( ) );
#129 = SURFACE_STYLE_FILL_AREA ( #34 ) ;
#130 = ORIENTED_EDGE ( 'NONE', *, *, #280, .T. ) ;
#131 = EDGE_CURVE ( 'NONE', #174, #193, #60, .T. ) ;
#132 =( LENGTH_UNIT ( ) NAMED_UNIT ( * ) SI_UNIT ( .MILLI., .METRE. ) );
#133 = CARTESIAN_POINT ( 'NONE',  ( 6.000000000000000000, 75.00000000000000000, 0.000000000000000000 ) ) ;
#134 = CYLINDRICAL_SURFACE ( 'NONE', #123, 6.000000000000000000 ) ;
#135 = ORIENTED_EDGE ( 'NONE', *, *, #141, .F. ) ;
#136 = SURFACE_STYLE_USAGE ( .BOTH. , #23 ) ;
#137 = DIRECTION ( 'NONE',  ( -0.000000000000000000, -1.000000000000000000, -0.000000000000000000 ) ) ;
#138 = PRESENTATION_LAYER_ASSIGNMENT (  '', '', ( #158 ) ) ;
#139 = CARTESIAN_POINT ( 'NONE',  ( 5.554665861710580935E-32, 30.00000000000000000, 0.000000000000000000 ) ) ;
#140 = AXIS2_PLACEMENT_3D ( 'NONE', #143, #126, #259 ) ;
#141 = EDGE_CURVE ( 'NONE', #36, #169, #185, .T. ) ;
#142 =( NAMED_UNIT ( * ) PLANE_ANGLE_UNIT ( ) SI_UNIT ( $, .RADIAN. ) );
#143 = CARTESIAN_POINT ( 'NONE',  ( 0.000000000000000000, 0.000000000000000000, 0.000000000000000000 ) ) ;
#144 =( NAMED_UNIT ( * ) SI_UNIT ( $, .STERADIAN. ) SOLID_ANGLE_UNIT ( ) );
#145 = PRESENTATION_STYLE_ASSIGNMENT (( #223 ) ) ;
#146 = PRESENTATION_LAYER_ASSIGNMENT (  '', '', ( #24 ) ) ;
#147 = DIRECTION ( 'NONE',  ( -0.000000000000000000, -1.000000000000000000, -0.000000000000000000 ) ) ;
#148 = ORIENTED_EDGE ( 'NONE', *, *, #167, .T. ) ;
#149 = ORIENTED_EDGE ( 'NONE', *, *, #28, .T. ) ;
#150 = SURFACE_STYLE_USAGE ( .BOTH. , #116 ) ;
#151 = ORIENTED_EDGE ( 'NONE', *, *, #98, .F. ) ;
#152 = FACE_OUTER_BOUND ( 'NONE', #39, .T. ) ;
#153 = CARTESIAN_POINT ( 'NONE',  ( -6.000000000000000000, 30.00000000000000000, 0.000000000000000000 ) ) ;
#154 = VERTEX_POINT ( 'NONE', #106 ) ;
#155 = COLOUR_RGB ( '',0.7921568627450980005, 0.8196078431372548767, 0.9333333333333333481 ) ;
#156 =( GEOMETRIC_REPRESENTATION_CONTEXT ( 3 ) GLOBAL_UNCERTAINTY_ASSIGNED_CONTEXT ( ( #79 ) ) GLOBAL_UNIT_ASSIGNED_CONTEXT ( ( #5, #142, #271 ) ) REPRESENTATION_CONTEXT ( 'NONE', 'WORKASPACE' ) );
#157 = ADVANCED_FACE ( 'NONE', ( #77 ), #52, .T. ) ;
#158 = STYLED_ITEM ( 'NONE', ( #97 ), #225 ) ;
#159 = FILL_AREA_STYLE ('',( #100 ) ) ;
#160 = CYLINDRICAL_SURFACE ( 'NONE', #119, 6.000000000000000000 ) ;
#161 = DIRECTION ( 'NONE',  ( 0.000000000000000000, 0.000000000000000000, -1.000000000000000000 ) ) ;
#162 = APPLICATION_PROTOCOL_DEFINITION ( 'draft international standard', 'automotive_design', 1998, #121 ) ;
#163 = DIRECTION ( 'NONE',  ( -1.000000000000000000, 0.000000000000000000, 0.000000000000000000 ) ) ;
#164 = DIRECTION ( 'NONE',  ( 0.000000000000000000, -1.000000000000000000, -0.000000000000000000 ) ) ;
#165 = LINE ( 'NONE', #204, #172 ) ;
#166 = CIRCLE ( 'NONE', #285, 5.999999999999993783 ) ;
#167 = EDGE_CURVE ( 'NONE', #174, #89, #165, .T. ) ;
#168 = SURFACE_STYLE_FILL_AREA ( #189 ) ;
#169 = VERTEX_POINT ( 'NONE', #33 ) ;
#170 = ORIENTED_EDGE ( 'NONE', *, *, #41, .T. ) ;
#171 =( NAMED_UNIT ( * ) PLANE_ANGLE_UNIT ( ) SI_UNIT ( $, .RADIAN. ) );
#172 = VECTOR ( 'NONE', #59, 1000.000000000000000 ) ;
#173 = ORIENTED_EDGE ( 'NONE', *, *, #182, .T. ) ;
#174 = VERTEX_POINT ( 'NONE', #101 ) ;
#175 =( NAMED_UNIT ( * ) PLANE_ANGLE_UNIT ( ) SI_UNIT ( $, .RADIAN. ) );
#176 =( GEOMETRIC_REPRESENTATION_CONTEXT ( 3 ) GLOBAL_UNCERTAINTY_ASSIGNED_CONTEXT ( ( #53 ) ) GLOBAL_UNIT_ASSIGNED_CONTEXT ( ( #31, #63, #12 ) ) REPRESENTATION_CONTEXT ( 'NONE', 'WORKASPACE' ) );
#177 = ADVANCED_FACE ( 'NONE', ( #76 ), #160, .T. ) ;
#178 = ADVANCED_BREP_SHAPE_REPRESENTATION ( '59499', ( #179, #88, #140 ), #29 ) ;
#179 = MANIFOLD_SOLID_BREP ( 'Revolve - Cutting Edge', #228 ) ;
#180 = COLOUR_RGB ( '',1.000000000000000000, 0.000000000000000000, 0.000000000000000000 ) ;
#181 = SURFACE_SIDE_STYLE ('',( #122 ) ) ;
#182 = EDGE_CURVE ( 'NONE', #196, #36, #68, .T. ) ;
#183 = DIRECTION ( 'NONE',  ( 1.360718665719280903E-16, 1.000000000000000000, -0.000000000000000000 ) ) ;
#184 = PRODUCT_DEFINITION_CONTEXT ( 'detailed design', #251, 'design' ) ;
#185 = CIRCLE ( 'NONE', #272, 6.000000000000000000 ) ;
#186 = SHAPE_DEFINITION_REPRESENTATION ( #91, #178 ) ;
#187 = CARTESIAN_POINT ( 'NONE',  ( 6.123233995736762930E-15, 75.00000000000000000, 0.000000000000000000 ) ) ;
#188 = MECHANICAL_DESIGN_GEOMETRIC_PRESENTATION_REPRESENTATION (  '', ( #247 ), #156 ) ;
#189 = FILL_AREA_STYLE ('',( #114 ) ) ;
#190 = ORIENTED_EDGE ( 'NONE', *, *, #191, .T. ) ;
#191 = EDGE_CURVE ( 'NONE', #154, #89, #166, .T. ) ;
#192 = PLANE ( 'NONE',  #110 ) ;
#193 = VERTEX_POINT ( 'NONE', #153 ) ;
#194 = AXIS2_PLACEMENT_3D ( 'NONE', #261, #10, #15 ) ;
#195 = ORIENTED_EDGE ( 'NONE', *, *, #167, .F. ) ;
#196 = VERTEX_POINT ( 'NONE', #239 ) ;
#197 =( NAMED_UNIT ( * ) SI_UNIT ( $, .STERADIAN. ) SOLID_ANGLE_UNIT ( ) );
#198 = STYLED_ITEM ( 'NONE', ( #218 ), #46 ) ;
#199 = DIRECTION ( 'NONE',  ( 0.000000000000000000, 0.000000000000000000, -1.000000000000000000 ) ) ;
#200 = AXIS2_PLACEMENT_3D ( 'NONE', #133, #214, #241 ) ;
#201 = SURFACE_SIDE_STYLE ('',( #26 ) ) ;
#202 =( LENGTH_UNIT ( ) NAMED_UNIT ( * ) SI_UNIT ( .MILLI., .METRE. ) );
#203 = AXIS2_PLACEMENT_3D ( 'NONE', #35, #112, #256 ) ;
#204 = CARTESIAN_POINT ( 'NONE',  ( 6.000000000000002665, 75.00000000000000000, 7.347880794884115792E-16 ) ) ;
#205 = ADVANCED_FACE ( 'NONE', ( #40 ), #260, .F. ) ;
#206 = AXIS2_PLACEMENT_3D ( 'NONE', #124, #183, #81 ) ;
#207 = APPLICATION_PROTOCOL_DEFINITION ( 'draft international standard', 'automotive_design', 1998, #251 ) ;
#208 = DIRECTION ( 'NONE',  ( 0.000000000000000000, 1.000000000000000000, 0.000000000000000000 ) ) ;
#209 = SURFACE_SIDE_STYLE ('',( #129 ) ) ;
#210 =( GEOMETRIC_REPRESENTATION_CONTEXT ( 3 ) GLOBAL_UNCERTAINTY_ASSIGNED_CONTEXT ( ( #267 ) ) GLOBAL_UNIT_ASSIGNED_CONTEXT ( ( #49, #175, #4 ) ) REPRESENTATION_CONTEXT ( 'NONE', 'WORKASPACE' ) );
#211 =( GEOMETRIC_REPRESENTATION_CONTEXT ( 3 ) GLOBAL_UNCERTAINTY_ASSIGNED_CONTEXT ( ( #6 ) ) GLOBAL_UNIT_ASSIGNED_CONTEXT ( ( #202, #227, #128 ) ) REPRESENTATION_CONTEXT ( 'NONE', 'WORKASPACE' ) );
#212 = LINE ( 'NONE', #282, #86 ) ;
#213 = ORIENTED_EDGE ( 'NONE', *, *, #191, .F. ) ;
#214 = DIRECTION ( 'NONE',  ( -1.360718665719280903E-16, -1.000000000000000000, 0.000000000000000000 ) ) ;
#215 = DIRECTION ( 'NONE',  ( 1.360718665719280903E-16, 1.000000000000000000, -0.000000000000000000 ) ) ;
#216 = COLOUR_RGB ( '',1.000000000000000000, 0.000000000000000000, 0.000000000000000000 ) ;
#217 = ORIENTED_EDGE ( 'NONE', *, *, #131, .F. ) ;
#218 = PRESENTATION_STYLE_ASSIGNMENT (( #136 ) ) ;
#219 = PLANE ( 'NONE',  #71 ) ;
#220 = PRODUCT ( '59499', '59499', '', ( #54 ) ) ;
#221 = DIRECTION ( 'NONE',  ( 0.000000000000000000, 0.000000000000000000, -1.000000000000000000 ) ) ;
#222 = PRESENTATION_STYLE_ASSIGNMENT (( #92 ) ) ;
#223 = SURFACE_STYLE_USAGE ( .BOTH. , #57 ) ;
#224 = PRESENTATION_LAYER_ASSIGNMENT (  '', '', ( #27 ) ) ;
#225 = ADVANCED_FACE ( 'NONE', ( #42 ), #192, .T. ) ;
#226 = CYLINDRICAL_SURFACE ( 'NONE', #206, 5.999999999999996447 ) ;
#227 =( NAMED_UNIT ( * ) PLANE_ANGLE_UNIT ( ) SI_UNIT ( $, .RADIAN. ) );
#228 = CLOSED_SHELL ( 'NONE', ( #177, #107, #46, #225 ) ) ;
#229 = STYLED_ITEM ( 'NONE', ( #96 ), #107 ) ;
#230 = CARTESIAN_POINT ( 'NONE',  ( 0.000000000000000000, 0.000000000000000000, 0.000000000000000000 ) ) ;
#231 = ORIENTED_EDGE ( 'NONE', *, *, #280, .F. ) ;
#232 =( NAMED_UNIT ( * ) PLANE_ANGLE_UNIT ( ) SI_UNIT ( $, .RADIAN. ) );
#233 = CARTESIAN_POINT ( 'NONE',  ( 0.000000000000000000, 0.000000000000000000, 0.000000000000000000 ) ) ;
#234 = EDGE_LOOP ( 'NONE', ( #69, #217 ) ) ;
#235 = AXIS2_PLACEMENT_3D ( 'NONE', #269, #137, #221 ) ;
#236 = MECHANICAL_DESIGN_GEOMETRIC_PRESENTATION_REPRESENTATION (  '', ( #229 ), #211 ) ;
#237 = EDGE_CURVE ( 'NONE', #117, #169, #7, .T. ) ;
#238 = ORIENTED_EDGE ( 'NONE', *, *, #275, .F. ) ;
#239 = CARTESIAN_POINT ( 'NONE',  ( 7.347880794884119736E-16, 30.00000000000000000, 6.000000000000000000 ) ) ;
#240 = ORIENTED_EDGE ( 'NONE', *, *, #237, .T. ) ;
#241 = DIRECTION ( 'NONE',  ( 1.000000000000000000, -1.360718665719280903E-16, 0.000000000000000000 ) ) ;
#242 = CIRCLE ( 'NONE', #194, 5.999999999999993783 ) ;
#243 = CARTESIAN_POINT ( 'NONE',  ( 0.000000000000000000, 0.000000000000000000, 0.000000000000000000 ) ) ;
#244 = UNCERTAINTY_MEASURE_WITH_UNIT (LENGTH_MEASURE( 1.000000000000000082E-05 ), #2, 'distance_accuracy_value', 'NONE');
#245 = DIRECTION ( 'NONE',  ( -1.000000000000000000, 1.360718665719280903E-16, 0.000000000000000000 ) ) ;
#246 = PRESENTATION_LAYER_ASSIGNMENT (  '', '', ( #198 ) ) ;
#247 = STYLED_ITEM ( 'NONE', ( #145 ), #177 ) ;
#248 = CARTESIAN_POINT ( 'NONE',  ( 0.000000000000000000, 0.000000000000000000, 0.000000000000000000 ) ) ;
#249 = DIRECTION ( 'NONE',  ( 1.360718665719280903E-16, 1.000000000000000000, -0.000000000000000000 ) ) ;
#250 = FILL_AREA_STYLE ('',( #252 ) ) ;
#251 = APPLICATION_CONTEXT ( 'automotive_design' ) ;
#252 = FILL_AREA_STYLE_COLOUR ( '', #277 ) ;
#253 = AXIS2_PLACEMENT_3D ( 'NONE', #243, #45, #199 ) ;
#254 = VECTOR ( 'NONE', #103, 1000.000000000000000 ) ;
#255 = UNCERTAINTY_MEASURE_WITH_UNIT (LENGTH_MEASURE( 1.000000000000000082E-05 ), #58, 'distance_accuracy_value', 'NONE');
#256 = DIRECTION ( 'NONE',  ( 0.000000000000000000, 0.000000000000000000, -1.000000000000000000 ) ) ;
#257 = DIRECTION ( 'NONE',  ( 1.360718665719280903E-16, 1.000000000000000000, -0.000000000000000000 ) ) ;
#258 = PRESENTATION_LAYER_ASSIGNMENT (  '', '', ( #229 ) ) ;
#259 = DIRECTION ( 'NONE',  ( 1.000000000000000000, 0.000000000000000000, 0.000000000000000000 ) ) ;
#260 = PLANE ( 'NONE',  #200 ) ;
#261 = CARTESIAN_POINT ( 'NONE',  ( 6.123233995736762930E-15, 75.00000000000000000, 0.000000000000000000 ) ) ;
#262 = ORIENTED_EDGE ( 'NONE', *, *, #131, .T. ) ;
#263 = CARTESIAN_POINT ( 'NONE',  ( 7.347880794884119736E-16, 0.000000000000000000, 6.000000000000000000 ) ) ;
#264 = CARTESIAN_POINT ( 'NONE',  ( 6.123233995736762930E-15, 75.00000000000000000, 0.000000000000000000 ) ) ;
#265 = ORIENTED_EDGE ( 'NONE', *, *, #237, .F. ) ;
#266 = EDGE_LOOP ( 'NONE', ( #67, #173, #111, #265 ) ) ;
#267 = UNCERTAINTY_MEASURE_WITH_UNIT (LENGTH_MEASURE( 1.000000000000000082E-05 ), #49, 'distance_accuracy_value', 'NONE');
#268 = SURFACE_STYLE_FILL_AREA ( #70 ) ;
#269 = CARTESIAN_POINT ( 'NONE',  ( 0.000000000000000000, 30.00000000000000000, 0.000000000000000000 ) ) ;
#270 = DIRECTION ( 'NONE',  ( -0.000000000000000000, -1.000000000000000000, -0.000000000000000000 ) ) ;
#271 =( NAMED_UNIT ( * ) SI_UNIT ( $, .STERADIAN. ) SOLID_ANGLE_UNIT ( ) );
#272 = AXIS2_PLACEMENT_3D ( 'NONE', #230, #270, #161 ) ;
#273 = CARTESIAN_POINT ( 'NONE',  ( 0.000000000000000000, 0.000000000000000000, -6.000000000000000000 ) ) ;
#274 = DIRECTION ( 'NONE',  ( -1.000000000000000000, 0.000000000000000000, 0.000000000000000000 ) ) ;
#275 = EDGE_CURVE ( 'NONE', #89, #154, #242, .T. ) ;
#276 = AXIS2_PLACEMENT_3D ( 'NONE', #139, #249, #245 ) ;
#277 = COLOUR_RGB ( '',1.000000000000000000, 0.000000000000000000, 0.000000000000000000 ) ;
#278 = DIRECTION ( 'NONE',  ( 0.000000000000000000, 0.000000000000000000, -1.000000000000000000 ) ) ;
#279 = EDGE_LOOP ( 'NONE', ( #151, #231 ) ) ;
#280 = EDGE_CURVE ( 'NONE', #196, #117, #74, .T. ) ;
#281 = PRESENTATION_STYLE_ASSIGNMENT (( #150 ) ) ;
#282 = CARTESIAN_POINT ( 'NONE',  ( -5.999999999999990230, 75.00000000000000000, 0.000000000000000000 ) ) ;
#283 = DIRECTION ( 'NONE',  ( -1.000000000000000000, 0.000000000000000000, 0.000000000000000000 ) ) ;
#284 = AXIS2_PLACEMENT_3D ( 'NONE', #65, #17, #283 ) ;
#285 = AXIS2_PLACEMENT_3D ( 'NONE', #264, #66, #20 ) ;
#286 = EDGE_LOOP ( 'NONE', ( #170, #148, #213, #43 ) ) ;
#287 = PLANE ( 'NONE',  #276 ) ;
#288 = CLOSED_SHELL ( 'NONE', ( #157, #62, #125, #205 ) ) ;
ENDSEC;
END-ISO-10303-21;
