ISO-10303-21;
HEADER;
FILE_DESCRIPTION (( 'STEP AP214' ),
    '1' );
FILE_NAME ('Micro_SFAM-080040.STEP',
    '2021-09-02T04:19:56',
    ( '' ),
    ( '' ),
    'SwSTEP 2.0',
    'SolidWorks 2020',
    '' );
FILE_SCHEMA (( 'AUTOMOTIVE_DESIGN' ));
ENDSEC;

DATA;
#1 = DIRECTION ( 'NONE',  ( 1.000000000000000000, 0.0000000000000000000, 0.0000000000000000000 ) ) ;
#2 = CYLINDRICAL_SURFACE ( 'NONE', #274, 0.1573230195000000220 ) ;
#3 = ADVANCED_BREP_SHAPE_REPRESENTATION ( 'Micro_SFAM-080040', ( #289, #174 ), #70 ) ;
#4 = VECTOR ( 'NONE', #74, 39.37007874015748143 ) ;
#5 =( GEOMETRIC_REPRESENTATION_CONTEXT ( 3 ) GLOBAL_UNCERTAINTY_ASSIGNED_CONTEXT ( ( #88 ) ) GLOBAL_UNIT_ASSIGNED_CONTEXT ( ( #265, #226, #204 ) ) REPRESENTATION_CONTEXT ( 'NONE', 'WORKASPACE' ) );
#6 = CLOSED_SHELL ( 'NONE', ( #196, #263, #292, #223, #31, #82, #101, #150, #277, #61 ) ) ;
#7 = VECTOR ( 'NONE', #89, 39.37007874015748143 ) ;
#8 = EDGE_CURVE ( 'NONE', #39, #285, #185, .T. ) ;
#9 = DIRECTION ( 'NONE',  ( -0.0000000000000000000, -0.0000000000000000000, -1.000000000000000000 ) ) ;
#10 = SURFACE_STYLE_FILL_AREA ( #264 ) ;
#11 = PRODUCT_DEFINITION_SHAPE ( 'NONE', 'NONE',  #157 ) ;
#12 = FACE_OUTER_BOUND ( 'NONE', #155, .T. ) ;
#13 = MECHANICAL_DESIGN_GEOMETRIC_PRESENTATION_REPRESENTATION (  '', ( #167 ), #136 ) ;
#14 = EDGE_CURVE ( 'NONE', #97, #145, #269, .T. ) ;
#15 = DIRECTION ( 'NONE',  ( 0.0000000000000000000, 0.0000000000000000000, 1.000000000000000000 ) ) ;
#16 = DIRECTION ( 'NONE',  ( -0.0000000000000000000, -0.0000000000000000000, -1.000000000000000000 ) ) ;
#17 = FACE_OUTER_BOUND ( 'NONE', #112, .T. ) ;
#18 = CIRCLE ( 'NONE', #190, 0.1574804999999999955 ) ;
#19 = PRESENTATION_STYLE_ASSIGNMENT (( #23 ) ) ;
#20 = UNCERTAINTY_MEASURE_WITH_UNIT (LENGTH_MEASURE( 1.000000000000000082E-05 ), #96, 'distance_accuracy_value', 'NONE');
#21 = DIRECTION ( 'NONE',  ( 1.224646799147353207E-16, 0.0000000000000000000, 1.000000000000000000 ) ) ;
#22 = ORIENTED_EDGE ( 'NONE', *, *, #80, .T. ) ;
#23 = SURFACE_STYLE_USAGE ( .BOTH. , #40 ) ;
#24 = ORIENTED_EDGE ( 'NONE', *, *, #51, .T. ) ;
#25 =( NAMED_UNIT ( * ) PLANE_ANGLE_UNIT ( ) SI_UNIT ( $, .RADIAN. ) );
#26 = AXIS2_PLACEMENT_3D ( 'NONE', #293, #252, #84 ) ;
#27 = ORIENTED_EDGE ( 'NONE', *, *, #186, .F. ) ;
#28 = CYLINDRICAL_SURFACE ( 'NONE', #195, 0.1573230195000000220 ) ;
#29 = PRODUCT_RELATED_PRODUCT_CATEGORY ( 'part', '', ( #156 ) ) ;
#30 = PRODUCT_CONTEXT ( 'NONE', #67, 'mechanical' ) ;
#31 = ADVANCED_FACE ( 'NONE', ( #275 ), #210, .T. ) ;
#32 = CARTESIAN_POINT ( 'NONE',  ( -0.1573230194999999110, 1.927615612579982019E-17, 1.181102000000000096 ) ) ;
#33 =( LENGTH_UNIT ( ) NAMED_UNIT ( * ) SI_UNIT ( $, .METRE. ) );
#34 = DIRECTION ( 'NONE',  ( 1.000000000000000000, 0.0000000000000000000, 0.0000000000000000000 ) ) ;
#35 = DIRECTION ( 'NONE',  ( -1.224646799147353207E-16, -0.0000000000000000000, -1.000000000000000000 ) ) ;
#36 = DIRECTION ( 'NONE',  ( -1.224646799147353207E-16, -0.0000000000000000000, -1.000000000000000000 ) ) ;
#37 = ORIENTED_EDGE ( 'NONE', *, *, #268, .F. ) ;
#38 = CARTESIAN_POINT ( 'NONE',  ( 2.359467375330272285E-33, 0.0000000000000000000, 1.926651322628716627E-17 ) ) ;
#39 = VERTEX_POINT ( 'NONE', #32 ) ;
#40 = SURFACE_SIDE_STYLE ('',( #239 ) ) ;
#41 = EDGE_CURVE ( 'NONE', #148, #98, #92, .T. ) ;
#42 = VECTOR ( 'NONE', #182, 39.37007874015748143 ) ;
#43 = CONICAL_SURFACE ( 'NONE', #221, 0.1573230195000000220, 0.1745329251994338637 ) ;
#44 = LENGTH_MEASURE_WITH_UNIT ( LENGTH_MEASURE( 0.02539999999999999897 ), #170 );
#45 = CARTESIAN_POINT ( 'NONE',  ( 0.0000000000000000000, 0.0000000000000000000, 2.937756000000000256 ) ) ;
#46 = ORIENTED_EDGE ( 'NONE', *, *, #115, .F. ) ;
#47 = DIRECTION ( 'NONE',  ( 0.0000000000000000000, 0.0000000000000000000, -1.000000000000000000 ) ) ;
#48 = EDGE_CURVE ( 'NONE', #145, #191, #236, .T. ) ;
#49 =( NAMED_UNIT ( * ) SI_UNIT ( $, .STERADIAN. ) SOLID_ANGLE_UNIT ( ) );
#50 = EDGE_LOOP ( 'NONE', ( #102, #187, #232, #27 ) ) ;
#51 = EDGE_CURVE ( 'NONE', #39, #191, #273, .T. ) ;
#52 = AXIS2_PLACEMENT_3D ( 'NONE', #184, #114, #93 ) ;
#53 = APPLICATION_CONTEXT ( 'automotive_design' ) ;
#54 = EDGE_LOOP ( 'NONE', ( #177, #128 ) ) ;
#55 = SURFACE_STYLE_USAGE ( .BOTH. , #105 ) ;
#56 = DIRECTION ( 'NONE',  ( -1.224646799147353207E-16, -0.0000000000000000000, -1.000000000000000000 ) ) ;
#57 = CIRCLE ( 'NONE', #63, 0.1574804999999999955 ) ;
#58 = CARTESIAN_POINT ( 'NONE',  ( 0.1424804999999998989, 1.744882882659143297E-17, 2.952755999999999936 ) ) ;
#59 = EDGE_CURVE ( 'NONE', #169, #191, #113, .T. ) ;
#60 = CARTESIAN_POINT ( 'NONE',  ( 0.1574804999999999955, 1.928579902531247412E-17, 2.952755999999999936 ) ) ;
#61 = ADVANCED_FACE ( 'NONE', ( #208 ), #90, .F. ) ;
#62 = CARTESIAN_POINT ( 'NONE',  ( 0.0000000000000000000, 0.0000000000000000000, 2.952755999999999936 ) ) ;
#63 = AXIS2_PLACEMENT_3D ( 'NONE', #121, #168, #298 ) ;
#64 = ORIENTED_EDGE ( 'NONE', *, *, #59, .F. ) ;
#65 = EDGE_LOOP ( 'NONE', ( #78, #220 ) ) ;
#66 = CARTESIAN_POINT ( 'NONE',  ( 1.446432783766537245E-16, 0.0000000000000000000, 1.181102000000000096 ) ) ;
#67 = APPLICATION_CONTEXT ( 'automotive_design' ) ;
#68 = ORIENTED_EDGE ( 'NONE', *, *, #198, .F. ) ;
#69 = DIRECTION ( 'NONE',  ( 1.000000000000000000, 0.0000000000000000000, 0.0000000000000000000 ) ) ;
#70 =( GEOMETRIC_REPRESENTATION_CONTEXT ( 3 ) GLOBAL_UNCERTAINTY_ASSIGNED_CONTEXT ( ( #217 ) ) GLOBAL_UNIT_ASSIGNED_CONTEXT ( ( #249, #76, #154 ) ) REPRESENTATION_CONTEXT ( 'NONE', 'WORKASPACE' ) );
#71 = CARTESIAN_POINT ( 'NONE',  ( 0.1573230194999999942, 1.926651322628716627E-17, 3.791200677927629740E-33 ) ) ;
#72 = ORIENTED_EDGE ( 'NONE', *, *, #243, .F. ) ;
#73 = DIRECTION ( 'NONE',  ( -1.224646799147353207E-16, -0.0000000000000000000, -1.000000000000000000 ) ) ;
#74 = DIRECTION ( 'NONE',  ( -0.7071067811865563435, 0.0000000000000000000, -0.7071067811865386910 ) ) ;
#75 = EDGE_LOOP ( 'NONE', ( #120, #266, #171, #237 ) ) ;
#76 =( NAMED_UNIT ( * ) PLANE_ANGLE_UNIT ( ) SI_UNIT ( $, .RADIAN. ) );
#77 = AXIS2_PLACEMENT_3D ( 'NONE', #132, #56, #163 ) ;
#78 = ORIENTED_EDGE ( 'NONE', *, *, #41, .T. ) ;
#79 = AXIS2_PLACEMENT_3D ( 'NONE', #260, #95, #166 ) ;
#80 = EDGE_CURVE ( 'NONE', #285, #145, #109, .T. ) ;
#81 = EDGE_LOOP ( 'NONE', ( #46, #158, #193, #207 ) ) ;
#82 = ADVANCED_FACE ( 'NONE', ( #296 ), #162, .T. ) ;
#83 = ORIENTED_EDGE ( 'NONE', *, *, #138, .F. ) ;
#84 = DIRECTION ( 'NONE',  ( -1.000000000000000000, 0.0000000000000000000, 0.0000000000000000000 ) ) ;
#85 = CIRCLE ( 'NONE', #180, 0.1574804999999999955 ) ;
#86 = EDGE_LOOP ( 'NONE', ( #250, #272, #68, #37 ) ) ;
#87 = DIRECTION ( 'NONE',  ( 1.000000000000000000, 0.0000000000000000000, -0.0000000000000000000 ) ) ;
#88 = UNCERTAINTY_MEASURE_WITH_UNIT (LENGTH_MEASURE( 1.000000000000000082E-05 ), #265, 'distance_accuracy_value', 'NONE');
#89 = DIRECTION ( 'NONE',  ( 0.7071067811865563435, 8.659560562355041327E-17, -0.7071067811865386910 ) ) ;
#90 = PLANE ( 'NONE',  #218 ) ;
#91 = VECTOR ( 'NONE', #248, 39.37007874015748143 ) ;
#92 = CIRCLE ( 'NONE', #135, 0.1424804999999998989 ) ;
#93 = DIRECTION ( 'NONE',  ( 1.000000000000000000, 0.0000000000000000000, 0.0000000000000000000 ) ) ;
#94 = DIMENSIONAL_EXPONENTS ( 1.000000000000000000, 0.0000000000000000000, 0.0000000000000000000, 0.0000000000000000000, 0.0000000000000000000, 0.0000000000000000000, 0.0000000000000000000 ) ;
#95 = DIRECTION ( 'NONE',  ( 0.0000000000000000000, 0.0000000000000000000, 1.000000000000000000 ) ) ;
#96 =( CONVERSION_BASED_UNIT ( 'INCH', #44 ) LENGTH_UNIT ( ) NAMED_UNIT ( #94 ) );
#97 = VERTEX_POINT ( 'NONE', #288 ) ;
#98 = VERTEX_POINT ( 'NONE', #234 ) ;
#99 = DIRECTION ( 'NONE',  ( -0.0000000000000000000, -0.0000000000000000000, -1.000000000000000000 ) ) ;
#100 = CARTESIAN_POINT ( 'NONE',  ( -0.1574804999999998567, 0.0000000000000000000, 1.181995116296594039 ) ) ;
#101 = ADVANCED_FACE ( 'NONE', ( #12 ), #262, .T. ) ;
#102 = ORIENTED_EDGE ( 'NONE', *, *, #8, .T. ) ;
#103 = COLOUR_RGB ( '',0.7921568627450980005, 0.8196078431372548767, 0.9333333333333333481 ) ;
#104 = DIRECTION ( 'NONE',  ( 1.000000000000000000, 0.0000000000000000000, 0.0000000000000000000 ) ) ;
#105 = SURFACE_SIDE_STYLE ('',( #10 ) ) ;
#106 = ORIENTED_EDGE ( 'NONE', *, *, #41, .F. ) ;
#107 = DIRECTION ( 'NONE',  ( 0.0000000000000000000, 0.0000000000000000000, 1.000000000000000000 ) ) ;
#108 = CARTESIAN_POINT ( 'NONE',  ( 0.0000000000000000000, 0.0000000000000000000, 0.0000000000000000000 ) ) ;
#109 = LINE ( 'NONE', #205, #122 ) ;
#110 = VECTOR ( 'NONE', #9, 39.37007874015748143 ) ;
#111 = PRESENTATION_LAYER_ASSIGNMENT (  '', '', ( #295 ) ) ;
#112 = EDGE_LOOP ( 'NONE', ( #282, #72, #22, #230 ) ) ;
#113 = LINE ( 'NONE', #228, #110 ) ;
#114 = DIRECTION ( 'NONE',  ( 1.224646799147353207E-16, 0.0000000000000000000, 1.000000000000000000 ) ) ;
#115 = EDGE_CURVE ( 'NONE', #285, #213, #139, .T. ) ;
#116 = DIRECTION ( 'NONE',  ( -1.000000000000000000, 0.0000000000000000000, 0.0000000000000000000 ) ) ;
#117 = DIRECTION ( 'NONE',  ( -1.000000000000000000, 0.0000000000000000000, 1.224646799147353454E-16 ) ) ;
#118 = CARTESIAN_POINT ( 'NONE',  ( -0.1424804999999998989, 0.0000000000000000000, 2.952755999999999936 ) ) ;
#119 = CARTESIAN_POINT ( 'NONE',  ( 0.0000000000000000000, 0.0000000000000000000, 0.0000000000000000000 ) ) ;
#120 = ORIENTED_EDGE ( 'NONE', *, *, #14, .F. ) ;
#121 = CARTESIAN_POINT ( 'NONE',  ( 1.447526535780427448E-16, 0.0000000000000000000, 1.181995116296594039 ) ) ;
#122 = VECTOR ( 'NONE', #209, 39.37007874015748143 ) ;
#123 = PRODUCT_DEFINITION_FORMATION_WITH_SPECIFIED_SOURCE ( 'ANY', '', #156, .NOT_KNOWN. ) ;
#124 = EDGE_CURVE ( 'NONE', #213, #153, #281, .T. ) ;
#125 = FILL_AREA_STYLE_COLOUR ( '', #203 ) ;
#126 = AXIS2_PLACEMENT_3D ( 'NONE', #255, #290, #87 ) ;
#127 = PRESENTATION_STYLE_ASSIGNMENT (( #55 ) ) ;
#128 = ORIENTED_EDGE ( 'NONE', *, *, #124, .T. ) ;
#129 = CARTESIAN_POINT ( 'NONE',  ( 0.0000000000000000000, 0.0000000000000000000, 2.952755999999999936 ) ) ;
#130 = EDGE_CURVE ( 'NONE', #153, #213, #202, .T. ) ;
#131 = APPLICATION_PROTOCOL_DEFINITION ( 'draft international standard', 'automotive_design', 1998, #53 ) ;
#132 = CARTESIAN_POINT ( 'NONE',  ( 1.447526535780427448E-16, 0.0000000000000000000, 1.181995116296594039 ) ) ;
#133 = ORIENTED_EDGE ( 'NONE', *, *, #8, .F. ) ;
#134 = LINE ( 'NONE', #58, #7 ) ;
#135 = AXIS2_PLACEMENT_3D ( 'NONE', #62, #15, #34 ) ;
#136 =( GEOMETRIC_REPRESENTATION_CONTEXT ( 3 ) GLOBAL_UNCERTAINTY_ASSIGNED_CONTEXT ( ( #20 ) ) GLOBAL_UNIT_ASSIGNED_CONTEXT ( ( #96, #25, #49 ) ) REPRESENTATION_CONTEXT ( 'NONE', 'WORKASPACE' ) );
#137 = DIRECTION ( 'NONE',  ( -1.000000000000000000, 0.0000000000000000000, 1.224646799147353454E-16 ) ) ;
#138 = EDGE_CURVE ( 'NONE', #98, #97, #134, .T. ) ;
#139 = LINE ( 'NONE', #233, #42 ) ;
#140 = CARTESIAN_POINT ( 'NONE',  ( -0.1573230194999999942, 0.0000000000000000000, 3.853302645257433254E-17 ) ) ;
#141 = AXIS2_PLACEMENT_3D ( 'NONE', #66, #73, #235 ) ;
#142 = EDGE_LOOP ( 'NONE', ( #133, #24, #183, #172 ) ) ;
#143 = CARTESIAN_POINT ( 'NONE',  ( 1.446432783766537245E-16, 0.0000000000000000000, 1.181102000000000096 ) ) ;
#144 = DIRECTION ( 'NONE',  ( -1.000000000000000000, 0.0000000000000000000, 1.224646799147353454E-16 ) ) ;
#145 = VERTEX_POINT ( 'NONE', #161 ) ;
#146 = CARTESIAN_POINT ( 'NONE',  ( -0.1573230195000000220, 0.0000000000000000000, 1.926651322628716935E-17 ) ) ;
#147 = PRESENTATION_LAYER_ASSIGNMENT (  '', '', ( #167 ) ) ;
#148 = VERTEX_POINT ( 'NONE', #251 ) ;
#149 =( LENGTH_UNIT ( ) NAMED_UNIT ( * ) SI_UNIT ( $, .METRE. ) );
#150 = ADVANCED_FACE ( 'NONE', ( #17 ), #178, .T. ) ;
#151 = VECTOR ( 'NONE', #227, 39.37007874015747433 ) ;
#152 = MECHANICAL_DESIGN_GEOMETRIC_PRESENTATION_REPRESENTATION (  '', ( #295 ), #5 ) ;
#153 = VERTEX_POINT ( 'NONE', #140 ) ;
#154 =( NAMED_UNIT ( * ) SI_UNIT ( $, .STERADIAN. ) SOLID_ANGLE_UNIT ( ) );
#155 = EDGE_LOOP ( 'NONE', ( #83, #106, #254, #279 ) ) ;
#156 = PRODUCT ( 'Micro_SFAM-080040', 'Micro_SFAM-080040', '', ( #30 ) ) ;
#157 = PRODUCT_DEFINITION ( 'UNKNOWN', '', #123, #231 ) ;
#158 = ORIENTED_EDGE ( 'NONE', *, *, #243, .T. ) ;
#159 = AXIS2_PLACEMENT_3D ( 'NONE', #164, #36, #137 ) ;
#160 = DIRECTION ( 'NONE',  ( -1.000000000000000000, 0.0000000000000000000, 0.0000000000000000000 ) ) ;
#161 = CARTESIAN_POINT ( 'NONE',  ( 0.1574805000000001343, 1.928579902531249261E-17, 1.181995116296594039 ) ) ;
#162 = PLANE ( 'NONE',  #126 ) ;
#163 = DIRECTION ( 'NONE',  ( 1.000000000000000000, 0.0000000000000000000, 0.0000000000000000000 ) ) ;
#164 = CARTESIAN_POINT ( 'NONE',  ( 2.359467375330272285E-33, 0.0000000000000000000, 1.926651322628716627E-17 ) ) ;
#165 = CARTESIAN_POINT ( 'NONE',  ( 0.1573230195000001608, 0.0000000000000000000, 1.181102000000000096 ) ) ;
#166 = DIRECTION ( 'NONE',  ( 1.000000000000000000, 0.0000000000000000000, 0.0000000000000000000 ) ) ;
#167 = STYLED_ITEM ( 'NONE', ( #19 ), #289 ) ;
#168 = DIRECTION ( 'NONE',  ( -1.224646799147353207E-16, -0.0000000000000000000, -1.000000000000000000 ) ) ;
#169 = VERTEX_POINT ( 'NONE', #212 ) ;
#170 =( LENGTH_UNIT ( ) NAMED_UNIT ( * ) SI_UNIT ( $, .METRE. ) );
#171 = ORIENTED_EDGE ( 'NONE', *, *, #59, .T. ) ;
#172 = ORIENTED_EDGE ( 'NONE', *, *, #80, .F. ) ;
#173 = AXIS2_PLACEMENT_3D ( 'NONE', #38, #35, #179 ) ;
#174 = AXIS2_PLACEMENT_3D ( 'NONE', #108, #286, #104 ) ;
#175 = DIRECTION ( 'NONE',  ( -1.000000000000000000, 0.0000000000000000000, 0.0000000000000000000 ) ) ;
#176 = SHAPE_DEFINITION_REPRESENTATION ( #11, #3 ) ;
#177 = ORIENTED_EDGE ( 'NONE', *, *, #130, .T. ) ;
#178 = CONICAL_SURFACE ( 'NONE', #52, 0.1573230195000000220, 0.1745329251994338637 ) ;
#179 = DIRECTION ( 'NONE',  ( -1.000000000000000000, 0.0000000000000000000, 1.224646799147353454E-16 ) ) ;
#180 = AXIS2_PLACEMENT_3D ( 'NONE', #247, #270, #181 ) ;
#181 = DIRECTION ( 'NONE',  ( 1.000000000000000000, 0.0000000000000000000, 0.0000000000000000000 ) ) ;
#182 = DIRECTION ( 'NONE',  ( -1.224646799147353207E-16, -0.0000000000000000000, -1.000000000000000000 ) ) ;
#183 = ORIENTED_EDGE ( 'NONE', *, *, #201, .T. ) ;
#184 = CARTESIAN_POINT ( 'NONE',  ( 1.446432783766537245E-16, 0.0000000000000000000, 1.181102000000000096 ) ) ;
#185 = CIRCLE ( 'NONE', #189, 0.1573230195000000220 ) ;
#186 = EDGE_CURVE ( 'NONE', #39, #153, #280, .T. ) ;
#187 = ORIENTED_EDGE ( 'NONE', *, *, #115, .T. ) ;
#188 = CARTESIAN_POINT ( 'NONE',  ( 1.446432783766537245E-16, 0.0000000000000000000, 1.181102000000000096 ) ) ;
#189 = AXIS2_PLACEMENT_3D ( 'NONE', #188, #291, #116 ) ;
#190 = AXIS2_PLACEMENT_3D ( 'NONE', #45, #47, #1 ) ;
#191 = VERTEX_POINT ( 'NONE', #100 ) ;
#192 = CARTESIAN_POINT ( 'NONE',  ( 0.0000000000000000000, 0.0000000000000000000, 0.0000000000000000000 ) ) ;
#193 = ORIENTED_EDGE ( 'NONE', *, *, #186, .T. ) ;
#194 = DIRECTION ( 'NONE',  ( -1.224646799147353207E-16, -0.0000000000000000000, -1.000000000000000000 ) ) ;
#195 = AXIS2_PLACEMENT_3D ( 'NONE', #119, #216, #117 ) ;
#196 = ADVANCED_FACE ( 'NONE', ( #219 ), #28, .T. ) ;
#197 = CARTESIAN_POINT ( 'NONE',  ( 0.0000000000000000000, 0.0000000000000000000, 2.952755999999999936 ) ) ;
#198 = EDGE_CURVE ( 'NONE', #169, #97, #18, .T. ) ;
#199 = LENGTH_MEASURE_WITH_UNIT ( LENGTH_MEASURE( 0.02539999999999999897 ), #33 );
#200 = VECTOR ( 'NONE', #194, 39.37007874015748143 ) ;
#201 = EDGE_CURVE ( 'NONE', #191, #145, #57, .T. ) ;
#202 = CIRCLE ( 'NONE', #159, 0.1573230194999999942 ) ;
#203 = COLOUR_RGB ( '',0.7921568627450980005, 0.8196078431372548767, 0.9333333333333333481 ) ;
#204 =( NAMED_UNIT ( * ) SI_UNIT ( $, .STERADIAN. ) SOLID_ANGLE_UNIT ( ) );
#205 = CARTESIAN_POINT ( 'NONE',  ( 0.1573230195000001608, 0.0000000000000000000, 1.181102000000000096 ) ) ;
#206 = DIRECTION ( 'NONE',  ( 0.0000000000000000000, 0.0000000000000000000, -1.000000000000000000 ) ) ;
#207 = ORIENTED_EDGE ( 'NONE', *, *, #124, .F. ) ;
#208 = FACE_OUTER_BOUND ( 'NONE', #54, .T. ) ;
#209 = DIRECTION ( 'NONE',  ( 0.1736481776669313581, 0.0000000000000000000, 0.9848077530122077983 ) ) ;
#210 = CYLINDRICAL_SURFACE ( 'NONE', #225, 0.1574804999999999955 ) ;
#211 = CARTESIAN_POINT ( 'NONE',  ( -0.1573230194999999110, 1.926651322628716935E-17, 1.181102000000000096 ) ) ;
#212 = CARTESIAN_POINT ( 'NONE',  ( -0.1574804999999999955, 0.0000000000000000000, 2.937756000000000256 ) ) ;
#213 = VERTEX_POINT ( 'NONE', #71 ) ;
#214 = FACE_OUTER_BOUND ( 'NONE', #81, .T. ) ;
#215 = EDGE_CURVE ( 'NONE', #98, #148, #241, .T. ) ;
#216 = DIRECTION ( 'NONE',  ( -1.224646799147353207E-16, -0.0000000000000000000, -1.000000000000000000 ) ) ;
#217 = UNCERTAINTY_MEASURE_WITH_UNIT (LENGTH_MEASURE( 1.000000000000000082E-05 ), #249, 'distance_accuracy_value', 'NONE');
#218 = AXIS2_PLACEMENT_3D ( 'NONE', #192, #107, #271 ) ;
#219 = FACE_OUTER_BOUND ( 'NONE', #50, .T. ) ;
#220 = ORIENTED_EDGE ( 'NONE', *, *, #215, .T. ) ;
#221 = AXIS2_PLACEMENT_3D ( 'NONE', #143, #21, #69 ) ;
#222 = AXIS2_PLACEMENT_3D ( 'NONE', #299, #206, #175 ) ;
#223 = ADVANCED_FACE ( 'NONE', ( #258 ), #278, .T. ) ;
#224 = LENGTH_MEASURE_WITH_UNIT ( LENGTH_MEASURE( 0.02539999999999999897 ), #149 );
#225 = AXIS2_PLACEMENT_3D ( 'NONE', #129, #16, #160 ) ;
#226 =( NAMED_UNIT ( * ) PLANE_ANGLE_UNIT ( ) SI_UNIT ( $, .RADIAN. ) );
#227 = DIRECTION ( 'NONE',  ( -0.1736481776669311639, 2.126576849575783008E-17, 0.9848077530122080203 ) ) ;
#228 = CARTESIAN_POINT ( 'NONE',  ( -0.1574804999999999955, 0.0000000000000000000, 2.952755999999999936 ) ) ;
#229 = CIRCLE ( 'NONE', #141, 0.1573230195000000220 ) ;
#230 = ORIENTED_EDGE ( 'NONE', *, *, #48, .T. ) ;
#231 = PRODUCT_DEFINITION_CONTEXT ( 'detailed design', #53, 'design' ) ;
#232 = ORIENTED_EDGE ( 'NONE', *, *, #130, .F. ) ;
#233 = CARTESIAN_POINT ( 'NONE',  ( 0.1573230195000000220, 1.926651322628716935E-17, -1.926651322628716935E-17 ) ) ;
#234 = CARTESIAN_POINT ( 'NONE',  ( 0.1424804999999998989, 1.836731392595195200E-17, 2.952755999999999936 ) ) ;
#235 = DIRECTION ( 'NONE',  ( -1.000000000000000000, 0.0000000000000000000, 0.0000000000000000000 ) ) ;
#236 = CIRCLE ( 'NONE', #77, 0.1574804999999999955 ) ;
#237 = ORIENTED_EDGE ( 'NONE', *, *, #48, .F. ) ;
#238 = FACE_OUTER_BOUND ( 'NONE', #142, .T. ) ;
#239 = SURFACE_STYLE_FILL_AREA ( #242 ) ;
#240 = EDGE_LOOP ( 'NONE', ( #283, #245, #253, #64 ) ) ;
#241 = CIRCLE ( 'NONE', #79, 0.1424804999999998989 ) ;
#242 = FILL_AREA_STYLE ('',( #256 ) ) ;
#243 = EDGE_CURVE ( 'NONE', #285, #39, #229, .T. ) ;
#244 = CONICAL_SURFACE ( 'NONE', #222, 0.1424804999999998989, 0.7853981633974608245 ) ;
#245 = ORIENTED_EDGE ( 'NONE', *, *, #14, .T. ) ;
#246 = APPLICATION_PROTOCOL_DEFINITION ( 'draft international standard', 'automotive_design', 1998, #67 ) ;
#247 = CARTESIAN_POINT ( 'NONE',  ( 0.0000000000000000000, 0.0000000000000000000, 2.937756000000000256 ) ) ;
#248 = DIRECTION ( 'NONE',  ( -0.0000000000000000000, -0.0000000000000000000, -1.000000000000000000 ) ) ;
#249 =( CONVERSION_BASED_UNIT ( 'INCH', #199 ) LENGTH_UNIT ( ) NAMED_UNIT ( #259 ) );
#250 = ORIENTED_EDGE ( 'NONE', *, *, #215, .F. ) ;
#251 = CARTESIAN_POINT ( 'NONE',  ( -0.1424804999999998989, 0.0000000000000000000, 2.952755999999999936 ) ) ;
#252 = DIRECTION ( 'NONE',  ( 0.0000000000000000000, 0.0000000000000000000, -1.000000000000000000 ) ) ;
#253 = ORIENTED_EDGE ( 'NONE', *, *, #201, .F. ) ;
#254 = ORIENTED_EDGE ( 'NONE', *, *, #268, .T. ) ;
#255 = CARTESIAN_POINT ( 'NONE',  ( 0.0000000000000000000, 0.0000000000000000000, 2.952755999999999936 ) ) ;
#256 = FILL_AREA_STYLE_COLOUR ( '', #103 ) ;
#257 = CARTESIAN_POINT ( 'NONE',  ( 0.0000000000000000000, 0.0000000000000000000, 0.0000000000000000000 ) ) ;
#258 = FACE_OUTER_BOUND ( 'NONE', #240, .T. ) ;
#259 = DIMENSIONAL_EXPONENTS ( 1.000000000000000000, 0.0000000000000000000, 0.0000000000000000000, 0.0000000000000000000, 0.0000000000000000000, 0.0000000000000000000, 0.0000000000000000000 ) ;
#260 = CARTESIAN_POINT ( 'NONE',  ( 0.0000000000000000000, 0.0000000000000000000, 2.952755999999999936 ) ) ;
#261 = DIRECTION ( 'NONE',  ( -1.224646799147353207E-16, -0.0000000000000000000, -1.000000000000000000 ) ) ;
#262 = CONICAL_SURFACE ( 'NONE', #26, 0.1424804999999998989, 0.7853981633974608245 ) ;
#263 = ADVANCED_FACE ( 'NONE', ( #238 ), #43, .T. ) ;
#264 = FILL_AREA_STYLE ('',( #125 ) ) ;
#265 =( CONVERSION_BASED_UNIT ( 'INCH', #224 ) LENGTH_UNIT ( ) NAMED_UNIT ( #294 ) );
#266 = ORIENTED_EDGE ( 'NONE', *, *, #297, .T. ) ;
#267 = AXIS2_PLACEMENT_3D ( 'NONE', #197, #99, #276 ) ;
#268 = EDGE_CURVE ( 'NONE', #148, #169, #284, .T. ) ;
#269 = LINE ( 'NONE', #60, #91 ) ;
#270 = DIRECTION ( 'NONE',  ( 0.0000000000000000000, 0.0000000000000000000, -1.000000000000000000 ) ) ;
#271 = DIRECTION ( 'NONE',  ( 1.000000000000000000, 0.0000000000000000000, -0.0000000000000000000 ) ) ;
#272 = ORIENTED_EDGE ( 'NONE', *, *, #138, .T. ) ;
#273 = LINE ( 'NONE', #211, #151 ) ;
#274 = AXIS2_PLACEMENT_3D ( 'NONE', #257, #261, #144 ) ;
#275 = FACE_OUTER_BOUND ( 'NONE', #75, .T. ) ;
#276 = DIRECTION ( 'NONE',  ( -1.000000000000000000, 0.0000000000000000000, 0.0000000000000000000 ) ) ;
#277 = ADVANCED_FACE ( 'NONE', ( #214 ), #2, .T. ) ;
#278 = CYLINDRICAL_SURFACE ( 'NONE', #267, 0.1574804999999999955 ) ;
#279 = ORIENTED_EDGE ( 'NONE', *, *, #297, .F. ) ;
#280 = LINE ( 'NONE', #146, #200 ) ;
#281 = CIRCLE ( 'NONE', #173, 0.1573230194999999942 ) ;
#282 = ORIENTED_EDGE ( 'NONE', *, *, #51, .F. ) ;
#283 = ORIENTED_EDGE ( 'NONE', *, *, #198, .T. ) ;
#284 = LINE ( 'NONE', #118, #4 ) ;
#285 = VERTEX_POINT ( 'NONE', #165 ) ;
#286 = DIRECTION ( 'NONE',  ( 0.0000000000000000000, 0.0000000000000000000, 1.000000000000000000 ) ) ;
#287 = FACE_OUTER_BOUND ( 'NONE', #86, .T. ) ;
#288 = CARTESIAN_POINT ( 'NONE',  ( 0.1574804999999999955, 1.928579902531247412E-17, 2.937756000000000256 ) ) ;
#289 = MANIFOLD_SOLID_BREP ( 'Cut-Revolve1', #6 ) ;
#290 = DIRECTION ( 'NONE',  ( 0.0000000000000000000, 0.0000000000000000000, 1.000000000000000000 ) ) ;
#291 = DIRECTION ( 'NONE',  ( -1.224646799147353207E-16, -0.0000000000000000000, -1.000000000000000000 ) ) ;
#292 = ADVANCED_FACE ( 'NONE', ( #287 ), #244, .T. ) ;
#293 = CARTESIAN_POINT ( 'NONE',  ( 0.0000000000000000000, 0.0000000000000000000, 2.952755999999999936 ) ) ;
#294 = DIMENSIONAL_EXPONENTS ( 1.000000000000000000, 0.0000000000000000000, 0.0000000000000000000, 0.0000000000000000000, 0.0000000000000000000, 0.0000000000000000000, 0.0000000000000000000 ) ;
#295 = STYLED_ITEM ( 'NONE', ( #127 ), #3 ) ;
#296 = FACE_OUTER_BOUND ( 'NONE', #65, .T. ) ;
#297 = EDGE_CURVE ( 'NONE', #97, #169, #85, .T. ) ;
#298 = DIRECTION ( 'NONE',  ( 1.000000000000000000, 0.0000000000000000000, 0.0000000000000000000 ) ) ;
#299 = CARTESIAN_POINT ( 'NONE',  ( 0.0000000000000000000, 0.0000000000000000000, 2.952755999999999936 ) ) ;
ENDSEC;
END-ISO-10303-21;
