ISO-10303-21;
HEADER;
FILE_DESCRIPTION (( 'STEP AP214' ),
    '1' );
FILE_NAME ('Micro_BMSM-005-2.STEP',
    '2021-09-03T15:28:05',
    ( '' ),
    ( '' ),
    'SwSTEP 2.0',
    'SolidWorks 2020',
    '' );
FILE_SCHEMA (( 'AUTOMOTIVE_DESIGN' ));
ENDSEC;

DATA;
#1 = EDGE_LOOP ( 'NONE', ( #59, #142, #47, #112 ) ) ;
#2 = ORIENTED_EDGE ( 'NONE', *, *, #196, .F. ) ;
#3 = DIRECTION ( 'NONE',  ( 0.0000000000000000000, 0.0000000000000000000, -1.000000000000000000 ) ) ;
#4 = DIRECTION ( 'NONE',  ( 0.0000000000000000000, 0.0000000000000000000, 1.000000000000000000 ) ) ;
#5 = PRESENTATION_LAYER_ASSIGNMENT (  '', '', ( #121 ) ) ;
#6 = DIRECTION ( 'NONE',  ( -0.0000000000000000000, -0.0000000000000000000, -1.000000000000000000 ) ) ;
#7 = SURFACE_SIDE_STYLE ('',( #84 ) ) ;
#8 = CARTESIAN_POINT ( 'NONE',  ( 0.0000000000000000000, 0.0000000000000000000, 0.0000000000000000000 ) ) ;
#9 = VERTEX_POINT ( 'NONE', #30 ) ;
#10 = ADVANCED_FACE ( 'NONE', ( #139 ), #37, .T. ) ;
#11 = ORIENTED_EDGE ( 'NONE', *, *, #175, .F. ) ;
#12 = CARTESIAN_POINT ( 'NONE',  ( -0.009832657499999992654, 4.218152462906708390E-18, 0.03149600000000000316 ) ) ;
#13 = CARTESIAN_POINT ( 'NONE',  ( 0.0000000000000000000, 0.0000000000000000000, 1.481062999999999574 ) ) ;
#14 = DIMENSIONAL_EXPONENTS ( 1.000000000000000000, 0.0000000000000000000, 0.0000000000000000000, 0.0000000000000000000, 0.0000000000000000000, 0.0000000000000000000, 0.0000000000000000000 ) ;
#15 = CARTESIAN_POINT ( 'NONE',  ( 0.0000000000000000000, 0.0000000000000000000, 0.0000000000000000000 ) ) ;
#16 = EDGE_CURVE ( 'NONE', #172, #322, #17, .T. ) ;
#17 = CIRCLE ( 'NONE', #44, 0.05905500000000000332 ) ;
#18 =( NAMED_UNIT ( * ) PLANE_ANGLE_UNIT ( ) SI_UNIT ( $, .RADIAN. ) );
#19 = ORIENTED_EDGE ( 'NONE', *, *, #46, .T. ) ;
#20 = EDGE_CURVE ( 'NONE', #232, #211, #290, .T. ) ;
#21 = AXIS2_PLACEMENT_3D ( 'NONE', #34, #114, #54 ) ;
#22 = UNCERTAINTY_MEASURE_WITH_UNIT (LENGTH_MEASURE( 1.000000000000000082E-05 ), #91, 'distance_accuracy_value', 'NONE');
#23 = EDGE_CURVE ( 'NONE', #211, #232, #60, .T. ) ;
#24 = VECTOR ( 'NONE', #257, 39.37007874015748143 ) ;
#25 = DIRECTION ( 'NONE',  ( -0.1736481776669311916, 2.126576849575783316E-17, 0.9848077530122080203 ) ) ;
#26 = CARTESIAN_POINT ( 'NONE',  ( 0.05905500000000000332, 7.232151672364695422E-18, 1.496062999999999921 ) ) ;
#27 = EDGE_CURVE ( 'NONE', #85, #265, #38, .T. ) ;
#28 = VERTEX_POINT ( 'NONE', #281 ) ;
#29 = CYLINDRICAL_SURFACE ( 'NONE', #251, 0.009832657499999999592 ) ;
#30 = CARTESIAN_POINT ( 'NONE',  ( 0.05905500000000004496, 7.232151672364700045E-18, 0.3106497761392446599 ) ) ;
#31 = CIRCLE ( 'NONE', #190, 0.009832657499999999592 ) ;
#32 = ORIENTED_EDGE ( 'NONE', *, *, #145, .T. ) ;
#33 = ADVANCED_FACE ( 'NONE', ( #116 ), #220, .T. ) ;
#34 = CARTESIAN_POINT ( 'NONE',  ( 1.204153253448721358E-18, 0.0000000000000000000, 0.009832657499999999592 ) ) ;
#35 = DIRECTION ( 'NONE',  ( -0.0000000000000000000, -0.0000000000000000000, -1.000000000000000000 ) ) ;
#36 = DIRECTION ( 'NONE',  ( -1.224646799147353207E-16, -0.0000000000000000000, -1.000000000000000000 ) ) ;
#37 = PLANE ( 'NONE',  #310 ) ;
#38 = CIRCLE ( 'NONE', #301, 0.009832657499999999592 ) ;
#39 =( CONVERSION_BASED_UNIT ( 'INCH', #93 ) LENGTH_UNIT ( ) NAMED_UNIT ( #227 ) );
#40 = DIRECTION ( 'NONE',  ( 1.000000000000000000, 0.0000000000000000000, 0.0000000000000000000 ) ) ;
#41 =( LENGTH_UNIT ( ) NAMED_UNIT ( * ) SI_UNIT ( $, .METRE. ) );
#42 = CARTESIAN_POINT ( 'NONE',  ( 0.0000000000000000000, 0.0000000000000000000, 0.0000000000000000000 ) ) ;
#43 = ORIENTED_EDGE ( 'NONE', *, *, #175, .T. ) ;
#44 = AXIS2_PLACEMENT_3D ( 'NONE', #13, #195, #167 ) ;
#45 = AXIS2_PLACEMENT_3D ( 'NONE', #325, #98, #129 ) ;
#46 = EDGE_CURVE ( 'NONE', #28, #250, #88, .T. ) ;
#47 = ORIENTED_EDGE ( 'NONE', *, *, #117, .F. ) ;
#48 = MANIFOLD_SOLID_BREP ( 'Fillet1', #155 ) ;
#49 = PRODUCT_DEFINITION ( 'UNKNOWN', '', #174, #184 ) ;
#50 = EDGE_LOOP ( 'NONE', ( #2, #99, #207, #295 ) ) ;
#51 = CARTESIAN_POINT ( 'NONE',  ( 1.204153253448721358E-18, 0.0000000000000000000, 0.009832657499999999592 ) ) ;
#52 = AXIS2_PLACEMENT_3D ( 'NONE', #294, #101, #132 ) ;
#53 = CYLINDRICAL_SURFACE ( 'NONE', #45, 0.05905500000000000332 ) ;
#54 = DIRECTION ( 'NONE',  ( 1.000000000000000000, 0.0000000000000000000, 0.0000000000000000000 ) ) ;
#55 = ORIENTED_EDGE ( 'NONE', *, *, #117, .T. ) ;
#56 = DIRECTION ( 'NONE',  ( 1.000000000000000000, 0.0000000000000000000, 0.0000000000000000000 ) ) ;
#57 = SURFACE_STYLE_USAGE ( .BOTH. , #7 ) ;
#58 = LINE ( 'NONE', #63, #274 ) ;
#59 = ORIENTED_EDGE ( 'NONE', *, *, #252, .T. ) ;
#60 = CIRCLE ( 'NONE', #153, 0.009832657499999996123 ) ;
#61 = CARTESIAN_POINT ( 'NONE',  ( 0.009832657500000001327, 1.204153253448721358E-18, 0.009832657499999996123 ) ) ;
#62 = EDGE_LOOP ( 'NONE', ( #275, #77, #276, #43 ) ) ;
#63 = CARTESIAN_POINT ( 'NONE',  ( 0.009832657499999999592, 1.204153253448721358E-18, -1.204153253448721358E-18 ) ) ;
#64 = ORIENTED_EDGE ( 'NONE', *, *, #178, .T. ) ;
#65 =( NAMED_UNIT ( * ) PLANE_ANGLE_UNIT ( ) SI_UNIT ( $, .RADIAN. ) );
#66 = AXIS2_PLACEMENT_3D ( 'NONE', #140, #170, #233 ) ;
#67 = SURFACE_STYLE_USAGE ( .BOTH. , #122 ) ;
#68 = EDGE_CURVE ( 'NONE', #211, #9, #242, .T. ) ;
#69 = PRESENTATION_STYLE_ASSIGNMENT (( #67 ) ) ;
#70 = CIRCLE ( 'NONE', #236, 0.009832657499999999592 ) ;
#71 = DIRECTION ( 'NONE',  ( 0.1736481776669313859, 0.0000000000000000000, 0.9848077530122077983 ) ) ;
#72 = FACE_OUTER_BOUND ( 'NONE', #288, .T. ) ;
#73 = APPLICATION_CONTEXT ( 'automotive_design' ) ;
#74 = ORIENTED_EDGE ( 'NONE', *, *, #267, .F. ) ;
#75 = CARTESIAN_POINT ( 'NONE',  ( -0.05905499999999996863, 0.0000000000000000000, 0.3106497761392446599 ) ) ;
#76 = MECHANICAL_DESIGN_GEOMETRIC_PRESENTATION_REPRESENTATION (  '', ( #94 ), #217 ) ;
#77 = ORIENTED_EDGE ( 'NONE', *, *, #23, .F. ) ;
#78 = DIRECTION ( 'NONE',  ( -1.224646799147353207E-16, -0.0000000000000000000, -1.000000000000000000 ) ) ;
#79 = ORIENTED_EDGE ( 'NONE', *, *, #252, .F. ) ;
#80 = ADVANCED_FACE ( 'NONE', ( #200 ), #319, .T. ) ;
#81 = CARTESIAN_POINT ( 'NONE',  ( 0.0000000000000000000, 0.0000000000000000000, 1.481062999999999574 ) ) ;
#82 = CARTESIAN_POINT ( 'NONE',  ( 0.0000000000000000000, 0.0000000000000000000, 1.496062999999999921 ) ) ;
#83 = CARTESIAN_POINT ( 'NONE',  ( 3.857147558594504174E-18, 0.0000000000000000000, 0.03149600000000000316 ) ) ;
#84 = SURFACE_STYLE_FILL_AREA ( #234 ) ;
#85 = VERTEX_POINT ( 'NONE', #100 ) ;
#86 = CARTESIAN_POINT ( 'NONE',  ( -0.04405499999999973326, 0.0000000000000000000, 1.496062999999999921 ) ) ;
#87 = EDGE_LOOP ( 'NONE', ( #210, #254, #55, #300 ) ) ;
#88 = CIRCLE ( 'NONE', #229, 0.04405499999999973326 ) ;
#89 = CARTESIAN_POINT ( 'NONE',  ( 0.05905500000000000332, 7.232151672364695422E-18, 1.481062999999999574 ) ) ;
#90 = DIRECTION ( 'NONE',  ( -1.000000000000000000, 0.0000000000000000000, 0.0000000000000000000 ) ) ;
#91 =( CONVERSION_BASED_UNIT ( 'INCH', #270 ) LENGTH_UNIT ( ) NAMED_UNIT ( #126 ) );
#92 = AXIS2_PLACEMENT_3D ( 'NONE', #111, #191, #108 ) ;
#93 = LENGTH_MEASURE_WITH_UNIT ( LENGTH_MEASURE( 0.02539999999999999897 ), #150 );
#94 = STYLED_ITEM ( 'NONE', ( #69 ), #120 ) ;
#95 = EDGE_CURVE ( 'NONE', #250, #28, #166, .T. ) ;
#96 = FILL_AREA_STYLE ('',( #224 ) ) ;
#97 = AXIS2_PLACEMENT_3D ( 'NONE', #51, #287, #113 ) ;
#98 = DIRECTION ( 'NONE',  ( -0.0000000000000000000, -0.0000000000000000000, -1.000000000000000000 ) ) ;
#99 = ORIENTED_EDGE ( 'NONE', *, *, #23, .T. ) ;
#100 = CARTESIAN_POINT ( 'NONE',  ( -0.009832657499999996123, 0.0000000000000000000, 0.009832657500000001327 ) ) ;
#101 = DIRECTION ( 'NONE',  ( 0.0000000000000000000, 0.0000000000000000000, 1.000000000000000000 ) ) ;
#102 = ORIENTED_EDGE ( 'NONE', *, *, #196, .T. ) ;
#103 = ORIENTED_EDGE ( 'NONE', *, *, #46, .F. ) ;
#104 = ADVANCED_FACE ( 'NONE', ( #228 ), #266, .T. ) ;
#105 = DIRECTION ( 'NONE',  ( 1.224646799147353207E-16, 0.0000000000000000000, 1.000000000000000000 ) ) ;
#106 = CONICAL_SURFACE ( 'NONE', #92, 0.04405499999999973326, 0.7853981633974491672 ) ;
#107 = ORIENTED_EDGE ( 'NONE', *, *, #124, .T. ) ;
#108 = DIRECTION ( 'NONE',  ( -1.000000000000000000, 0.0000000000000000000, 0.0000000000000000000 ) ) ;
#109 = ADVANCED_FACE ( 'NONE', ( #72 ), #53, .T. ) ;
#110 = VERTEX_POINT ( 'NONE', #75 ) ;
#111 = CARTESIAN_POINT ( 'NONE',  ( 0.0000000000000000000, 0.0000000000000000000, 1.496062999999999921 ) ) ;
#112 = ORIENTED_EDGE ( 'NONE', *, *, #124, .F. ) ;
#113 = DIRECTION ( 'NONE',  ( 0.0000000000000000000, 0.0000000000000000000, -1.000000000000000000 ) ) ;
#114 = DIRECTION ( 'NONE',  ( 0.0000000000000000000, 1.000000000000000000, 0.0000000000000000000 ) ) ;
#115 = DIRECTION ( 'NONE',  ( 1.000000000000000000, 0.0000000000000000000, 0.0000000000000000000 ) ) ;
#116 = FACE_OUTER_BOUND ( 'NONE', #1, .T. ) ;
#117 = EDGE_CURVE ( 'NONE', #110, #9, #243, .T. ) ;
#118 =( CONVERSION_BASED_UNIT ( 'INCH', #245 ) LENGTH_UNIT ( ) NAMED_UNIT ( #14 ) );
#119 =( NAMED_UNIT ( * ) PLANE_ANGLE_UNIT ( ) SI_UNIT ( $, .RADIAN. ) );
#120 = ADVANCED_BREP_SHAPE_REPRESENTATION ( 'Micro_BMSM-005-2', ( #48, #128 ), #268 ) ;
#121 = STYLED_ITEM ( 'NONE', ( #258 ), #48 ) ;
#122 = SURFACE_SIDE_STYLE ('',( #148 ) ) ;
#123 = EDGE_CURVE ( 'NONE', #232, #110, #157, .T. ) ;
#124 = EDGE_CURVE ( 'NONE', #322, #110, #185, .T. ) ;
#125 = CYLINDRICAL_SURFACE ( 'NONE', #296, 0.009832657499999999592 ) ;
#126 = DIMENSIONAL_EXPONENTS ( 1.000000000000000000, 0.0000000000000000000, 0.0000000000000000000, 0.0000000000000000000, 0.0000000000000000000, 0.0000000000000000000, 0.0000000000000000000 ) ;
#127 = CONICAL_SURFACE ( 'NONE', #66, 0.009832657499999996123, 0.1745329251994338915 ) ;
#128 = AXIS2_PLACEMENT_3D ( 'NONE', #42, #240, #40 ) ;
#129 = DIRECTION ( 'NONE',  ( -1.000000000000000000, 0.0000000000000000000, 0.0000000000000000000 ) ) ;
#130 = VECTOR ( 'NONE', #71, 39.37007874015748143 ) ;
#131 = ADVANCED_FACE ( 'NONE', ( #154 ), #308, .T. ) ;
#132 = DIRECTION ( 'NONE',  ( 1.000000000000000000, 0.0000000000000000000, 0.0000000000000000000 ) ) ;
#133 = ORIENTED_EDGE ( 'NONE', *, *, #178, .F. ) ;
#134 = EDGE_LOOP ( 'NONE', ( #103, #32, #79, #133 ) ) ;
#135 = CARTESIAN_POINT ( 'NONE',  ( 1.204153253448721358E-18, 0.0000000000000000000, 0.009832657499999999592 ) ) ;
#136 = CARTESIAN_POINT ( 'NONE',  ( 1.204153253448721358E-18, 0.0000000000000000000, 0.009832657499999999592 ) ) ;
#137 = CARTESIAN_POINT ( 'NONE',  ( 3.804362540047678030E-17, 0.0000000000000000000, 0.3106497761392446599 ) ) ;
#138 = AXIS2_PLACEMENT_3D ( 'NONE', #81, #3, #255 ) ;
#139 = FACE_OUTER_BOUND ( 'NONE', #305, .T. ) ;
#140 = CARTESIAN_POINT ( 'NONE',  ( 3.857147558594504174E-18, 0.0000000000000000000, 0.03149600000000000316 ) ) ;
#141 = DIRECTION ( 'NONE',  ( -1.224646799147353207E-16, -0.0000000000000000000, -1.000000000000000000 ) ) ;
#142 = ORIENTED_EDGE ( 'NONE', *, *, #267, .T. ) ;
#143 = DIRECTION ( 'NONE',  ( -1.224646799147353207E-16, -0.0000000000000000000, -1.000000000000000000 ) ) ;
#144 = PRODUCT_DEFINITION_SHAPE ( 'NONE', 'NONE',  #49 ) ;
#145 = EDGE_CURVE ( 'NONE', #28, #172, #260, .T. ) ;
#146 = CIRCLE ( 'NONE', #222, 0.05905500000000000332 ) ;
#147 = ORIENTED_EDGE ( 'NONE', *, *, #16, .F. ) ;
#148 = SURFACE_STYLE_FILL_AREA ( #96 ) ;
#149 = VECTOR ( 'NONE', #272, 39.37007874015748143 ) ;
#150 =( LENGTH_UNIT ( ) NAMED_UNIT ( * ) SI_UNIT ( $, .METRE. ) );
#151 = EDGE_CURVE ( 'NONE', #247, #265, #206, .T. ) ;
#152 = UNCERTAINTY_MEASURE_WITH_UNIT (LENGTH_MEASURE( 1.000000000000000082E-05 ), #118, 'distance_accuracy_value', 'NONE');
#153 = AXIS2_PLACEMENT_3D ( 'NONE', #278, #241, #213 ) ;
#154 = FACE_OUTER_BOUND ( 'NONE', #164, .T. ) ;
#155 = CLOSED_SHELL ( 'NONE', ( #80, #320, #225, #231, #33, #109, #10, #104, #289, #183, #131 ) ) ;
#156 = EDGE_LOOP ( 'NONE', ( #230, #303, #256 ) ) ;
#157 = LINE ( 'NONE', #161, #188 ) ;
#158 =( NAMED_UNIT ( * ) SI_UNIT ( $, .STERADIAN. ) SOLID_ANGLE_UNIT ( ) );
#159 = DIRECTION ( 'NONE',  ( 1.000000000000000000, 0.0000000000000000000, 0.0000000000000000000 ) ) ;
#160 = ORIENTED_EDGE ( 'NONE', *, *, #283, .T. ) ;
#161 = CARTESIAN_POINT ( 'NONE',  ( -0.009832657499999992654, 1.204153253448721165E-18, 0.03149600000000000316 ) ) ;
#162 = CARTESIAN_POINT ( 'NONE',  ( 0.0000000000000000000, 0.0000000000000000000, 1.496062999999999921 ) ) ;
#163 = DIRECTION ( 'NONE',  ( 1.000000000000000000, 0.0000000000000000000, 0.0000000000000000000 ) ) ;
#164 = EDGE_LOOP ( 'NONE', ( #192, #208, #263 ) ) ;
#165 = DIRECTION ( 'NONE',  ( -1.224646799147353207E-16, -0.0000000000000000000, -1.000000000000000000 ) ) ;
#166 = CIRCLE ( 'NONE', #52, 0.04405499999999973326 ) ;
#167 = DIRECTION ( 'NONE',  ( 1.000000000000000000, 0.0000000000000000000, 0.0000000000000000000 ) ) ;
#168 = FACE_OUTER_BOUND ( 'NONE', #87, .T. ) ;
#169 = DIRECTION ( 'NONE',  ( -1.000000000000000000, 0.0000000000000000000, 0.0000000000000000000 ) ) ;
#170 = DIRECTION ( 'NONE',  ( 1.224646799147353207E-16, 0.0000000000000000000, 1.000000000000000000 ) ) ;
#171 = EDGE_CURVE ( 'NONE', #247, #85, #70, .T. ) ;
#172 = VERTEX_POINT ( 'NONE', #89 ) ;
#173 = AXIS2_PLACEMENT_3D ( 'NONE', #179, #205, #297 ) ;
#174 = PRODUCT_DEFINITION_FORMATION_WITH_SPECIFIED_SOURCE ( 'ANY', '', #279, .NOT_KNOWN. ) ;
#175 = EDGE_CURVE ( 'NONE', #9, #110, #146, .T. ) ;
#176 = CARTESIAN_POINT ( 'NONE',  ( 0.009832657500000001327, 0.0000000000000000000, 0.03149600000000000316 ) ) ;
#177 = VECTOR ( 'NONE', #253, 39.37007874015748143 ) ;
#178 = EDGE_CURVE ( 'NONE', #250, #322, #302, .T. ) ;
#179 = CARTESIAN_POINT ( 'NONE',  ( 0.0000000000000000000, 0.0000000000000000000, 1.496062999999999921 ) ) ;
#180 = CARTESIAN_POINT ( 'NONE',  ( -0.05905500000000000332, 0.0000000000000000000, 1.496062999999999921 ) ) ;
#181 = ORIENTED_EDGE ( 'NONE', *, *, #20, .T. ) ;
#182 = VECTOR ( 'NONE', #6, 39.37007874015748143 ) ;
#183 = ADVANCED_FACE ( 'NONE', ( #187 ), #29, .T. ) ;
#184 = PRODUCT_DEFINITION_CONTEXT ( 'detailed design', #306, 'design' ) ;
#185 = LINE ( 'NONE', #180, #177 ) ;
#186 = ORIENTED_EDGE ( 'NONE', *, *, #321, .F. ) ;
#187 = FACE_OUTER_BOUND ( 'NONE', #50, .T. ) ;
#188 = VECTOR ( 'NONE', #25, 39.37007874015747433 ) ;
#189 = ORIENTED_EDGE ( 'NONE', *, *, #95, .F. ) ;
#190 = AXIS2_PLACEMENT_3D ( 'NONE', #135, #105, #259 ) ;
#191 = DIRECTION ( 'NONE',  ( 0.0000000000000000000, 0.0000000000000000000, -1.000000000000000000 ) ) ;
#192 = ORIENTED_EDGE ( 'NONE', *, *, #171, .F. ) ;
#193 = ORIENTED_EDGE ( 'NONE', *, *, #16, .T. ) ;
#194 = SHAPE_DEFINITION_REPRESENTATION ( #144, #120 ) ;
#195 = DIRECTION ( 'NONE',  ( 0.0000000000000000000, 0.0000000000000000000, -1.000000000000000000 ) ) ;
#196 = EDGE_CURVE ( 'NONE', #211, #265, #58, .T. ) ;
#197 = DIRECTION ( 'NONE',  ( -1.000000000000000000, 0.0000000000000000000, 1.224646799147352961E-16 ) ) ;
#198 = DIRECTION ( 'NONE',  ( 0.0000000000000000000, 0.0000000000000000000, 1.000000000000000000 ) ) ;
#199 = PRODUCT_CONTEXT ( 'NONE', #73, 'mechanical' ) ;
#200 = FACE_OUTER_BOUND ( 'NONE', #156, .T. ) ;
#201 = LINE ( 'NONE', #221, #149 ) ;
#202 = AXIS2_PLACEMENT_3D ( 'NONE', #82, #35, #90 ) ;
#203 = UNCERTAINTY_MEASURE_WITH_UNIT (LENGTH_MEASURE( 1.000000000000000082E-05 ), #39, 'distance_accuracy_value', 'NONE');
#204 = DIRECTION ( 'NONE',  ( 1.000000000000000000, 0.0000000000000000000, 0.0000000000000000000 ) ) ;
#205 = DIRECTION ( 'NONE',  ( 0.0000000000000000000, 0.0000000000000000000, -1.000000000000000000 ) ) ;
#206 = CIRCLE ( 'NONE', #97, 0.009832657499999999592 ) ;
#207 = ORIENTED_EDGE ( 'NONE', *, *, #321, .T. ) ;
#208 = ORIENTED_EDGE ( 'NONE', *, *, #151, .T. ) ;
#209 = VECTOR ( 'NONE', #249, 39.37007874015748143 ) ;
#210 = ORIENTED_EDGE ( 'NONE', *, *, #20, .F. ) ;
#211 = VERTEX_POINT ( 'NONE', #262 ) ;
#212 = CARTESIAN_POINT ( 'NONE',  ( 1.806229880173082037E-18, 0.0000000000000000000, 0.0000000000000000000 ) ) ;
#213 = DIRECTION ( 'NONE',  ( -1.000000000000000000, 0.0000000000000000000, 0.0000000000000000000 ) ) ;
#214 = APPLICATION_PROTOCOL_DEFINITION ( 'draft international standard', 'automotive_design', 1998, #306 ) ;
#215 = AXIS2_PLACEMENT_3D ( 'NONE', #298, #226, #159 ) ;
#216 = FILL_AREA_STYLE_COLOUR ( '', #271 ) ;
#217 =( GEOMETRIC_REPRESENTATION_CONTEXT ( 3 ) GLOBAL_UNCERTAINTY_ASSIGNED_CONTEXT ( ( #22 ) ) GLOBAL_UNIT_ASSIGNED_CONTEXT ( ( #91, #119, #158 ) ) REPRESENTATION_CONTEXT ( 'NONE', 'WORKASPACE' ) );
#218 = DIRECTION ( 'NONE',  ( 1.224646799147353207E-16, 1.000000000000000000, -0.0000000000000000000 ) ) ;
#219 = CONICAL_SURFACE ( 'NONE', #291, 0.009832657499999996123, 0.1745329251994338915 ) ;
#220 = CYLINDRICAL_SURFACE ( 'NONE', #202, 0.05905500000000000332 ) ;
#221 = CARTESIAN_POINT ( 'NONE',  ( -0.009832657499999999592, 0.0000000000000000000, 1.204153253448721358E-18 ) ) ;
#222 = AXIS2_PLACEMENT_3D ( 'NONE', #137, #36, #163 ) ;
#223 = DIRECTION ( 'NONE',  ( -1.224646799147353207E-16, -0.0000000000000000000, -1.000000000000000000 ) ) ;
#224 = FILL_AREA_STYLE_COLOUR ( '', #237 ) ;
#225 = ADVANCED_FACE ( 'NONE', ( #168 ), #127, .T. ) ;
#226 = DIRECTION ( 'NONE',  ( 0.0000000000000000000, 1.000000000000000000, 0.0000000000000000000 ) ) ;
#227 = DIMENSIONAL_EXPONENTS ( 1.000000000000000000, 0.0000000000000000000, 0.0000000000000000000, 0.0000000000000000000, 0.0000000000000000000, 0.0000000000000000000, 0.0000000000000000000 ) ;
#228 = FACE_OUTER_BOUND ( 'NONE', #299, .T. ) ;
#229 = AXIS2_PLACEMENT_3D ( 'NONE', #162, #198, #115 ) ;
#230 = ORIENTED_EDGE ( 'NONE', *, *, #151, .F. ) ;
#231 = ADVANCED_FACE ( 'NONE', ( #264 ), #106, .T. ) ;
#232 = VERTEX_POINT ( 'NONE', #12 ) ;
#233 = DIRECTION ( 'NONE',  ( 1.000000000000000000, 0.0000000000000000000, 0.0000000000000000000 ) ) ;
#234 = FILL_AREA_STYLE ('',( #216 ) ) ;
#235 = CARTESIAN_POINT ( 'NONE',  ( -0.04405499999999973326, 0.0000000000000000000, 1.496062999999999921 ) ) ;
#236 = AXIS2_PLACEMENT_3D ( 'NONE', #239, #218, #282 ) ;
#237 = COLOUR_RGB ( '',0.7921568627450980005, 0.8196078431372548767, 0.9333333333333333481 ) ;
#238 = CARTESIAN_POINT ( 'NONE',  ( 0.0000000000000000000, 0.0000000000000000000, 1.496062999999999921 ) ) ;
#239 = CARTESIAN_POINT ( 'NONE',  ( 1.204153253448721358E-18, 0.0000000000000000000, 0.009832657499999999592 ) ) ;
#240 = DIRECTION ( 'NONE',  ( 0.0000000000000000000, 0.0000000000000000000, 1.000000000000000000 ) ) ;
#241 = DIRECTION ( 'NONE',  ( -1.224646799147353207E-16, -0.0000000000000000000, -1.000000000000000000 ) ) ;
#242 = LINE ( 'NONE', #176, #130 ) ;
#243 = CIRCLE ( 'NONE', #315, 0.05905500000000000332 ) ;
#244 = DIRECTION ( 'NONE',  ( 1.000000000000000000, 0.0000000000000000000, -0.0000000000000000000 ) ) ;
#245 = LENGTH_MEASURE_WITH_UNIT ( LENGTH_MEASURE( 0.02539999999999999897 ), #41 );
#246 =( GEOMETRIC_REPRESENTATION_CONTEXT ( 3 ) GLOBAL_UNCERTAINTY_ASSIGNED_CONTEXT ( ( #152 ) ) GLOBAL_UNIT_ASSIGNED_CONTEXT ( ( #118, #18, #318 ) ) REPRESENTATION_CONTEXT ( 'NONE', 'WORKASPACE' ) );
#247 = VERTEX_POINT ( 'NONE', #212 ) ;
#248 = CIRCLE ( 'NONE', #138, 0.05905500000000000332 ) ;
#249 = DIRECTION ( 'NONE',  ( 0.7071067811865482389, 8.659560562354941486E-17, -0.7071067811865469066 ) ) ;
#250 = VERTEX_POINT ( 'NONE', #235 ) ;
#251 = AXIS2_PLACEMENT_3D ( 'NONE', #8, #143, #197 ) ;
#252 = EDGE_CURVE ( 'NONE', #322, #172, #248, .T. ) ;
#253 = DIRECTION ( 'NONE',  ( -0.0000000000000000000, -0.0000000000000000000, -1.000000000000000000 ) ) ;
#254 = ORIENTED_EDGE ( 'NONE', *, *, #123, .T. ) ;
#255 = DIRECTION ( 'NONE',  ( 1.000000000000000000, 0.0000000000000000000, 0.0000000000000000000 ) ) ;
#256 = ORIENTED_EDGE ( 'NONE', *, *, #283, .F. ) ;
#257 = DIRECTION ( 'NONE',  ( -0.7071067811865482389, 0.0000000000000000000, -0.7071067811865469066 ) ) ;
#258 = PRESENTATION_STYLE_ASSIGNMENT (( #57 ) ) ;
#259 = DIRECTION ( 'NONE',  ( -1.000000000000000000, 0.0000000000000000000, 2.170579261049422102E-16 ) ) ;
#260 = LINE ( 'NONE', #273, #209 ) ;
#261 = CARTESIAN_POINT ( 'NONE',  ( 3.857147558594504174E-18, 0.0000000000000000000, 0.03149600000000000316 ) ) ;
#262 = CARTESIAN_POINT ( 'NONE',  ( 0.009832657500000001327, 0.0000000000000000000, 0.03149600000000000316 ) ) ;
#263 = ORIENTED_EDGE ( 'NONE', *, *, #27, .F. ) ;
#264 = FACE_OUTER_BOUND ( 'NONE', #134, .T. ) ;
#265 = VERTEX_POINT ( 'NONE', #61 ) ;
#266 = CONICAL_SURFACE ( 'NONE', #173, 0.04405499999999973326, 0.7853981633974491672 ) ;
#267 = EDGE_CURVE ( 'NONE', #172, #9, #307, .T. ) ;
#268 =( GEOMETRIC_REPRESENTATION_CONTEXT ( 3 ) GLOBAL_UNCERTAINTY_ASSIGNED_CONTEXT ( ( #203 ) ) GLOBAL_UNIT_ASSIGNED_CONTEXT ( ( #39, #65, #317 ) ) REPRESENTATION_CONTEXT ( 'NONE', 'WORKASPACE' ) );
#269 = FACE_OUTER_BOUND ( 'NONE', #284, .T. ) ;
#270 = LENGTH_MEASURE_WITH_UNIT ( LENGTH_MEASURE( 0.02539999999999999897 ), #313 );
#271 = COLOUR_RGB ( '',0.7921568627450980005, 0.8196078431372548767, 0.9333333333333333481 ) ;
#272 = DIRECTION ( 'NONE',  ( -1.224646799147353207E-16, -0.0000000000000000000, -1.000000000000000000 ) ) ;
#273 = CARTESIAN_POINT ( 'NONE',  ( 0.04405499999999973326, 5.395181473643630390E-18, 1.496062999999999921 ) ) ;
#274 = VECTOR ( 'NONE', #165, 39.37007874015748143 ) ;
#275 = ORIENTED_EDGE ( 'NONE', *, *, #123, .F. ) ;
#276 = ORIENTED_EDGE ( 'NONE', *, *, #68, .T. ) ;
#277 = ORIENTED_EDGE ( 'NONE', *, *, #145, .F. ) ;
#278 = CARTESIAN_POINT ( 'NONE',  ( 3.857147558594504174E-18, 0.0000000000000000000, 0.03149600000000000316 ) ) ;
#279 = PRODUCT ( 'Micro_BMSM-005-2', 'Micro_BMSM-005-2', '', ( #199 ) ) ;
#280 = DIRECTION ( 'NONE',  ( 1.224646799147353207E-16, 0.0000000000000000000, 1.000000000000000000 ) ) ;
#281 = CARTESIAN_POINT ( 'NONE',  ( 0.04405499999999973326, 6.313666573004162521E-18, 1.496062999999999921 ) ) ;
#282 = DIRECTION ( 'NONE',  ( -1.000000000000000000, 1.224646799147352961E-16, 0.0000000000000000000 ) ) ;
#283 = EDGE_CURVE ( 'NONE', #265, #85, #31, .T. ) ;
#284 = EDGE_LOOP ( 'NONE', ( #181, #102, #160, #186 ) ) ;
#285 = AXIS2_PLACEMENT_3D ( 'NONE', #261, #141, #169 ) ;
#286 = DIRECTION ( 'NONE',  ( -1.000000000000000000, 0.0000000000000000000, 2.170579261049422102E-16 ) ) ;
#287 = DIRECTION ( 'NONE',  ( 0.0000000000000000000, -1.000000000000000000, 0.0000000000000000000 ) ) ;
#288 = EDGE_LOOP ( 'NONE', ( #74, #193, #107, #11 ) ) ;
#289 = ADVANCED_FACE ( 'NONE', ( #304 ), #219, .T. ) ;
#290 = CIRCLE ( 'NONE', #285, 0.009832657499999996123 ) ;
#291 = AXIS2_PLACEMENT_3D ( 'NONE', #83, #280, #56 ) ;
#292 = APPLICATION_PROTOCOL_DEFINITION ( 'draft international standard', 'automotive_design', 1998, #73 ) ;
#293 = CARTESIAN_POINT ( 'NONE',  ( 3.804362540047678030E-17, 0.0000000000000000000, 0.3106497761392446599 ) ) ;
#294 = CARTESIAN_POINT ( 'NONE',  ( 0.0000000000000000000, 0.0000000000000000000, 1.496062999999999921 ) ) ;
#295 = ORIENTED_EDGE ( 'NONE', *, *, #27, .T. ) ;
#296 = AXIS2_PLACEMENT_3D ( 'NONE', #15, #223, #312 ) ;
#297 = DIRECTION ( 'NONE',  ( -1.000000000000000000, 0.0000000000000000000, 0.0000000000000000000 ) ) ;
#298 = CARTESIAN_POINT ( 'NONE',  ( 1.204153253448721358E-18, 0.0000000000000000000, 0.009832657499999999592 ) ) ;
#299 = EDGE_LOOP ( 'NONE', ( #277, #189, #64, #147 ) ) ;
#300 = ORIENTED_EDGE ( 'NONE', *, *, #68, .F. ) ;
#301 = AXIS2_PLACEMENT_3D ( 'NONE', #136, #309, #286 ) ;
#302 = LINE ( 'NONE', #86, #24 ) ;
#303 = ORIENTED_EDGE ( 'NONE', *, *, #171, .T. ) ;
#304 = FACE_OUTER_BOUND ( 'NONE', #62, .T. ) ;
#305 = EDGE_LOOP ( 'NONE', ( #311, #19 ) ) ;
#306 = APPLICATION_CONTEXT ( 'automotive_design' ) ;
#307 = LINE ( 'NONE', #26, #182 ) ;
#308 = SPHERICAL_SURFACE ( 'NONE', #21, 0.009832657499999999592 ) ;
#309 = DIRECTION ( 'NONE',  ( 1.224646799147353207E-16, 0.0000000000000000000, 1.000000000000000000 ) ) ;
#310 = AXIS2_PLACEMENT_3D ( 'NONE', #238, #4, #244 ) ;
#311 = ORIENTED_EDGE ( 'NONE', *, *, #95, .T. ) ;
#312 = DIRECTION ( 'NONE',  ( -1.000000000000000000, 0.0000000000000000000, 1.224646799147352961E-16 ) ) ;
#313 =( LENGTH_UNIT ( ) NAMED_UNIT ( * ) SI_UNIT ( $, .METRE. ) );
#314 = CARTESIAN_POINT ( 'NONE',  ( -0.05905500000000000332, 0.0000000000000000000, 1.481062999999999574 ) ) ;
#315 = AXIS2_PLACEMENT_3D ( 'NONE', #293, #78, #204 ) ;
#316 = PRESENTATION_LAYER_ASSIGNMENT (  '', '', ( #94 ) ) ;
#317 =( NAMED_UNIT ( * ) SI_UNIT ( $, .STERADIAN. ) SOLID_ANGLE_UNIT ( ) );
#318 =( NAMED_UNIT ( * ) SI_UNIT ( $, .STERADIAN. ) SOLID_ANGLE_UNIT ( ) );
#319 = SPHERICAL_SURFACE ( 'NONE', #215, 0.009832657499999999592 ) ;
#320 = ADVANCED_FACE ( 'NONE', ( #269 ), #125, .T. ) ;
#321 = EDGE_CURVE ( 'NONE', #232, #85, #201, .T. ) ;
#322 = VERTEX_POINT ( 'NONE', #314 ) ;
#323 = MECHANICAL_DESIGN_GEOMETRIC_PRESENTATION_REPRESENTATION (  '', ( #121 ), #246 ) ;
#324 = PRODUCT_RELATED_PRODUCT_CATEGORY ( 'part', '', ( #279 ) ) ;
#325 = CARTESIAN_POINT ( 'NONE',  ( 0.0000000000000000000, 0.0000000000000000000, 1.496062999999999921 ) ) ;
ENDSEC;
END-ISO-10303-21;
