ISO-10303-21;
HEADER;
FILE_DESCRIPTION (( 'STEP AP214' ),
    '1' );
FILE_NAME ('Micro_AEMM-010-3.STEP',
    '2022-03-15T14:22:25',
    ( '' ),
    ( '' ),
    'SwSTEP 2.0',
    'SolidWorks 2022',
    '' );
FILE_SCHEMA (( 'AUTOMOTIVE_DESIGN' ));
ENDSEC;

DATA;
#1 = DIRECTION ( 'NONE',  ( 0.000000000000000000, 0.000000000000000000, 1.000000000000000000 ) ) ;
#2 = EDGE_CURVE ( 'NONE', #190, #6, #49, .T. ) ;
#3 = VERTEX_POINT ( 'NONE', #244 ) ;
#4 = ORIENTED_EDGE ( 'NONE', *, *, #2, .T. ) ;
#5 = EDGE_LOOP ( 'NONE', ( #234, #269, #90, #26 ) ) ;
#6 = VERTEX_POINT ( 'NONE', #217 ) ;
#7 = FACE_OUTER_BOUND ( 'NONE', #5, .T. ) ;
#8 = ORIENTED_EDGE ( 'NONE', *, *, #176, .F. ) ;
#9 = ADVANCED_FACE ( 'NONE', ( #38 ), #24, .T. ) ;
#10 =( CONVERSION_BASED_UNIT ( 'INCH', #128 ) LENGTH_UNIT ( ) NAMED_UNIT ( #70 ) );
#11 = VECTOR ( 'NONE', #83, 39.37007874015748143 ) ;
#12 = CARTESIAN_POINT ( 'NONE',  ( -0.01966531500000000959, 0.000000000000000000, 2.408306506897444257E-18 ) ) ;
#13 = DIRECTION ( 'NONE',  ( -1.224646799147353207E-16, -0.000000000000000000, -1.000000000000000000 ) ) ;
#14 = CARTESIAN_POINT ( 'NONE',  ( 1.928573779297252010E-17, 0.000000000000000000, 0.1574800000000000366 ) ) ;
#15 = DIRECTION ( 'NONE',  ( -1.000000000000000000, 0.000000000000000000, 0.000000000000000000 ) ) ;
#16 = AXIS2_PLACEMENT_3D ( 'NONE', #60, #270, #242 ) ;
#17 = DIRECTION ( 'NONE',  ( -0.000000000000000000, -0.000000000000000000, -1.000000000000000000 ) ) ;
#18 = CARTESIAN_POINT ( 'NONE',  ( 0.000000000000000000, 0.000000000000000000, 1.968503999999999809 ) ) ;
#19 =( NAMED_UNIT ( * ) SI_UNIT ( $, .STERADIAN. ) SOLID_ANGLE_UNIT ( ) );
#20 = DIRECTION ( 'NONE',  ( -1.000000000000000000, 0.000000000000000000, 1.224646799147353207E-16 ) ) ;
#21 = PRODUCT_RELATED_PRODUCT_CATEGORY ( 'part', '', ( #152 ) ) ;
#22 = AXIS2_PLACEMENT_3D ( 'NONE', #53, #117, #289 ) ;
#23 = EDGE_CURVE ( 'NONE', #146, #190, #37, .T. ) ;
#24 = CONICAL_SURFACE ( 'NONE', #195, 0.01966531500000001306, 0.1745329251994338360 ) ;
#25 = ADVANCED_FACE ( 'NONE', ( #196 ), #94, .T. ) ;
#26 = ORIENTED_EDGE ( 'NONE', *, *, #115, .F. ) ;
#27 = CIRCLE ( 'NONE', #120, 0.07874000000000000443 ) ;
#28 = ORIENTED_EDGE ( 'NONE', *, *, #150, .F. ) ;
#29 = UNCERTAINTY_MEASURE_WITH_UNIT (LENGTH_MEASURE( 1.000000000000000082E-05 ), #271, 'distance_accuracy_value', 'NONE');
#30 = EDGE_CURVE ( 'NONE', #283, #125, #33, .T. ) ;
#31 = ORIENTED_EDGE ( 'NONE', *, *, #45, .T. ) ;
#32 = UNCERTAINTY_MEASURE_WITH_UNIT (LENGTH_MEASURE( 1.000000000000000082E-05 ), #75, 'distance_accuracy_value', 'NONE');
#33 = LINE ( 'NONE', #246, #11 ) ;
#34 = DIRECTION ( 'NONE',  ( -1.000000000000000000, 0.000000000000000000, 1.224646799147353207E-16 ) ) ;
#35 = AXIS2_PLACEMENT_3D ( 'NONE', #105, #80, #86 ) ;
#36 = PRESENTATION_LAYER_ASSIGNMENT (  '', '', ( #273 ) ) ;
#37 = LINE ( 'NONE', #12, #187 ) ;
#38 = FACE_OUTER_BOUND ( 'NONE', #66, .T. ) ;
#39 = SURFACE_STYLE_USAGE ( .BOTH. , #223 ) ;
#40 = ORIENTED_EDGE ( 'NONE', *, *, #189, .F. ) ;
#41 = DIRECTION ( 'NONE',  ( -1.224646799147353207E-16, -0.000000000000000000, -1.000000000000000000 ) ) ;
#42 = COLOUR_RGB ( '',0.7921568627450980005, 0.8196078431372548767, 0.9333333333333333481 ) ;
#43 = DIRECTION ( 'NONE',  ( -1.224646799147353207E-16, -0.000000000000000000, -1.000000000000000000 ) ) ;
#44 = DIRECTION ( 'NONE',  ( 0.000000000000000000, 0.000000000000000000, -1.000000000000000000 ) ) ;
#45 = EDGE_CURVE ( 'NONE', #125, #107, #27, .T. ) ;
#46 =( LENGTH_UNIT ( ) NAMED_UNIT ( * ) SI_UNIT ( $, .METRE. ) );
#47 = CARTESIAN_POINT ( 'NONE',  ( 0.01966531500000000959, 2.408306506897444257E-18, -2.408306506897444257E-18 ) ) ;
#48 = CARTESIAN_POINT ( 'NONE',  ( 2.949324855037697299E-34, 0.000000000000000000, 2.408306506897443486E-18 ) ) ;
#49 = CIRCLE ( 'NONE', #16, 0.01966531500000000265 ) ;
#50 = LINE ( 'NONE', #140, #249 ) ;
#51 = CLOSED_SHELL ( 'NONE', ( #68, #25, #299, #202, #186, #193, #209, #9, #247, #225 ) ) ;
#52 = ORIENTED_EDGE ( 'NONE', *, *, #54, .F. ) ;
#53 = CARTESIAN_POINT ( 'NONE',  ( 0.000000000000000000, 0.000000000000000000, 0.000000000000000000 ) ) ;
#54 = EDGE_CURVE ( 'NONE', #149, #146, #236, .T. ) ;
#55 = EDGE_LOOP ( 'NONE', ( #99, #156, #137, #284 ) ) ;
#56 =( LENGTH_UNIT ( ) NAMED_UNIT ( * ) SI_UNIT ( $, .METRE. ) );
#57 = VERTEX_POINT ( 'NONE', #134 ) ;
#58 = DIRECTION ( 'NONE',  ( -0.1736481776669311639, 2.126576849575782392E-17, 0.9848077530122080203 ) ) ;
#59 = EDGE_LOOP ( 'NONE', ( #279, #208, #88, #237 ) ) ;
#60 = CARTESIAN_POINT ( 'NONE',  ( 2.949324855037697299E-34, 0.000000000000000000, 2.408306506897443486E-18 ) ) ;
#61 = PRODUCT_CONTEXT ( 'NONE', #100, 'mechanical' ) ;
#62 = DIRECTION ( 'NONE',  ( -1.000000000000000000, 0.000000000000000000, 1.224646799147353207E-16 ) ) ;
#63 = ORIENTED_EDGE ( 'NONE', *, *, #124, .F. ) ;
#64 = DIRECTION ( 'NONE',  ( 0.000000000000000000, 0.000000000000000000, -1.000000000000000000 ) ) ;
#65 = ORIENTED_EDGE ( 'NONE', *, *, #277, .T. ) ;
#66 = EDGE_LOOP ( 'NONE', ( #206, #52, #171, #31 ) ) ;
#67 = CARTESIAN_POINT ( 'NONE',  ( 0.000000000000000000, 0.000000000000000000, 1.968503999999999809 ) ) ;
#68 = ADVANCED_FACE ( 'NONE', ( #177 ), #263, .T. ) ;
#69 = CARTESIAN_POINT ( 'NONE',  ( -0.07874000000000000443, 0.000000000000000000, 1.968503999999999809 ) ) ;
#70 = DIMENSIONAL_EXPONENTS ( 1.000000000000000000, 0.000000000000000000, 0.000000000000000000, 0.000000000000000000, 0.000000000000000000, 0.000000000000000000, 0.000000000000000000 ) ;
#71 = DIRECTION ( 'NONE',  ( 1.000000000000000000, 0.000000000000000000, 0.000000000000000000 ) ) ;
#72 = CARTESIAN_POINT ( 'NONE',  ( 0.000000000000000000, 0.000000000000000000, 1.968503999999999809 ) ) ;
#73 = CARTESIAN_POINT ( 'NONE',  ( 0.000000000000000000, 0.000000000000000000, 1.953504000000000129 ) ) ;
#74 = AXIS2_PLACEMENT_3D ( 'NONE', #14, #239, #159 ) ;
#75 =( CONVERSION_BASED_UNIT ( 'INCH', #213 ) LENGTH_UNIT ( ) NAMED_UNIT ( #119 ) );
#76 =( GEOMETRIC_REPRESENTATION_CONTEXT ( 3 ) GLOBAL_UNCERTAINTY_ASSIGNED_CONTEXT ( ( #29 ) ) GLOBAL_UNIT_ASSIGNED_CONTEXT ( ( #271, #228, #201 ) ) REPRESENTATION_CONTEXT ( 'NONE', 'WORKASPACE' ) );
#77 = PRODUCT_DEFINITION_CONTEXT ( 'detailed design', #113, 'design' ) ;
#78 = EDGE_CURVE ( 'NONE', #149, #6, #111, .T. ) ;
#79 = ORIENTED_EDGE ( 'NONE', *, *, #30, .T. ) ;
#80 = DIRECTION ( 'NONE',  ( -1.224646799147353207E-16, -0.000000000000000000, -1.000000000000000000 ) ) ;
#81 = AXIS2_PLACEMENT_3D ( 'NONE', #67, #17, #224 ) ;
#82 = CARTESIAN_POINT ( 'NONE',  ( 0.000000000000000000, 0.000000000000000000, 0.000000000000000000 ) ) ;
#83 = DIRECTION ( 'NONE',  ( -0.000000000000000000, -0.000000000000000000, -1.000000000000000000 ) ) ;
#84 = ORIENTED_EDGE ( 'NONE', *, *, #115, .T. ) ;
#85 = DIRECTION ( 'NONE',  ( -1.224646799147353207E-16, -0.000000000000000000, -1.000000000000000000 ) ) ;
#86 = DIRECTION ( 'NONE',  ( -1.000000000000000000, 0.000000000000000000, 0.000000000000000000 ) ) ;
#87 = CARTESIAN_POINT ( 'NONE',  ( 0.000000000000000000, 0.000000000000000000, 0.000000000000000000 ) ) ;
#88 = ORIENTED_EDGE ( 'NONE', *, *, #2, .F. ) ;
#89 = CYLINDRICAL_SURFACE ( 'NONE', #123, 0.01966531500000000959 ) ;
#90 = ORIENTED_EDGE ( 'NONE', *, *, #23, .T. ) ;
#91 = DIRECTION ( 'NONE',  ( -1.224646799147353207E-16, -0.000000000000000000, -1.000000000000000000 ) ) ;
#92 = FILL_AREA_STYLE_COLOUR ( '', #268 ) ;
#93 = PLANE ( 'NONE',  #108 ) ;
#94 = CONICAL_SURFACE ( 'NONE', #74, 0.01966531500000001306, 0.1745329251994338360 ) ;
#95 = MECHANICAL_DESIGN_GEOMETRIC_PRESENTATION_REPRESENTATION (  '', ( #273 ), #145 ) ;
#96 = DIRECTION ( 'NONE',  ( 1.000000000000000000, 0.000000000000000000, -0.000000000000000000 ) ) ;
#97 = CONICAL_SURFACE ( 'NONE', #168, 0.06374000000000018540, 0.7853981633974522758 ) ;
#98 = DIMENSIONAL_EXPONENTS ( 1.000000000000000000, 0.000000000000000000, 0.000000000000000000, 0.000000000000000000, 0.000000000000000000, 0.000000000000000000, 0.000000000000000000 ) ;
#99 = ORIENTED_EDGE ( 'NONE', *, *, #30, .F. ) ;
#100 = APPLICATION_CONTEXT ( 'automotive_design' ) ;
#101 = AXIS2_PLACEMENT_3D ( 'NONE', #73, #44, #139 ) ;
#102 = EDGE_LOOP ( 'NONE', ( #214, #79, #63, #28 ) ) ;
#103 = ORIENTED_EDGE ( 'NONE', *, *, #144, .F. ) ;
#104 = SURFACE_STYLE_FILL_AREA ( #192 ) ;
#105 = CARTESIAN_POINT ( 'NONE',  ( 1.928573779297252010E-17, 0.000000000000000000, 0.1574800000000000366 ) ) ;
#106 = DIRECTION ( 'NONE',  ( 0.7071067811865502373, 8.659560562354966138E-17, -0.7071067811865446862 ) ) ;
#107 = VERTEX_POINT ( 'NONE', #251 ) ;
#108 = AXIS2_PLACEMENT_3D ( 'NONE', #87, #266, #238 ) ;
#109 = PRODUCT_DEFINITION_SHAPE ( 'NONE', 'NONE',  #219 ) ;
#110 = DIRECTION ( 'NONE',  ( 1.000000000000000000, 0.000000000000000000, 0.000000000000000000 ) ) ;
#111 = LINE ( 'NONE', #47, #230 ) ;
#112 = LINE ( 'NONE', #175, #260 ) ;
#113 = APPLICATION_CONTEXT ( 'automotive_design' ) ;
#114 = DIRECTION ( 'NONE',  ( 0.000000000000000000, 0.000000000000000000, 1.000000000000000000 ) ) ;
#115 = EDGE_CURVE ( 'NONE', #6, #190, #207, .T. ) ;
#116 = DIRECTION ( 'NONE',  ( 0.000000000000000000, 0.000000000000000000, 1.000000000000000000 ) ) ;
#117 = DIRECTION ( 'NONE',  ( 0.000000000000000000, 0.000000000000000000, 1.000000000000000000 ) ) ;
#118 = LINE ( 'NONE', #69, #267 ) ;
#119 = DIMENSIONAL_EXPONENTS ( 1.000000000000000000, 0.000000000000000000, 0.000000000000000000, 0.000000000000000000, 0.000000000000000000, 0.000000000000000000, 0.000000000000000000 ) ;
#120 = AXIS2_PLACEMENT_3D ( 'NONE', #287, #41, #110 ) ;
#121 = MECHANICAL_DESIGN_GEOMETRIC_PRESENTATION_REPRESENTATION (  '', ( #142 ), #231 ) ;
#122 = CARTESIAN_POINT ( 'NONE',  ( 0.01966531500000003735, 0.000000000000000000, 0.1574800000000000366 ) ) ;
#123 = AXIS2_PLACEMENT_3D ( 'NONE', #82, #85, #34 ) ;
#124 = EDGE_CURVE ( 'NONE', #107, #125, #155, .T. ) ;
#125 = VERTEX_POINT ( 'NONE', #183 ) ;
#126 = AXIS2_PLACEMENT_3D ( 'NONE', #276, #229, #164 ) ;
#127 = ORIENTED_EDGE ( 'NONE', *, *, #167, .T. ) ;
#128 = LENGTH_MEASURE_WITH_UNIT ( LENGTH_MEASURE( 0.02539999999999999897 ), #56 );
#129 = FILL_AREA_STYLE_COLOUR ( '', #42 ) ;
#130 = CIRCLE ( 'NONE', #297, 0.07874000000000000443 ) ;
#131 = EDGE_CURVE ( 'NONE', #3, #57, #50, .T. ) ;
#132 = CIRCLE ( 'NONE', #298, 0.06374000000000018540 ) ;
#133 = APPLICATION_PROTOCOL_DEFINITION ( 'draft international standard', 'automotive_design', 1998, #100 ) ;
#134 = CARTESIAN_POINT ( 'NONE',  ( -0.07874000000000000443, 0.000000000000000000, 1.953504000000000129 ) ) ;
#135 = DIRECTION ( 'NONE',  ( 1.224646799147353207E-16, 0.000000000000000000, 1.000000000000000000 ) ) ;
#136 = PRESENTATION_STYLE_ASSIGNMENT (( #39 ) ) ;
#137 = ORIENTED_EDGE ( 'NONE', *, *, #150, .T. ) ;
#138 = SURFACE_STYLE_FILL_AREA ( #245 ) ;
#139 = DIRECTION ( 'NONE',  ( 1.000000000000000000, 0.000000000000000000, 0.000000000000000000 ) ) ;
#140 = CARTESIAN_POINT ( 'NONE',  ( -0.06374000000000018540, 0.000000000000000000, 1.968503999999999809 ) ) ;
#141 = AXIS2_PLACEMENT_3D ( 'NONE', #72, #114, #275 ) ;
#142 = STYLED_ITEM ( 'NONE', ( #136 ), #280 ) ;
#143 = LINE ( 'NONE', #122, #292 ) ;
#144 = EDGE_CURVE ( 'NONE', #57, #283, #211, .T. ) ;
#145 =( GEOMETRIC_REPRESENTATION_CONTEXT ( 3 ) GLOBAL_UNCERTAINTY_ASSIGNED_CONTEXT ( ( #194 ) ) GLOBAL_UNIT_ASSIGNED_CONTEXT ( ( #10, #160, #19 ) ) REPRESENTATION_CONTEXT ( 'NONE', 'WORKASPACE' ) );
#146 = VERTEX_POINT ( 'NONE', #227 ) ;
#147 = SURFACE_SIDE_STYLE ('',( #104 ) ) ;
#148 = EDGE_LOOP ( 'NONE', ( #178, #197, #198, #191 ) ) ;
#149 = VERTEX_POINT ( 'NONE', #252 ) ;
#150 = EDGE_CURVE ( 'NONE', #57, #107, #118, .T. ) ;
#151 = DIRECTION ( 'NONE',  ( -1.224646799147353207E-16, -0.000000000000000000, -1.000000000000000000 ) ) ;
#152 = PRODUCT ( 'Micro_AEMM-010-3', 'Micro_AEMM-010-3', '', ( #61 ) ) ;
#153 = CARTESIAN_POINT ( 'NONE',  ( 1.928573779297252010E-17, 0.000000000000000000, 0.1574800000000000366 ) ) ;
#154 = PRODUCT_DEFINITION_FORMATION_WITH_SPECIFIED_SOURCE ( 'ANY', '', #152, .NOT_KNOWN. ) ;
#155 = CIRCLE ( 'NONE', #188, 0.07874000000000000443 ) ;
#156 = ORIENTED_EDGE ( 'NONE', *, *, #235, .T. ) ;
#157 =( LENGTH_UNIT ( ) NAMED_UNIT ( * ) SI_UNIT ( $, .METRE. ) );
#158 = SHAPE_DEFINITION_REPRESENTATION ( #109, #280 ) ;
#159 = DIRECTION ( 'NONE',  ( 1.000000000000000000, 0.000000000000000000, 0.000000000000000000 ) ) ;
#160 =( NAMED_UNIT ( * ) PLANE_ANGLE_UNIT ( ) SI_UNIT ( $, .RADIAN. ) );
#161 = EDGE_LOOP ( 'NONE', ( #4, #84 ) ) ;
#162 = FACE_OUTER_BOUND ( 'NONE', #148, .T. ) ;
#163 = FACE_OUTER_BOUND ( 'NONE', #293, .T. ) ;
#164 = DIRECTION ( 'NONE',  ( -1.000000000000000000, 0.000000000000000000, 0.000000000000000000 ) ) ;
#165 = AXIS2_PLACEMENT_3D ( 'NONE', #205, #1, #96 ) ;
#166 = CYLINDRICAL_SURFACE ( 'NONE', #215, 0.07874000000000000443 ) ;
#167 = EDGE_CURVE ( 'NONE', #288, #3, #274, .T. ) ;
#168 = AXIS2_PLACEMENT_3D ( 'NONE', #18, #200, #295 ) ;
#169 = CONICAL_SURFACE ( 'NONE', #216, 0.06374000000000018540, 0.7853981633974522758 ) ;
#170 = EDGE_LOOP ( 'NONE', ( #8, #282, #173, #40 ) ) ;
#171 = ORIENTED_EDGE ( 'NONE', *, *, #189, .T. ) ;
#172 =( NAMED_UNIT ( * ) PLANE_ANGLE_UNIT ( ) SI_UNIT ( $, .RADIAN. ) );
#173 = ORIENTED_EDGE ( 'NONE', *, *, #124, .T. ) ;
#174 = VECTOR ( 'NONE', #106, 39.37007874015748854 ) ;
#175 = CARTESIAN_POINT ( 'NONE',  ( -0.01966531499999999225, 2.408306506897445027E-18, 0.1574800000000000366 ) ) ;
#176 = EDGE_CURVE ( 'NONE', #146, #149, #254, .T. ) ;
#177 = FACE_OUTER_BOUND ( 'NONE', #59, .T. ) ;
#178 = ORIENTED_EDGE ( 'NONE', *, *, #256, .F. ) ;
#179 = ORIENTED_EDGE ( 'NONE', *, *, #256, .T. ) ;
#180 = LENGTH_MEASURE_WITH_UNIT ( LENGTH_MEASURE( 0.02539999999999999897 ), #157 );
#181 = CARTESIAN_POINT ( 'NONE',  ( -0.01966531500000000265, 0.000000000000000000, 4.816613013794886973E-18 ) ) ;
#182 = DIRECTION ( 'NONE',  ( 1.000000000000000000, 0.000000000000000000, 0.000000000000000000 ) ) ;
#183 = CARTESIAN_POINT ( 'NONE',  ( 0.07874000000000007382, 9.642868896486267753E-18, 0.4925091870401411831 ) ) ;
#184 = DIRECTION ( 'NONE',  ( -0.000000000000000000, -0.000000000000000000, -1.000000000000000000 ) ) ;
#185 = DIRECTION ( 'NONE',  ( -0.7071067811865502373, 0.000000000000000000, -0.7071067811865446862 ) ) ;
#186 = ADVANCED_FACE ( 'NONE', ( #232 ), #166, .T. ) ;
#187 = VECTOR ( 'NONE', #151, 39.37007874015748143 ) ;
#188 = AXIS2_PLACEMENT_3D ( 'NONE', #204, #203, #71 ) ;
#189 = EDGE_CURVE ( 'NONE', #149, #125, #143, .T. ) ;
#190 = VERTEX_POINT ( 'NONE', #181 ) ;
#191 = ORIENTED_EDGE ( 'NONE', *, *, #235, .F. ) ;
#192 = FILL_AREA_STYLE ('',( #129 ) ) ;
#193 = ADVANCED_FACE ( 'NONE', ( #163 ), #248, .T. ) ;
#194 = UNCERTAINTY_MEASURE_WITH_UNIT (LENGTH_MEASURE( 1.000000000000000082E-05 ), #10, 'distance_accuracy_value', 'NONE');
#195 = AXIS2_PLACEMENT_3D ( 'NONE', #153, #135, #220 ) ;
#196 = FACE_OUTER_BOUND ( 'NONE', #170, .T. ) ;
#197 = ORIENTED_EDGE ( 'NONE', *, *, #277, .F. ) ;
#198 = ORIENTED_EDGE ( 'NONE', *, *, #131, .T. ) ;
#199 = CARTESIAN_POINT ( 'NONE',  ( 0.000000000000000000, 0.000000000000000000, 1.968503999999999809 ) ) ;
#200 = DIRECTION ( 'NONE',  ( 0.000000000000000000, 0.000000000000000000, -1.000000000000000000 ) ) ;
#201 =( NAMED_UNIT ( * ) SI_UNIT ( $, .STERADIAN. ) SOLID_ANGLE_UNIT ( ) );
#202 = ADVANCED_FACE ( 'NONE', ( #278 ), #255, .T. ) ;
#203 = DIRECTION ( 'NONE',  ( -1.224646799147353207E-16, -0.000000000000000000, -1.000000000000000000 ) ) ;
#204 = CARTESIAN_POINT ( 'NONE',  ( 6.031497994593740586E-17, 0.000000000000000000, 0.4925091870401411831 ) ) ;
#205 = CARTESIAN_POINT ( 'NONE',  ( 0.000000000000000000, 0.000000000000000000, 1.968503999999999809 ) ) ;
#206 = ORIENTED_EDGE ( 'NONE', *, *, #243, .F. ) ;
#207 = CIRCLE ( 'NONE', #233, 0.01966531500000000265 ) ;
#208 = ORIENTED_EDGE ( 'NONE', *, *, #78, .T. ) ;
#209 = ADVANCED_FACE ( 'NONE', ( #162 ), #97, .T. ) ;
#210 = ORIENTED_EDGE ( 'NONE', *, *, #167, .F. ) ;
#211 = CIRCLE ( 'NONE', #101, 0.07874000000000000443 ) ;
#212 = CARTESIAN_POINT ( 'NONE',  ( 0.06374000000000018540, 7.805898697765251255E-18, 1.968503999999999809 ) ) ;
#213 = LENGTH_MEASURE_WITH_UNIT ( LENGTH_MEASURE( 0.02539999999999999897 ), #46 );
#214 = ORIENTED_EDGE ( 'NONE', *, *, #144, .T. ) ;
#215 = AXIS2_PLACEMENT_3D ( 'NONE', #199, #253, #222 ) ;
#216 = AXIS2_PLACEMENT_3D ( 'NONE', #221, #64, #15 ) ;
#217 = CARTESIAN_POINT ( 'NONE',  ( 0.01966531500000000265, 2.408306506897443871E-18, 4.739000847409537175E-34 ) ) ;
#218 = CARTESIAN_POINT ( 'NONE',  ( 0.000000000000000000, 0.000000000000000000, 1.953504000000000129 ) ) ;
#219 = PRODUCT_DEFINITION ( 'UNKNOWN', '', #154, #77 ) ;
#220 = DIRECTION ( 'NONE',  ( 1.000000000000000000, 0.000000000000000000, 0.000000000000000000 ) ) ;
#221 = CARTESIAN_POINT ( 'NONE',  ( 0.000000000000000000, 0.000000000000000000, 1.968503999999999809 ) ) ;
#222 = DIRECTION ( 'NONE',  ( -1.000000000000000000, 0.000000000000000000, 0.000000000000000000 ) ) ;
#223 = SURFACE_SIDE_STYLE ('',( #138 ) ) ;
#224 = DIRECTION ( 'NONE',  ( -1.000000000000000000, 0.000000000000000000, 0.000000000000000000 ) ) ;
#225 = ADVANCED_FACE ( 'NONE', ( #272 ), #93, .F. ) ;
#226 = FACE_OUTER_BOUND ( 'NONE', #290, .T. ) ;
#227 = CARTESIAN_POINT ( 'NONE',  ( -0.01966531499999999225, 6.025587701691850612E-18, 0.1574800000000000366 ) ) ;
#228 =( NAMED_UNIT ( * ) PLANE_ANGLE_UNIT ( ) SI_UNIT ( $, .RADIAN. ) );
#229 = DIRECTION ( 'NONE',  ( -1.224646799147353207E-16, -0.000000000000000000, -1.000000000000000000 ) ) ;
#230 = VECTOR ( 'NONE', #43, 39.37007874015748143 ) ;
#231 =( GEOMETRIC_REPRESENTATION_CONTEXT ( 3 ) GLOBAL_UNCERTAINTY_ASSIGNED_CONTEXT ( ( #32 ) ) GLOBAL_UNIT_ASSIGNED_CONTEXT ( ( #75, #172, #258 ) ) REPRESENTATION_CONTEXT ( 'NONE', 'WORKASPACE' ) );
#232 = FACE_OUTER_BOUND ( 'NONE', #55, .T. ) ;
#233 = AXIS2_PLACEMENT_3D ( 'NONE', #48, #91, #20 ) ;
#234 = ORIENTED_EDGE ( 'NONE', *, *, #78, .F. ) ;
#235 = EDGE_CURVE ( 'NONE', #283, #57, #130, .T. ) ;
#236 = CIRCLE ( 'NONE', #35, 0.01966531500000001306 ) ;
#237 = ORIENTED_EDGE ( 'NONE', *, *, #23, .F. ) ;
#238 = DIRECTION ( 'NONE',  ( 1.000000000000000000, 0.000000000000000000, -0.000000000000000000 ) ) ;
#239 = DIRECTION ( 'NONE',  ( 1.224646799147353207E-16, 0.000000000000000000, 1.000000000000000000 ) ) ;
#240 = DIRECTION ( 'NONE',  ( 1.000000000000000000, 0.000000000000000000, 0.000000000000000000 ) ) ;
#241 = PRESENTATION_LAYER_ASSIGNMENT (  '', '', ( #142 ) ) ;
#242 = DIRECTION ( 'NONE',  ( -1.000000000000000000, 0.000000000000000000, 1.224646799147353207E-16 ) ) ;
#243 = EDGE_CURVE ( 'NONE', #146, #107, #112, .T. ) ;
#244 = CARTESIAN_POINT ( 'NONE',  ( -0.06374000000000018540, 0.000000000000000000, 1.968503999999999809 ) ) ;
#245 = FILL_AREA_STYLE ('',( #92 ) ) ;
#246 = CARTESIAN_POINT ( 'NONE',  ( 0.07874000000000000443, 9.642868896486258509E-18, 1.968503999999999809 ) ) ;
#247 = ADVANCED_FACE ( 'NONE', ( #7 ), #89, .T. ) ;
#248 = PLANE ( 'NONE',  #165 ) ;
#249 = VECTOR ( 'NONE', #185, 39.37007874015748854 ) ;
#250 = CARTESIAN_POINT ( 'NONE',  ( 0.07874000000000000443, 9.642868896486258509E-18, 1.953504000000000129 ) ) ;
#251 = CARTESIAN_POINT ( 'NONE',  ( -0.07873999999999993504, 0.000000000000000000, 0.4925091870401411831 ) ) ;
#252 = CARTESIAN_POINT ( 'NONE',  ( 0.01966531500000003735, 0.000000000000000000, 0.1574800000000000366 ) ) ;
#253 = DIRECTION ( 'NONE',  ( -0.000000000000000000, -0.000000000000000000, -1.000000000000000000 ) ) ;
#254 = CIRCLE ( 'NONE', #126, 0.01966531500000001306 ) ;
#255 = CYLINDRICAL_SURFACE ( 'NONE', #81, 0.07874000000000000443 ) ;
#256 = EDGE_CURVE ( 'NONE', #288, #283, #261, .T. ) ;
#257 = CARTESIAN_POINT ( 'NONE',  ( 0.000000000000000000, 0.000000000000000000, 1.968503999999999809 ) ) ;
#258 =( NAMED_UNIT ( * ) SI_UNIT ( $, .STERADIAN. ) SOLID_ANGLE_UNIT ( ) );
#259 = PRESENTATION_STYLE_ASSIGNMENT (( #264 ) ) ;
#260 = VECTOR ( 'NONE', #58, 39.37007874015747433 ) ;
#261 = LINE ( 'NONE', #212, #174 ) ;
#262 = MANIFOLD_SOLID_BREP ( 'Cut-Revolve1', #51 ) ;
#263 = CYLINDRICAL_SURFACE ( 'NONE', #286, 0.01966531500000000959 ) ;
#264 = SURFACE_STYLE_USAGE ( .BOTH. , #147 ) ;
#265 = CARTESIAN_POINT ( 'NONE',  ( 0.000000000000000000, 0.000000000000000000, 0.000000000000000000 ) ) ;
#266 = DIRECTION ( 'NONE',  ( 0.000000000000000000, 0.000000000000000000, 1.000000000000000000 ) ) ;
#267 = VECTOR ( 'NONE', #184, 39.37007874015748143 ) ;
#268 = COLOUR_RGB ( '',0.7921568627450980005, 0.8196078431372548767, 0.9333333333333333481 ) ;
#269 = ORIENTED_EDGE ( 'NONE', *, *, #54, .T. ) ;
#270 = DIRECTION ( 'NONE',  ( -1.224646799147353207E-16, -0.000000000000000000, -1.000000000000000000 ) ) ;
#271 =( CONVERSION_BASED_UNIT ( 'INCH', #180 ) LENGTH_UNIT ( ) NAMED_UNIT ( #98 ) );
#272 = FACE_OUTER_BOUND ( 'NONE', #161, .T. ) ;
#273 = STYLED_ITEM ( 'NONE', ( #259 ), #262 ) ;
#274 = CIRCLE ( 'NONE', #141, 0.06374000000000018540 ) ;
#275 = DIRECTION ( 'NONE',  ( 1.000000000000000000, 0.000000000000000000, 0.000000000000000000 ) ) ;
#276 = CARTESIAN_POINT ( 'NONE',  ( 1.928573779297252010E-17, 0.000000000000000000, 0.1574800000000000366 ) ) ;
#277 = EDGE_CURVE ( 'NONE', #3, #288, #132, .T. ) ;
#278 = FACE_OUTER_BOUND ( 'NONE', #102, .T. ) ;
#279 = ORIENTED_EDGE ( 'NONE', *, *, #176, .T. ) ;
#280 = ADVANCED_BREP_SHAPE_REPRESENTATION ( 'Micro_AEMM-010-3', ( #262, #22 ), #76 ) ;
#281 = ORIENTED_EDGE ( 'NONE', *, *, #131, .F. ) ;
#282 = ORIENTED_EDGE ( 'NONE', *, *, #243, .T. ) ;
#283 = VERTEX_POINT ( 'NONE', #250 ) ;
#284 = ORIENTED_EDGE ( 'NONE', *, *, #45, .F. ) ;
#285 = APPLICATION_PROTOCOL_DEFINITION ( 'draft international standard', 'automotive_design', 1998, #113 ) ;
#286 = AXIS2_PLACEMENT_3D ( 'NONE', #265, #13, #62 ) ;
#287 = CARTESIAN_POINT ( 'NONE',  ( 6.031497994593740586E-17, 0.000000000000000000, 0.4925091870401411831 ) ) ;
#288 = VERTEX_POINT ( 'NONE', #296 ) ;
#289 = DIRECTION ( 'NONE',  ( 1.000000000000000000, 0.000000000000000000, 0.000000000000000000 ) ) ;
#290 = EDGE_LOOP ( 'NONE', ( #210, #179, #103, #281 ) ) ;
#291 = DIRECTION ( 'NONE',  ( 0.000000000000000000, 0.000000000000000000, -1.000000000000000000 ) ) ;
#292 = VECTOR ( 'NONE', #294, 39.37007874015748143 ) ;
#293 = EDGE_LOOP ( 'NONE', ( #65, #127 ) ) ;
#294 = DIRECTION ( 'NONE',  ( 0.1736481776669313304, 0.000000000000000000, 0.9848077530122077983 ) ) ;
#295 = DIRECTION ( 'NONE',  ( -1.000000000000000000, 0.000000000000000000, 0.000000000000000000 ) ) ;
#296 = CARTESIAN_POINT ( 'NONE',  ( 0.06374000000000018540, 8.724383797125754882E-18, 1.968503999999999809 ) ) ;
#297 = AXIS2_PLACEMENT_3D ( 'NONE', #218, #291, #240 ) ;
#298 = AXIS2_PLACEMENT_3D ( 'NONE', #257, #116, #182 ) ;
#299 = ADVANCED_FACE ( 'NONE', ( #226 ), #169, .T. ) ;
ENDSEC;
END-ISO-10303-21;
