ISO-10303-21;
HEADER;
FILE_DESCRIPTION (( 'STEP AP214' ),
    '1' );
FILE_NAME ('44307.STEP',
    '2023-06-22T20:00:05',
    ( '' ),
    ( '' ),
    'SwSTEP 2.0',
    'SolidWorks 2023',
    '' );
FILE_SCHEMA (( 'AUTOMOTIVE_DESIGN' ));
ENDSEC;

DATA;
#1 = FACE_OUTER_BOUND ( 'NONE', #271, .T. ) ;
#2 = DIMENSIONAL_EXPONENTS ( 1.000000000000000000, 0.000000000000000000, 0.000000000000000000, 0.000000000000000000, 0.000000000000000000, 0.000000000000000000, 0.000000000000000000 ) ;
#3 = SURFACE_SIDE_STYLE ('',( #160 ) ) ;
#4 = CARTESIAN_POINT ( 'NONE',  ( 0.000000000000000000, 0.000000000000000000, 0.000000000000000000 ) ) ;
#5 = EDGE_CURVE ( 'NONE', #11, #130, #76, .T. ) ;
#6 =( GEOMETRIC_REPRESENTATION_CONTEXT ( 3 ) GLOBAL_UNCERTAINTY_ASSIGNED_CONTEXT ( ( #88 ) ) GLOBAL_UNIT_ASSIGNED_CONTEXT ( ( #143, #220, #192 ) ) REPRESENTATION_CONTEXT ( 'NONE', 'WORKASPACE' ) );
#7 =( GEOMETRIC_REPRESENTATION_CONTEXT ( 3 ) GLOBAL_UNCERTAINTY_ASSIGNED_CONTEXT ( ( #62 ) ) GLOBAL_UNIT_ASSIGNED_CONTEXT ( ( #173, #28, #32 ) ) REPRESENTATION_CONTEXT ( 'NONE', 'WORKASPACE' ) );
#8 = LENGTH_MEASURE_WITH_UNIT ( LENGTH_MEASURE( 0.02539999999999999897 ), #165 );
#9 = ORIENTED_EDGE ( 'NONE', *, *, #301, .T. ) ;
#10 = DIRECTION ( 'NONE',  ( 0.000000000000000000, 0.000000000000000000, -1.000000000000000000 ) ) ;
#11 = VERTEX_POINT ( 'NONE', #68 ) ;
#12 = MANIFOLD_SOLID_BREP ( 'Revolve - Cutting Edge', #272 ) ;
#13 = STYLED_ITEM ( 'NONE', ( #25 ), #184 ) ;
#14 = ORIENTED_EDGE ( 'NONE', *, *, #306, .F. ) ;
#15 = EDGE_CURVE ( 'NONE', #61, #188, #260, .T. ) ;
#16 = CARTESIAN_POINT ( 'NONE',  ( -1.224646799147352714E-16, 4.000000000000000000, 0.000000000000000000 ) ) ;
#17 = PRESENTATION_LAYER_ASSIGNMENT (  '', '', ( #112 ) ) ;
#18 = DIRECTION ( 'NONE',  ( -0.000000000000000000, -1.000000000000000000, -0.000000000000000000 ) ) ;
#19 = AXIS2_PLACEMENT_3D ( 'NONE', #297, #202, #295 ) ;
#20 = DIRECTION ( 'NONE',  ( 0.000000000000000000, 0.000000000000000000, -1.000000000000000000 ) ) ;
#21 =( CONVERSION_BASED_UNIT ( 'INCH', #138 ) LENGTH_UNIT ( ) NAMED_UNIT ( #163 ) );
#22 = CYLINDRICAL_SURFACE ( 'NONE', #186, 0.2500000000000000555 ) ;
#23 = DIRECTION ( 'NONE',  ( -0.000000000000000000, -1.000000000000000000, -0.000000000000000000 ) ) ;
#24 = DIMENSIONAL_EXPONENTS ( 1.000000000000000000, 0.000000000000000000, 0.000000000000000000, 0.000000000000000000, 0.000000000000000000, 0.000000000000000000, 0.000000000000000000 ) ;
#25 = PRESENTATION_STYLE_ASSIGNMENT (( #269 ) ) ;
#26 =( GEOMETRIC_REPRESENTATION_CONTEXT ( 3 ) GLOBAL_UNCERTAINTY_ASSIGNED_CONTEXT ( ( #152 ) ) GLOBAL_UNIT_ASSIGNED_CONTEXT ( ( #21, #182, #278 ) ) REPRESENTATION_CONTEXT ( 'NONE', 'WORKASPACE' ) );
#27 = CIRCLE ( 'NONE', #37, 0.2500000000000001665 ) ;
#28 =( NAMED_UNIT ( * ) PLANE_ANGLE_UNIT ( ) SI_UNIT ( $, .RADIAN. ) );
#29 = FILL_AREA_STYLE_COLOUR ( '', #67 ) ;
#30 = ORIENTED_EDGE ( 'NONE', *, *, #133, .F. ) ;
#31 = CIRCLE ( 'NONE', #141, 0.2499999999999999722 ) ;
#32 =( NAMED_UNIT ( * ) SI_UNIT ( $, .STERADIAN. ) SOLID_ANGLE_UNIT ( ) );
#33 = FILL_AREA_STYLE ('',( #99 ) ) ;
#34 = DIRECTION ( 'NONE',  ( -0.000000000000000000, -1.000000000000000000, -0.000000000000000000 ) ) ;
#35 = APPLICATION_CONTEXT ( 'automotive_design' ) ;
#36 = MECHANICAL_DESIGN_GEOMETRIC_PRESENTATION_REPRESENTATION (  '', ( #251 ), #26 ) ;
#37 = AXIS2_PLACEMENT_3D ( 'NONE', #16, #211, #213 ) ;
#38 = DIRECTION ( 'NONE',  ( -0.000000000000000000, -1.000000000000000000, -0.000000000000000000 ) ) ;
#39 = CARTESIAN_POINT ( 'NONE',  ( 1.516480271171051896E-32, 2.000000000000000000, 0.000000000000000000 ) ) ;
#40 = FACE_OUTER_BOUND ( 'NONE', #122, .T. ) ;
#41 = EDGE_LOOP ( 'NONE', ( #111, #45, #205, #57 ) ) ;
#42 = EDGE_CURVE ( 'NONE', #178, #199, #100, .T. ) ;
#43 = UNCERTAINTY_MEASURE_WITH_UNIT (LENGTH_MEASURE( 1.000000000000000082E-05 ), #207, 'distance_accuracy_value', 'NONE');
#44 = DIRECTION ( 'NONE',  ( 0.000000000000000000, 0.000000000000000000, -1.000000000000000000 ) ) ;
#45 = ORIENTED_EDGE ( 'NONE', *, *, #102, .T. ) ;
#46 =( LENGTH_UNIT ( ) NAMED_UNIT ( * ) SI_UNIT ( $, .METRE. ) );
#47 = FILL_AREA_STYLE_COLOUR ( '', #289 ) ;
#48 = PRODUCT ( '44307', '44307', '', ( #85 ) ) ;
#49 = COLOUR_RGB ( '',0.7921568627450980005, 0.8196078431372548767, 0.9333333333333333481 ) ;
#50 = SURFACE_STYLE_USAGE ( .BOTH. , #3 ) ;
#51 = FACE_OUTER_BOUND ( 'NONE', #177, .T. ) ;
#52 = LENGTH_MEASURE_WITH_UNIT ( LENGTH_MEASURE( 0.02539999999999999897 ), #287 );
#53 = STYLED_ITEM ( 'NONE', ( #78 ), #201 ) ;
#54 = AXIS2_PLACEMENT_3D ( 'NONE', #86, #65, #20 ) ;
#55 = CARTESIAN_POINT ( 'NONE',  ( 0.2500000000000000555, 4.000000000000000000, 3.061616997868384251E-17 ) ) ;
#56 = DIRECTION ( 'NONE',  ( -0.000000000000000000, -1.000000000000000000, -0.000000000000000000 ) ) ;
#57 = ORIENTED_EDGE ( 'NONE', *, *, #146, .F. ) ;
#58 = CARTESIAN_POINT ( 'NONE',  ( -1.224646799147352714E-16, 4.000000000000000000, 0.000000000000000000 ) ) ;
#59 = ORIENTED_EDGE ( 'NONE', *, *, #15, .T. ) ;
#60 = PRESENTATION_STYLE_ASSIGNMENT (( #113 ) ) ;
#61 = VERTEX_POINT ( 'NONE', #63 ) ;
#62 = UNCERTAINTY_MEASURE_WITH_UNIT (LENGTH_MEASURE( 1.000000000000000082E-05 ), #173, 'distance_accuracy_value', 'NONE');
#63 = CARTESIAN_POINT ( 'NONE',  ( 0.2500000000000000000, 2.000000000000000000, 3.061616997868384251E-17 ) ) ;
#64 = EDGE_LOOP ( 'NONE', ( #9, #231 ) ) ;
#65 = DIRECTION ( 'NONE',  ( -0.000000000000000000, -1.000000000000000000, -0.000000000000000000 ) ) ;
#66 = LINE ( 'NONE', #303, #242 ) ;
#67 = COLOUR_RGB ( '',1.000000000000000000, 0.000000000000000000, 0.000000000000000000 ) ;
#68 = CARTESIAN_POINT ( 'NONE',  ( 0.000000000000000000, 0.000000000000000000, -0.2500000000000000000 ) ) ;
#69 = CARTESIAN_POINT ( 'NONE',  ( 4.686749320818300748E-34, 2.000000000000000000, 0.000000000000000000 ) ) ;
#70 = CARTESIAN_POINT ( 'NONE',  ( 0.000000000000000000, 2.000000000000000000, -0.2499999999999999722 ) ) ;
#71 = PRESENTATION_LAYER_ASSIGNMENT (  '', '', ( #53 ) ) ;
#72 = DIRECTION ( 'NONE',  ( 0.000000000000000000, 0.000000000000000000, -1.000000000000000000 ) ) ;
#73 = DIMENSIONAL_EXPONENTS ( 1.000000000000000000, 0.000000000000000000, 0.000000000000000000, 0.000000000000000000, 0.000000000000000000, 0.000000000000000000, 0.000000000000000000 ) ;
#74 = SURFACE_STYLE_FILL_AREA ( #218 ) ;
#75 = ADVANCED_FACE ( 'NONE', ( #208 ), #280, .F. ) ;
#76 = CIRCLE ( 'NONE', #155, 0.2500000000000000000 ) ;
#77 = PRODUCT_DEFINITION_CONTEXT ( 'detailed design', #35, 'design' ) ;
#78 = PRESENTATION_STYLE_ASSIGNMENT (( #107 ) ) ;
#79 = ORIENTED_EDGE ( 'NONE', *, *, #5, .T. ) ;
#80 = EDGE_LOOP ( 'NONE', ( #291, #14 ) ) ;
#81 = DIRECTION ( 'NONE',  ( 0.000000000000000000, 0.000000000000000000, 1.000000000000000000 ) ) ;
#82 =( LENGTH_UNIT ( ) NAMED_UNIT ( * ) SI_UNIT ( $, .METRE. ) );
#83 = COLOUR_RGB ( '',0.7921568627450980005, 0.8196078431372548767, 0.9333333333333333481 ) ;
#84 = ORIENTED_EDGE ( 'NONE', *, *, #129, .F. ) ;
#85 = PRODUCT_CONTEXT ( 'NONE', #185, 'mechanical' ) ;
#86 = CARTESIAN_POINT ( 'NONE',  ( 0.000000000000000000, 0.000000000000000000, 0.000000000000000000 ) ) ;
#87 = DIRECTION ( 'NONE',  ( 6.123233995736763571E-17, -1.000000000000000000, 0.000000000000000000 ) ) ;
#88 = UNCERTAINTY_MEASURE_WITH_UNIT (LENGTH_MEASURE( 1.000000000000000082E-05 ), #143, 'distance_accuracy_value', 'NONE');
#89 = FILL_AREA_STYLE ('',( #92 ) ) ;
#90 = SURFACE_STYLE_FILL_AREA ( #262 ) ;
#91 = EDGE_CURVE ( 'NONE', #154, #203, #66, .T. ) ;
#92 = FILL_AREA_STYLE_COLOUR ( '', #83 ) ;
#93 = CARTESIAN_POINT ( 'NONE',  ( 0.000000000000000000, 2.000000000000000000, 0.000000000000000000 ) ) ;
#94 = ORIENTED_EDGE ( 'NONE', *, *, #301, .F. ) ;
#95 = MECHANICAL_DESIGN_GEOMETRIC_PRESENTATION_REPRESENTATION (  '', ( #13 ), #267 ) ;
#96 = DIRECTION ( 'NONE',  ( -6.123233995736763571E-17, 1.000000000000000000, -0.000000000000000000 ) ) ;
#97 = CIRCLE ( 'NONE', #179, 0.2499999999999999722 ) ;
#98 = PLANE ( 'NONE',  #257 ) ;
#99 = FILL_AREA_STYLE_COLOUR ( '', #209 ) ;
#100 = CIRCLE ( 'NONE', #193, 0.2499999999999999722 ) ;
#101 = PRESENTATION_LAYER_ASSIGNMENT (  '', '', ( #305 ) ) ;
#102 = EDGE_CURVE ( 'NONE', #61, #154, #97, .T. ) ;
#103 = FACE_OUTER_BOUND ( 'NONE', #41, .T. ) ;
#104 = CARTESIAN_POINT ( 'NONE',  ( 3.061616997868382402E-17, 2.000000000000000000, 0.2499999999999999722 ) ) ;
#105 = DIRECTION ( 'NONE',  ( 0.000000000000000000, 1.000000000000000000, 0.000000000000000000 ) ) ;
#106 = PRESENTATION_LAYER_ASSIGNMENT (  '', '', ( #251 ) ) ;
#107 = SURFACE_STYLE_USAGE ( .BOTH. , #194 ) ;
#108 = ORIENTED_EDGE ( 'NONE', *, *, #250, .F. ) ;
#109 = UNCERTAINTY_MEASURE_WITH_UNIT (LENGTH_MEASURE( 1.000000000000000082E-05 ), #115, 'distance_accuracy_value', 'NONE');
#110 = LENGTH_MEASURE_WITH_UNIT ( LENGTH_MEASURE( 0.02539999999999999897 ), #299 );
#111 = ORIENTED_EDGE ( 'NONE', *, *, #15, .F. ) ;
#112 = STYLED_ITEM ( 'NONE', ( #246 ), #116 ) ;
#113 = SURFACE_STYLE_USAGE ( .BOTH. , #181 ) ;
#114 = SURFACE_STYLE_USAGE ( .BOTH. , #183 ) ;
#115 =( CONVERSION_BASED_UNIT ( 'INCH', #237 ) LENGTH_UNIT ( ) NAMED_UNIT ( #24 ) );
#116 = MANIFOLD_SOLID_BREP ( 'Revolve - Tool Body (Straight Shanked)', #135 ) ;
#117 = AXIS2_PLACEMENT_3D ( 'NONE', #215, #87, #238 ) ;
#118 = CARTESIAN_POINT ( 'NONE',  ( -1.224646799147352714E-16, 4.000000000000000000, 0.000000000000000000 ) ) ;
#119 = SURFACE_SIDE_STYLE ('',( #74 ) ) ;
#120 = DIRECTION ( 'NONE',  ( -6.123233995736763571E-17, 1.000000000000000000, 0.000000000000000000 ) ) ;
#121 = CIRCLE ( 'NONE', #284, 0.2500000000000000000 ) ;
#122 = EDGE_LOOP ( 'NONE', ( #79, #240 ) ) ;
#123 = SURFACE_SIDE_STYLE ('',( #125 ) ) ;
#124 = ORIENTED_EDGE ( 'NONE', *, *, #42, .T. ) ;
#125 = SURFACE_STYLE_FILL_AREA ( #290 ) ;
#126 = APPLICATION_PROTOCOL_DEFINITION ( 'draft international standard', 'automotive_design', 1998, #35 ) ;
#127 = CARTESIAN_POINT ( 'NONE',  ( 0.000000000000000000, 2.000000000000000000, 0.000000000000000000 ) ) ;
#128 = FACE_OUTER_BOUND ( 'NONE', #273, .T. ) ;
#129 = EDGE_CURVE ( 'NONE', #178, #11, #157, .T. ) ;
#130 = VERTEX_POINT ( 'NONE', #139 ) ;
#131 =( NAMED_UNIT ( * ) SI_UNIT ( $, .STERADIAN. ) SOLID_ANGLE_UNIT ( ) );
#132 = DIRECTION ( 'NONE',  ( -1.000000000000000000, 0.000000000000000000, 0.000000000000000000 ) ) ;
#133 = EDGE_CURVE ( 'NONE', #130, #11, #121, .T. ) ;
#134 = DIRECTION ( 'NONE',  ( -6.123233995736763571E-17, 1.000000000000000000, -0.000000000000000000 ) ) ;
#135 = CLOSED_SHELL ( 'NONE', ( #144, #174, #245, #75 ) ) ;
#136 =( GEOMETRIC_REPRESENTATION_CONTEXT ( 3 ) GLOBAL_UNCERTAINTY_ASSIGNED_CONTEXT ( ( #109 ) ) GLOBAL_UNIT_ASSIGNED_CONTEXT ( ( #115, #137, #131 ) ) REPRESENTATION_CONTEXT ( 'NONE', 'WORKASPACE' ) );
#137 =( NAMED_UNIT ( * ) PLANE_ANGLE_UNIT ( ) SI_UNIT ( $, .RADIAN. ) );
#138 = LENGTH_MEASURE_WITH_UNIT ( LENGTH_MEASURE( 0.02539999999999999897 ), #46 );
#139 = CARTESIAN_POINT ( 'NONE',  ( 3.061616997868383018E-17, 0.000000000000000000, 0.2500000000000000000 ) ) ;
#140 = PRESENTATION_LAYER_ASSIGNMENT (  '', '', ( #13 ) ) ;
#141 = AXIS2_PLACEMENT_3D ( 'NONE', #93, #38, #176 ) ;
#142 = DIRECTION ( 'NONE',  ( -1.000000000000000000, -6.123233995736763571E-17, 0.000000000000000000 ) ) ;
#143 =( CONVERSION_BASED_UNIT ( 'INCH', #308 ) LENGTH_UNIT ( ) NAMED_UNIT ( #2 ) );
#144 = ADVANCED_FACE ( 'NONE', ( #247 ), #22, .T. ) ;
#145 = DIRECTION ( 'NONE',  ( 0.000000000000000000, -0.000000000000000000, 1.000000000000000000 ) ) ;
#146 = EDGE_CURVE ( 'NONE', #188, #203, #294, .T. ) ;
#147 = CYLINDRICAL_SURFACE ( 'NONE', #149, 0.2500000000000000555 ) ;
#148 = MECHANICAL_DESIGN_GEOMETRIC_PRESENTATION_REPRESENTATION (  '', ( #53 ), #7 ) ;
#149 = AXIS2_PLACEMENT_3D ( 'NONE', #58, #150, #255 ) ;
#150 = DIRECTION ( 'NONE',  ( -6.123233995736763571E-17, 1.000000000000000000, -0.000000000000000000 ) ) ;
#151 = PRODUCT_DEFINITION ( 'UNKNOWN', '', #277, #77 ) ;
#152 = UNCERTAINTY_MEASURE_WITH_UNIT (LENGTH_MEASURE( 1.000000000000000082E-05 ), #21, 'distance_accuracy_value', 'NONE');
#153 = CARTESIAN_POINT ( 'NONE',  ( 0.000000000000000000, 0.000000000000000000, 0.000000000000000000 ) ) ;
#154 = VERTEX_POINT ( 'NONE', #282 ) ;
#155 = AXIS2_PLACEMENT_3D ( 'NONE', #214, #276, #265 ) ;
#156 =( LENGTH_UNIT ( ) NAMED_UNIT ( * ) SI_UNIT ( $, .METRE. ) );
#157 = LINE ( 'NONE', #270, #304 ) ;
#158 = FILL_AREA_STYLE_COLOUR ( '', #302 ) ;
#159 = CARTESIAN_POINT ( 'NONE',  ( 0.2499999999999999167, 4.000000000000000000, 3.061616997868383634E-17 ) ) ;
#160 = SURFACE_STYLE_FILL_AREA ( #162 ) ;
#161 = MECHANICAL_DESIGN_GEOMETRIC_PRESENTATION_REPRESENTATION (  '', ( #285 ), #136 ) ;
#162 = FILL_AREA_STYLE ('',( #236 ) ) ;
#163 = DIMENSIONAL_EXPONENTS ( 1.000000000000000000, 0.000000000000000000, 0.000000000000000000, 0.000000000000000000, 0.000000000000000000, 0.000000000000000000, 0.000000000000000000 ) ;
#164 =( LENGTH_UNIT ( ) NAMED_UNIT ( * ) SI_UNIT ( $, .METRE. ) );
#165 =( LENGTH_UNIT ( ) NAMED_UNIT ( * ) SI_UNIT ( $, .METRE. ) );
#166 = PRESENTATION_STYLE_ASSIGNMENT (( #229 ) ) ;
#167 = ORIENTED_EDGE ( 'NONE', *, *, #234, .T. ) ;
#168 =( NAMED_UNIT ( * ) PLANE_ANGLE_UNIT ( ) SI_UNIT ( $, .RADIAN. ) );
#169 = EDGE_LOOP ( 'NONE', ( #167, #59, #94, #249 ) ) ;
#170 = LENGTH_MEASURE_WITH_UNIT ( LENGTH_MEASURE( 0.02539999999999999897 ), #82 );
#171 = MECHANICAL_DESIGN_GEOMETRIC_PRESENTATION_REPRESENTATION (  '', ( #112 ), #6 ) ;
#172 = UNCERTAINTY_MEASURE_WITH_UNIT (LENGTH_MEASURE( 1.000000000000000082E-05 ), #216, 'distance_accuracy_value', 'NONE');
#173 =( CONVERSION_BASED_UNIT ( 'INCH', #170 ) LENGTH_UNIT ( ) NAMED_UNIT ( #197 ) );
#174 = ADVANCED_FACE ( 'NONE', ( #1 ), #98, .F. ) ;
#175 =( NAMED_UNIT ( * ) SI_UNIT ( $, .STERADIAN. ) SOLID_ANGLE_UNIT ( ) );
#176 = DIRECTION ( 'NONE',  ( 0.000000000000000000, 0.000000000000000000, -1.000000000000000000 ) ) ;
#177 = EDGE_LOOP ( 'NONE', ( #108, #298, #223, #30 ) ) ;
#178 = VERTEX_POINT ( 'NONE', #70 ) ;
#179 = AXIS2_PLACEMENT_3D ( 'NONE', #39, #212, #132 ) ;
#180 = PRESENTATION_LAYER_ASSIGNMENT (  '', '', ( #285 ) ) ;
#181 = SURFACE_SIDE_STYLE ('',( #90 ) ) ;
#182 =( NAMED_UNIT ( * ) PLANE_ANGLE_UNIT ( ) SI_UNIT ( $, .RADIAN. ) );
#183 = SURFACE_SIDE_STYLE ('',( #263 ) ) ;
#184 = ADVANCED_FACE ( 'NONE', ( #51 ), #191, .T. ) ;
#185 = APPLICATION_CONTEXT ( 'automotive_design' ) ;
#186 = AXIS2_PLACEMENT_3D ( 'NONE', #190, #283, #266 ) ;
#187 = AXIS2_PLACEMENT_3D ( 'NONE', #4, #56, #10 ) ;
#188 = VERTEX_POINT ( 'NONE', #55 ) ;
#189 = DIRECTION ( 'NONE',  ( -0.000000000000000000, -1.000000000000000000, -0.000000000000000000 ) ) ;
#190 = CARTESIAN_POINT ( 'NONE',  ( -1.224646799147352714E-16, 4.000000000000000000, 0.000000000000000000 ) ) ;
#191 = CYLINDRICAL_SURFACE ( 'NONE', #187, 0.2500000000000000000 ) ;
#192 =( NAMED_UNIT ( * ) SI_UNIT ( $, .STERADIAN. ) SOLID_ANGLE_UNIT ( ) );
#193 = AXIS2_PLACEMENT_3D ( 'NONE', #300, #18, #44 ) ;
#194 = SURFACE_SIDE_STYLE ('',( #200 ) ) ;
#195 = VECTOR ( 'NONE', #34, 39.37007874015748143 ) ;
#196 = APPLICATION_PROTOCOL_DEFINITION ( 'draft international standard', 'automotive_design', 1998, #185 ) ;
#197 = DIMENSIONAL_EXPONENTS ( 1.000000000000000000, 0.000000000000000000, 0.000000000000000000, 0.000000000000000000, 0.000000000000000000, 0.000000000000000000, 0.000000000000000000 ) ;
#198 =( CONVERSION_BASED_UNIT ( 'INCH', #8 ) LENGTH_UNIT ( ) NAMED_UNIT ( #286 ) );
#199 = VERTEX_POINT ( 'NONE', #104 ) ;
#200 = SURFACE_STYLE_FILL_AREA ( #33 ) ;
#201 = ADVANCED_FACE ( 'NONE', ( #293 ), #253, .T. ) ;
#202 = DIRECTION ( 'NONE',  ( -6.123233995736763571E-17, 1.000000000000000000, -0.000000000000000000 ) ) ;
#203 = VERTEX_POINT ( 'NONE', #227 ) ;
#204 =( GEOMETRIC_REPRESENTATION_CONTEXT ( 3 ) GLOBAL_UNCERTAINTY_ASSIGNED_CONTEXT ( ( #233 ) ) GLOBAL_UNIT_ASSIGNED_CONTEXT ( ( #198, #168, #235 ) ) REPRESENTATION_CONTEXT ( 'NONE', 'WORKASPACE' ) );
#205 = ORIENTED_EDGE ( 'NONE', *, *, #91, .T. ) ;
#206 = PRESENTATION_STYLE_ASSIGNMENT (( #114 ) ) ;
#207 =( CONVERSION_BASED_UNIT ( 'INCH', #110 ) LENGTH_UNIT ( ) NAMED_UNIT ( #73 ) );
#208 = FACE_OUTER_BOUND ( 'NONE', #64, .T. ) ;
#209 = COLOUR_RGB ( '',1.000000000000000000, 0.000000000000000000, 0.000000000000000000 ) ;
#210 = AXIS2_PLACEMENT_3D ( 'NONE', #127, #105, #145 ) ;
#211 = DIRECTION ( 'NONE',  ( -6.123233995736763571E-17, 1.000000000000000000, -0.000000000000000000 ) ) ;
#212 = DIRECTION ( 'NONE',  ( -6.123233995736763571E-17, 1.000000000000000000, -0.000000000000000000 ) ) ;
#213 = DIRECTION ( 'NONE',  ( -1.000000000000000000, 0.000000000000000000, 0.000000000000000000 ) ) ;
#214 = CARTESIAN_POINT ( 'NONE',  ( 0.000000000000000000, 0.000000000000000000, 0.000000000000000000 ) ) ;
#215 = CARTESIAN_POINT ( 'NONE',  ( 0.2500000000000000555, 4.000000000000000000, 0.000000000000000000 ) ) ;
#216 =( CONVERSION_BASED_UNIT ( 'INCH', #52 ) LENGTH_UNIT ( ) NAMED_UNIT ( #219 ) );
#217 = DIRECTION ( 'NONE',  ( -6.123233995736763571E-17, 1.000000000000000000, -0.000000000000000000 ) ) ;
#218 = FILL_AREA_STYLE ('',( #47 ) ) ;
#219 = DIMENSIONAL_EXPONENTS ( 1.000000000000000000, 0.000000000000000000, 0.000000000000000000, 0.000000000000000000, 0.000000000000000000, 0.000000000000000000, 0.000000000000000000 ) ;
#220 =( NAMED_UNIT ( * ) PLANE_ANGLE_UNIT ( ) SI_UNIT ( $, .RADIAN. ) );
#221 =( NAMED_UNIT ( * ) PLANE_ANGLE_UNIT ( ) SI_UNIT ( $, .RADIAN. ) );
#222 = LINE ( 'NONE', #248, #195 ) ;
#223 = ORIENTED_EDGE ( 'NONE', *, *, #129, .T. ) ;
#224 = CYLINDRICAL_SURFACE ( 'NONE', #54, 0.2500000000000000000 ) ;
#225 = AXIS2_PLACEMENT_3D ( 'NONE', #254, #81, #292 ) ;
#226 = ORIENTED_EDGE ( 'NONE', *, *, #234, .F. ) ;
#227 = CARTESIAN_POINT ( 'NONE',  ( -0.2500000000000002776, 4.000000000000000000, 0.000000000000000000 ) ) ;
#228 = ORIENTED_EDGE ( 'NONE', *, *, #102, .F. ) ;
#229 = SURFACE_STYLE_USAGE ( .BOTH. , #123 ) ;
#230 = VECTOR ( 'NONE', #134, 39.37007874015748143 ) ;
#231 = ORIENTED_EDGE ( 'NONE', *, *, #146, .T. ) ;
#232 = MECHANICAL_DESIGN_GEOMETRIC_PRESENTATION_REPRESENTATION (  '', ( #305 ), #204 ) ;
#233 = UNCERTAINTY_MEASURE_WITH_UNIT (LENGTH_MEASURE( 1.000000000000000082E-05 ), #198, 'distance_accuracy_value', 'NONE');
#234 = EDGE_CURVE ( 'NONE', #154, #61, #268, .T. ) ;
#235 =( NAMED_UNIT ( * ) SI_UNIT ( $, .STERADIAN. ) SOLID_ANGLE_UNIT ( ) );
#236 = FILL_AREA_STYLE_COLOUR ( '', #49 ) ;
#237 = LENGTH_MEASURE_WITH_UNIT ( LENGTH_MEASURE( 0.02539999999999999897 ), #156 );
#238 = DIRECTION ( 'NONE',  ( 1.000000000000000000, 6.123233995736763571E-17, 0.000000000000000000 ) ) ;
#239 = PLANE ( 'NONE',  #243 ) ;
#240 = ORIENTED_EDGE ( 'NONE', *, *, #133, .T. ) ;
#241 = DIRECTION ( 'NONE',  ( -1.000000000000000000, 0.000000000000000000, 0.000000000000000000 ) ) ;
#242 = VECTOR ( 'NONE', #96, 39.37007874015748143 ) ;
#243 = AXIS2_PLACEMENT_3D ( 'NONE', #153, #258, #256 ) ;
#244 = CARTESIAN_POINT ( 'NONE',  ( 0.000000000000000000, 0.000000000000000000, 0.000000000000000000 ) ) ;
#245 = ADVANCED_FACE ( 'NONE', ( #103 ), #147, .T. ) ;
#246 = PRESENTATION_STYLE_ASSIGNMENT (( #50 ) ) ;
#247 = FACE_OUTER_BOUND ( 'NONE', #169, .T. ) ;
#248 = CARTESIAN_POINT ( 'NONE',  ( 3.061616997868383018E-17, 0.000000000000000000, 0.2500000000000000000 ) ) ;
#249 = ORIENTED_EDGE ( 'NONE', *, *, #91, .F. ) ;
#250 = EDGE_CURVE ( 'NONE', #199, #130, #222, .T. ) ;
#251 = STYLED_ITEM ( 'NONE', ( #206 ), #12 ) ;
#252 = PRODUCT_RELATED_PRODUCT_CATEGORY ( 'part', '', ( #48 ) ) ;
#253 = PLANE ( 'NONE',  #210 ) ;
#254 = CARTESIAN_POINT ( 'NONE',  ( 0.000000000000000000, 0.000000000000000000, 0.000000000000000000 ) ) ;
#255 = DIRECTION ( 'NONE',  ( -1.000000000000000000, 0.000000000000000000, 0.000000000000000000 ) ) ;
#256 = DIRECTION ( 'NONE',  ( 0.000000000000000000, 0.000000000000000000, -1.000000000000000000 ) ) ;
#257 = AXIS2_PLACEMENT_3D ( 'NONE', #69, #120, #142 ) ;
#258 = DIRECTION ( 'NONE',  ( 0.000000000000000000, -1.000000000000000000, -0.000000000000000000 ) ) ;
#259 =( NAMED_UNIT ( * ) PLANE_ANGLE_UNIT ( ) SI_UNIT ( $, .RADIAN. ) );
#260 = LINE ( 'NONE', #159, #230 ) ;
#261 = ADVANCED_FACE ( 'NONE', ( #128 ), #224, .T. ) ;
#262 = FILL_AREA_STYLE ('',( #158 ) ) ;
#263 = SURFACE_STYLE_FILL_AREA ( #89 ) ;
#264 = ADVANCED_BREP_SHAPE_REPRESENTATION ( '44307', ( #12, #116, #225 ), #309 ) ;
#265 = DIRECTION ( 'NONE',  ( 0.000000000000000000, 0.000000000000000000, -1.000000000000000000 ) ) ;
#266 = DIRECTION ( 'NONE',  ( -1.000000000000000000, 0.000000000000000000, 0.000000000000000000 ) ) ;
#267 =( GEOMETRIC_REPRESENTATION_CONTEXT ( 3 ) GLOBAL_UNCERTAINTY_ASSIGNED_CONTEXT ( ( #172 ) ) GLOBAL_UNIT_ASSIGNED_CONTEXT ( ( #216, #221, #288 ) ) REPRESENTATION_CONTEXT ( 'NONE', 'WORKASPACE' ) );
#268 = CIRCLE ( 'NONE', #19, 0.2499999999999999722 ) ;
#269 = SURFACE_STYLE_USAGE ( .BOTH. , #119 ) ;
#270 = CARTESIAN_POINT ( 'NONE',  ( 0.000000000000000000, 0.000000000000000000, -0.2500000000000000000 ) ) ;
#271 = EDGE_LOOP ( 'NONE', ( #226, #228 ) ) ;
#272 = CLOSED_SHELL ( 'NONE', ( #261, #201, #184, #281 ) ) ;
#273 = EDGE_LOOP ( 'NONE', ( #124, #296, #279, #84 ) ) ;
#274 = SHAPE_DEFINITION_REPRESENTATION ( #307, #264 ) ;
#275 = AXIS2_PLACEMENT_3D ( 'NONE', #118, #217, #241 ) ;
#276 = DIRECTION ( 'NONE',  ( -0.000000000000000000, -1.000000000000000000, -0.000000000000000000 ) ) ;
#277 = PRODUCT_DEFINITION_FORMATION_WITH_SPECIFIED_SOURCE ( 'ANY', '', #48, .NOT_KNOWN. ) ;
#278 =( NAMED_UNIT ( * ) SI_UNIT ( $, .STERADIAN. ) SOLID_ANGLE_UNIT ( ) );
#279 = ORIENTED_EDGE ( 'NONE', *, *, #5, .F. ) ;
#280 = PLANE ( 'NONE',  #117 ) ;
#281 = ADVANCED_FACE ( 'NONE', ( #40 ), #239, .T. ) ;
#282 = CARTESIAN_POINT ( 'NONE',  ( -0.2499999999999999722, 2.000000000000000000, 0.000000000000000000 ) ) ;
#283 = DIRECTION ( 'NONE',  ( -6.123233995736763571E-17, 1.000000000000000000, -0.000000000000000000 ) ) ;
#284 = AXIS2_PLACEMENT_3D ( 'NONE', #244, #189, #72 ) ;
#285 = STYLED_ITEM ( 'NONE', ( #60 ), #281 ) ;
#286 = DIMENSIONAL_EXPONENTS ( 1.000000000000000000, 0.000000000000000000, 0.000000000000000000, 0.000000000000000000, 0.000000000000000000, 0.000000000000000000, 0.000000000000000000 ) ;
#287 =( LENGTH_UNIT ( ) NAMED_UNIT ( * ) SI_UNIT ( $, .METRE. ) );
#288 =( NAMED_UNIT ( * ) SI_UNIT ( $, .STERADIAN. ) SOLID_ANGLE_UNIT ( ) );
#289 = COLOUR_RGB ( '',1.000000000000000000, 0.000000000000000000, 0.000000000000000000 ) ;
#290 = FILL_AREA_STYLE ('',( #29 ) ) ;
#291 = ORIENTED_EDGE ( 'NONE', *, *, #42, .F. ) ;
#292 = DIRECTION ( 'NONE',  ( 1.000000000000000000, 0.000000000000000000, 0.000000000000000000 ) ) ;
#293 = FACE_OUTER_BOUND ( 'NONE', #80, .T. ) ;
#294 = CIRCLE ( 'NONE', #275, 0.2500000000000001665 ) ;
#295 = DIRECTION ( 'NONE',  ( -1.000000000000000000, 0.000000000000000000, 0.000000000000000000 ) ) ;
#296 = ORIENTED_EDGE ( 'NONE', *, *, #250, .T. ) ;
#297 = CARTESIAN_POINT ( 'NONE',  ( 1.516480271171051896E-32, 2.000000000000000000, 0.000000000000000000 ) ) ;
#298 = ORIENTED_EDGE ( 'NONE', *, *, #306, .T. ) ;
#299 =( LENGTH_UNIT ( ) NAMED_UNIT ( * ) SI_UNIT ( $, .METRE. ) );
#300 = CARTESIAN_POINT ( 'NONE',  ( 0.000000000000000000, 2.000000000000000000, 0.000000000000000000 ) ) ;
#301 = EDGE_CURVE ( 'NONE', #203, #188, #27, .T. ) ;
#302 = COLOUR_RGB ( '',1.000000000000000000, 0.000000000000000000, 0.000000000000000000 ) ;
#303 = CARTESIAN_POINT ( 'NONE',  ( -0.2500000000000002220, 4.000000000000000000, 0.000000000000000000 ) ) ;
#304 = VECTOR ( 'NONE', #23, 39.37007874015748143 ) ;
#305 = STYLED_ITEM ( 'NONE', ( #166 ), #261 ) ;
#306 = EDGE_CURVE ( 'NONE', #199, #178, #31, .T. ) ;
#307 = PRODUCT_DEFINITION_SHAPE ( 'NONE', 'NONE',  #151 ) ;
#308 = LENGTH_MEASURE_WITH_UNIT ( LENGTH_MEASURE( 0.02539999999999999897 ), #164 );
#309 =( GEOMETRIC_REPRESENTATION_CONTEXT ( 3 ) GLOBAL_UNCERTAINTY_ASSIGNED_CONTEXT ( ( #43 ) ) GLOBAL_UNIT_ASSIGNED_CONTEXT ( ( #207, #259, #175 ) ) REPRESENTATION_CONTEXT ( 'NONE', 'WORKASPACE' ) );
ENDSEC;
END-ISO-10303-21;
