ISO-10303-21;
HEADER;
FILE_DESCRIPTION (( 'STEP AP214' ),
    '1' );
FILE_NAME ('01107.STEP',
    '2023-06-22T14:20:04',
    ( '' ),
    ( '' ),
    'SwSTEP 2.0',
    'SolidWorks 2023',
    '' );
FILE_SCHEMA (( 'AUTOMOTIVE_DESIGN' ));
ENDSEC;

DATA;
#1 = DIRECTION ( 'NONE',  ( 0.000000000000000000, 0.000000000000000000, 1.000000000000000000 ) ) ;
#2 = FACE_OUTER_BOUND ( 'NONE', #81, .T. ) ;
#3 = EDGE_CURVE ( 'NONE', #287, #13, #267, .T. ) ;
#4 = CYLINDRICAL_SURFACE ( 'NONE', #240, 0.09374999999999998612 ) ;
#5 = DIRECTION ( 'NONE',  ( 0.000000000000000000, -1.000000000000000000, -0.000000000000000000 ) ) ;
#6 = STYLED_ITEM ( 'NONE', ( #108 ), #75 ) ;
#7 = FACE_OUTER_BOUND ( 'NONE', #172, .T. ) ;
#8 = AXIS2_PLACEMENT_3D ( 'NONE', #65, #260, #109 ) ;
#9 =( NAMED_UNIT ( * ) PLANE_ANGLE_UNIT ( ) SI_UNIT ( $, .RADIAN. ) );
#10 = APPLICATION_CONTEXT ( 'automotive_design' ) ;
#11 = FACE_OUTER_BOUND ( 'NONE', #284, .T. ) ;
#12 = EDGE_CURVE ( 'NONE', #60, #226, #181, .T. ) ;
#13 = VERTEX_POINT ( 'NONE', #292 ) ;
#14 = FACE_OUTER_BOUND ( 'NONE', #300, .T. ) ;
#15 = COLOUR_RGB ( '',1.000000000000000000, 0.000000000000000000, 0.000000000000000000 ) ;
#16 = PRODUCT ( '01107', '01107', '', ( #130 ) ) ;
#17 = SURFACE_SIDE_STYLE ('',( #264 ) ) ;
#18 =( LENGTH_UNIT ( ) NAMED_UNIT ( * ) SI_UNIT ( $, .METRE. ) );
#19 = ADVANCED_FACE ( 'NONE', ( #2 ), #236, .T. ) ;
#20 =( GEOMETRIC_REPRESENTATION_CONTEXT ( 3 ) GLOBAL_UNCERTAINTY_ASSIGNED_CONTEXT ( ( #211 ) ) GLOBAL_UNIT_ASSIGNED_CONTEXT ( ( #307, #70, #177 ) ) REPRESENTATION_CONTEXT ( 'NONE', 'WORKASPACE' ) );
#21 = DIMENSIONAL_EXPONENTS ( 1.000000000000000000, 0.000000000000000000, 0.000000000000000000, 0.000000000000000000, 0.000000000000000000, 0.000000000000000000, 0.000000000000000000 ) ;
#22 = DIRECTION ( 'NONE',  ( -3.160378836509298460E-17, 1.000000000000000000, -0.000000000000000000 ) ) ;
#23 = SURFACE_SIDE_STYLE ('',( #45 ) ) ;
#24 = EDGE_CURVE ( 'NONE', #226, #56, #212, .T. ) ;
#25 = CARTESIAN_POINT ( 'NONE',  ( -0.09374999999999998612, 0.5625000000000001110, 0.000000000000000000 ) ) ;
#26 =( LENGTH_UNIT ( ) NAMED_UNIT ( * ) SI_UNIT ( $, .METRE. ) );
#27 = ADVANCED_FACE ( 'NONE', ( #139 ), #156, .F. ) ;
#28 = CARTESIAN_POINT ( 'NONE',  ( 0.000000000000000000, 0.000000000000000000, 0.000000000000000000 ) ) ;
#29 = STYLED_ITEM ( 'NONE', ( #285 ), #256 ) ;
#30 = CARTESIAN_POINT ( 'NONE',  ( 0.000000000000000000, 0.5625000000000000000, 0.000000000000000000 ) ) ;
#31 = DIRECTION ( 'NONE',  ( -1.000000000000000000, 0.000000000000000000, 0.000000000000000000 ) ) ;
#32 = VECTOR ( 'NONE', #62, 39.37007874015748143 ) ;
#33 = STYLED_ITEM ( 'NONE', ( #123 ), #248 ) ;
#34 = FILL_AREA_STYLE ('',( #148 ) ) ;
#35 = ORIENTED_EDGE ( 'NONE', *, *, #220, .F. ) ;
#36 = UNCERTAINTY_MEASURE_WITH_UNIT (LENGTH_MEASURE( 1.000000000000000082E-05 ), #252, 'distance_accuracy_value', 'NONE');
#37 = ORIENTED_EDGE ( 'NONE', *, *, #12, .F. ) ;
#38 = AXIS2_PLACEMENT_3D ( 'NONE', #208, #134, #66 ) ;
#39 = AXIS2_PLACEMENT_3D ( 'NONE', #152, #263, #237 ) ;
#40 = DIMENSIONAL_EXPONENTS ( 1.000000000000000000, 0.000000000000000000, 0.000000000000000000, 0.000000000000000000, 0.000000000000000000, 0.000000000000000000, 0.000000000000000000 ) ;
#41 = DIRECTION ( 'NONE',  ( -3.160378836509298460E-17, 1.000000000000000000, 0.000000000000000000 ) ) ;
#42 = SURFACE_SIDE_STYLE ('',( #231 ) ) ;
#43 = FILL_AREA_STYLE_COLOUR ( '', #132 ) ;
#44 = STYLED_ITEM ( 'NONE', ( #216 ), #83 ) ;
#45 = SURFACE_STYLE_FILL_AREA ( #93 ) ;
#46 = PLANE ( 'NONE',  #293 ) ;
#47 =( LENGTH_UNIT ( ) NAMED_UNIT ( * ) SI_UNIT ( $, .METRE. ) );
#48 = AXIS2_PLACEMENT_3D ( 'NONE', #91, #41, #210 ) ;
#49 = CARTESIAN_POINT ( 'NONE',  ( 0.000000000000000000, 0.5625000000000000000, -0.09374999999999998612 ) ) ;
#50 = DIRECTION ( 'NONE',  ( 0.000000000000000000, 0.000000000000000000, -1.000000000000000000 ) ) ;
#51 = SURFACE_STYLE_USAGE ( .BOTH. , #164 ) ;
#52 = PRODUCT_DEFINITION_SHAPE ( 'NONE', 'NONE',  #137 ) ;
#53 = SURFACE_STYLE_USAGE ( .BOTH. , #195 ) ;
#54 = SURFACE_STYLE_USAGE ( .BOTH. , #147 ) ;
#55 = FILL_AREA_STYLE ('',( #228 ) ) ;
#56 = VERTEX_POINT ( 'NONE', #163 ) ;
#57 = MECHANICAL_DESIGN_GEOMETRIC_PRESENTATION_REPRESENTATION (  '', ( #68 ), #288 ) ;
#58 = CIRCLE ( 'NONE', #238, 0.09375000000000005551 ) ;
#59 = CARTESIAN_POINT ( 'NONE',  ( -6.123233995736766036E-17, 2.500000000000000000, 0.000000000000000000 ) ) ;
#60 = VERTEX_POINT ( 'NONE', #89 ) ;
#61 = VERTEX_POINT ( 'NONE', #25 ) ;
#62 = DIRECTION ( 'NONE',  ( -0.000000000000000000, -1.000000000000000000, -0.000000000000000000 ) ) ;
#63 = CIRCLE ( 'NONE', #278, 0.09374999999999998612 ) ;
#64 = UNCERTAINTY_MEASURE_WITH_UNIT (LENGTH_MEASURE( 1.000000000000000082E-05 ), #270, 'distance_accuracy_value', 'NONE');
#65 = CARTESIAN_POINT ( 'NONE',  ( -6.123233995736766036E-17, 2.500000000000000000, 0.000000000000000000 ) ) ;
#66 = DIRECTION ( 'NONE',  ( 0.000000000000000000, 0.000000000000000000, -1.000000000000000000 ) ) ;
#67 = FILL_AREA_STYLE ('',( #43 ) ) ;
#68 = STYLED_ITEM ( 'NONE', ( #145 ), #178 ) ;
#69 =( LENGTH_UNIT ( ) NAMED_UNIT ( * ) SI_UNIT ( $, .METRE. ) );
#70 =( NAMED_UNIT ( * ) PLANE_ANGLE_UNIT ( ) SI_UNIT ( $, .RADIAN. ) );
#71 = DIMENSIONAL_EXPONENTS ( 1.000000000000000000, 0.000000000000000000, 0.000000000000000000, 0.000000000000000000, 0.000000000000000000, 0.000000000000000000, 0.000000000000000000 ) ;
#72 = EDGE_CURVE ( 'NONE', #13, #126, #73, .T. ) ;
#73 = CIRCLE ( 'NONE', #38, 0.09375000000000001388 ) ;
#74 = DIRECTION ( 'NONE',  ( -0.000000000000000000, -1.000000000000000000, -0.000000000000000000 ) ) ;
#75 = MANIFOLD_SOLID_BREP ( 'Revolve - Cutting Edge', #265 ) ;
#76 = AXIS2_PLACEMENT_3D ( 'NONE', #170, #275, #173 ) ;
#77 = ORIENTED_EDGE ( 'NONE', *, *, #3, .T. ) ;
#78 = SURFACE_STYLE_FILL_AREA ( #55 ) ;
#79 = EDGE_LOOP ( 'NONE', ( #174, #171, #135, #158 ) ) ;
#80 = LENGTH_MEASURE_WITH_UNIT ( LENGTH_MEASURE( 0.02539999999999999897 ), #274 );
#81 = EDGE_LOOP ( 'NONE', ( #37, #309, #101, #131 ) ) ;
#82 = CIRCLE ( 'NONE', #259, 0.09375000000000001388 ) ;
#83 = ADVANCED_FACE ( 'NONE', ( #239 ), #46, .T. ) ;
#84 = VECTOR ( 'NONE', #280, 39.37007874015748143 ) ;
#85 = DIRECTION ( 'NONE',  ( -1.000000000000000000, 0.000000000000000000, 0.000000000000000000 ) ) ;
#86 = EDGE_LOOP ( 'NONE', ( #281, #253, #35, #153 ) ) ;
#87 = CARTESIAN_POINT ( 'NONE',  ( 0.000000000000000000, 0.5625000000000000000, 0.000000000000000000 ) ) ;
#88 = DIRECTION ( 'NONE',  ( -1.000000000000000000, 0.000000000000000000, 0.000000000000000000 ) ) ;
#89 = CARTESIAN_POINT ( 'NONE',  ( 0.09374999999999998612, 0.5625000000000001110, 1.148106374200644171E-17 ) ) ;
#90 =( NAMED_UNIT ( * ) PLANE_ANGLE_UNIT ( ) SI_UNIT ( $, .RADIAN. ) );
#91 = CARTESIAN_POINT ( 'NONE',  ( 4.681872370432437241E-35, 0.5625000000000000000, 0.000000000000000000 ) ) ;
#92 = DIRECTION ( 'NONE',  ( 1.000000000000000000, 0.000000000000000000, 0.000000000000000000 ) ) ;
#93 = FILL_AREA_STYLE ('',( #290 ) ) ;
#94 = PRESENTATION_LAYER_ASSIGNMENT (  '', '', ( #33 ) ) ;
#95 = DIRECTION ( 'NONE',  ( 0.000000000000000000, 0.000000000000000000, -1.000000000000000000 ) ) ;
#96 = LENGTH_MEASURE_WITH_UNIT ( LENGTH_MEASURE( 0.02539999999999999897 ), #26 );
#97 = AXIS2_PLACEMENT_3D ( 'NONE', #224, #232, #85 ) ;
#98 = LENGTH_MEASURE_WITH_UNIT ( LENGTH_MEASURE( 0.02539999999999999897 ), #47 );
#99 = CYLINDRICAL_SURFACE ( 'NONE', #76, 0.09374999999999998612 ) ;
#100 = DIRECTION ( 'NONE',  ( 0.000000000000000000, 0.000000000000000000, -1.000000000000000000 ) ) ;
#101 = ORIENTED_EDGE ( 'NONE', *, *, #246, .T. ) ;
#102 = CARTESIAN_POINT ( 'NONE',  ( -0.09375000000000009714, 2.500000000000000000, 0.000000000000000000 ) ) ;
#103 = ORIENTED_EDGE ( 'NONE', *, *, #196, .F. ) ;
#104 = LENGTH_MEASURE_WITH_UNIT ( LENGTH_MEASURE( 0.02539999999999999897 ), #303 );
#105 = ORIENTED_EDGE ( 'NONE', *, *, #146, .F. ) ;
#106 =( GEOMETRIC_REPRESENTATION_CONTEXT ( 3 ) GLOBAL_UNCERTAINTY_ASSIGNED_CONTEXT ( ( #207 ) ) GLOBAL_UNIT_ASSIGNED_CONTEXT ( ( #192, #217, #272 ) ) REPRESENTATION_CONTEXT ( 'NONE', 'WORKASPACE' ) );
#107 = EDGE_CURVE ( 'NONE', #126, #13, #82, .T. ) ;
#108 = PRESENTATION_STYLE_ASSIGNMENT (( #160 ) ) ;
#109 = DIRECTION ( 'NONE',  ( -1.000000000000000000, 0.000000000000000000, 0.000000000000000000 ) ) ;
#110 = PRESENTATION_LAYER_ASSIGNMENT (  '', '', ( #154 ) ) ;
#111 = MECHANICAL_DESIGN_GEOMETRIC_PRESENTATION_REPRESENTATION (  '', ( #29 ), #268 ) ;
#112 = CARTESIAN_POINT ( 'NONE',  ( 0.000000000000000000, 0.000000000000000000, 0.000000000000000000 ) ) ;
#113 = DIRECTION ( 'NONE',  ( 0.000000000000000000, -0.000000000000000000, 1.000000000000000000 ) ) ;
#114 = SURFACE_STYLE_USAGE ( .BOTH. , #23 ) ;
#115 = FILL_AREA_STYLE ('',( #165 ) ) ;
#116 = EDGE_CURVE ( 'NONE', #151, #126, #223, .T. ) ;
#117 = CIRCLE ( 'NONE', #302, 0.09374999999999998612 ) ;
#118 = MECHANICAL_DESIGN_GEOMETRIC_PRESENTATION_REPRESENTATION (  '', ( #6 ), #20 ) ;
#119 = SURFACE_STYLE_FILL_AREA ( #115 ) ;
#120 = DIRECTION ( 'NONE',  ( 3.160378836509298460E-17, -1.000000000000000000, 0.000000000000000000 ) ) ;
#121 = DIRECTION ( 'NONE',  ( -3.160378836509298460E-17, 1.000000000000000000, -0.000000000000000000 ) ) ;
#122 = EDGE_LOOP ( 'NONE', ( #234, #229 ) ) ;
#123 = PRESENTATION_STYLE_ASSIGNMENT (( #54 ) ) ;
#124 = COLOUR_RGB ( '',1.000000000000000000, 0.000000000000000000, 0.000000000000000000 ) ;
#125 = COLOUR_RGB ( '',1.000000000000000000, 0.000000000000000000, 0.000000000000000000 ) ;
#126 = VERTEX_POINT ( 'NONE', #141 ) ;
#127 = CARTESIAN_POINT ( 'NONE',  ( 0.000000000000000000, 0.000000000000000000, 0.000000000000000000 ) ) ;
#128 = CARTESIAN_POINT ( 'NONE',  ( 0.09374999999999998612, 2.500000000000000000, 1.148106374200644171E-17 ) ) ;
#129 = ORIENTED_EDGE ( 'NONE', *, *, #220, .T. ) ;
#130 = PRODUCT_CONTEXT ( 'NONE', #273, 'mechanical' ) ;
#131 = ORIENTED_EDGE ( 'NONE', *, *, #24, .F. ) ;
#132 = COLOUR_RGB ( '',0.7921568627450980005, 0.8196078431372548767, 0.9333333333333333481 ) ;
#133 = CYLINDRICAL_SURFACE ( 'NONE', #39, 0.09375000000000002776 ) ;
#134 = DIRECTION ( 'NONE',  ( -0.000000000000000000, -1.000000000000000000, -0.000000000000000000 ) ) ;
#135 = ORIENTED_EDGE ( 'NONE', *, *, #116, .T. ) ;
#136 = DIMENSIONAL_EXPONENTS ( 1.000000000000000000, 0.000000000000000000, 0.000000000000000000, 0.000000000000000000, 0.000000000000000000, 0.000000000000000000, 0.000000000000000000 ) ;
#137 = PRODUCT_DEFINITION ( 'UNKNOWN', '', #296, #304 ) ;
#138 = UNCERTAINTY_MEASURE_WITH_UNIT (LENGTH_MEASURE( 1.000000000000000082E-05 ), #201, 'distance_accuracy_value', 'NONE');
#139 = FACE_OUTER_BOUND ( 'NONE', #301, .T. ) ;
#140 =( NAMED_UNIT ( * ) PLANE_ANGLE_UNIT ( ) SI_UNIT ( $, .RADIAN. ) );
#141 = CARTESIAN_POINT ( 'NONE',  ( 0.000000000000000000, 0.000000000000000000, -0.09375000000000001388 ) ) ;
#142 = CARTESIAN_POINT ( 'NONE',  ( 0.000000000000000000, 0.000000000000000000, -0.09374999999999998612 ) ) ;
#143 = FILL_AREA_STYLE_COLOUR ( '', #161 ) ;
#144 = PRESENTATION_LAYER_ASSIGNMENT (  '', '', ( #68 ) ) ;
#145 = PRESENTATION_STYLE_ASSIGNMENT (( #51 ) ) ;
#146 = EDGE_CURVE ( 'NONE', #287, #151, #117, .T. ) ;
#147 = SURFACE_SIDE_STYLE ('',( #78 ) ) ;
#148 = FILL_AREA_STYLE_COLOUR ( '', #183 ) ;
#149 = LINE ( 'NONE', #102, #84 ) ;
#150 = PLANE ( 'NONE',  #245 ) ;
#151 = VERTEX_POINT ( 'NONE', #49 ) ;
#152 = CARTESIAN_POINT ( 'NONE',  ( -6.123233995736766036E-17, 2.500000000000000000, 0.000000000000000000 ) ) ;
#153 = ORIENTED_EDGE ( 'NONE', *, *, #246, .F. ) ;
#154 = STYLED_ITEM ( 'NONE', ( #247 ), #180 ) ;
#155 = FACE_OUTER_BOUND ( 'NONE', #86, .T. ) ;
#156 = PLANE ( 'NONE',  #48 ) ;
#157 = LENGTH_MEASURE_WITH_UNIT ( LENGTH_MEASURE( 0.02539999999999999897 ), #69 );
#158 = ORIENTED_EDGE ( 'NONE', *, *, #72, .F. ) ;
#159 = LENGTH_MEASURE_WITH_UNIT ( LENGTH_MEASURE( 0.02539999999999999897 ), #18 );
#160 = SURFACE_STYLE_USAGE ( .BOTH. , #17 ) ;
#161 = COLOUR_RGB ( '',0.7921568627450980005, 0.8196078431372548767, 0.9333333333333333481 ) ;
#162 = MECHANICAL_DESIGN_GEOMETRIC_PRESENTATION_REPRESENTATION (  '', ( #33 ), #222 ) ;
#163 = CARTESIAN_POINT ( 'NONE',  ( -0.09375000000000012490, 2.500000000000000000, 0.000000000000000000 ) ) ;
#164 = SURFACE_SIDE_STYLE ('',( #295 ) ) ;
#165 = FILL_AREA_STYLE_COLOUR ( '', #15 ) ;
#166 = FACE_OUTER_BOUND ( 'NONE', #79, .T. ) ;
#167 = DIRECTION ( 'NONE',  ( -0.000000000000000000, -1.000000000000000000, -0.000000000000000000 ) ) ;
#168 = AXIS2_PLACEMENT_3D ( 'NONE', #185, #243, #291 ) ;
#169 = PRESENTATION_LAYER_ASSIGNMENT (  '', '', ( #29 ) ) ;
#170 = CARTESIAN_POINT ( 'NONE',  ( 0.000000000000000000, 0.000000000000000000, 0.000000000000000000 ) ) ;
#171 = ORIENTED_EDGE ( 'NONE', *, *, #146, .T. ) ;
#172 = EDGE_LOOP ( 'NONE', ( #103, #105 ) ) ;
#173 = DIRECTION ( 'NONE',  ( 0.000000000000000000, 0.000000000000000000, -1.000000000000000000 ) ) ;
#174 = ORIENTED_EDGE ( 'NONE', *, *, #3, .F. ) ;
#175 = DIRECTION ( 'NONE',  ( -0.000000000000000000, -1.000000000000000000, -0.000000000000000000 ) ) ;
#176 = ORIENTED_EDGE ( 'NONE', *, *, #235, .F. ) ;
#177 =( NAMED_UNIT ( * ) SI_UNIT ( $, .STERADIAN. ) SOLID_ANGLE_UNIT ( ) );
#178 = MANIFOLD_SOLID_BREP ( 'Revolve - Tool Body (Straight Shanked)', #182 ) ;
#179 = UNCERTAINTY_MEASURE_WITH_UNIT (LENGTH_MEASURE( 1.000000000000000082E-05 ), #289, 'distance_accuracy_value', 'NONE');
#180 = ADVANCED_FACE ( 'NONE', ( #166 ), #4, .T. ) ;
#181 = LINE ( 'NONE', #214, #266 ) ;
#182 = CLOSED_SHELL ( 'NONE', ( #282, #27, #19, #219 ) ) ;
#183 = COLOUR_RGB ( '',1.000000000000000000, 0.000000000000000000, 0.000000000000000000 ) ;
#184 =( NAMED_UNIT ( * ) PLANE_ANGLE_UNIT ( ) SI_UNIT ( $, .RADIAN. ) );
#185 = CARTESIAN_POINT ( 'NONE',  ( -6.123233995736766036E-17, 2.500000000000000000, 0.000000000000000000 ) ) ;
#186 = SHAPE_DEFINITION_REPRESENTATION ( #52, #230 ) ;
#187 = CARTESIAN_POINT ( 'NONE',  ( 1.148106374200643401E-17, 0.000000000000000000, 0.09374999999999998612 ) ) ;
#188 =( NAMED_UNIT ( * ) SI_UNIT ( $, .STERADIAN. ) SOLID_ANGLE_UNIT ( ) );
#189 = DIRECTION ( 'NONE',  ( -3.160378836509298460E-17, 1.000000000000000000, -0.000000000000000000 ) ) ;
#190 = DIRECTION ( 'NONE',  ( 0.000000000000000000, 0.000000000000000000, -1.000000000000000000 ) ) ;
#191 = CARTESIAN_POINT ( 'NONE',  ( 0.000000000000000000, 0.5625000000000000000, 0.000000000000000000 ) ) ;
#192 =( CONVERSION_BASED_UNIT ( 'INCH', #96 ) LENGTH_UNIT ( ) NAMED_UNIT ( #40 ) );
#193 = AXIS2_PLACEMENT_3D ( 'NONE', #112, #1, #92 ) ;
#194 = FILL_AREA_STYLE ('',( #143 ) ) ;
#195 = SURFACE_SIDE_STYLE ('',( #119 ) ) ;
#196 = EDGE_CURVE ( 'NONE', #151, #287, #63, .T. ) ;
#197 =( NAMED_UNIT ( * ) PLANE_ANGLE_UNIT ( ) SI_UNIT ( $, .RADIAN. ) );
#198 =( GEOMETRIC_REPRESENTATION_CONTEXT ( 3 ) GLOBAL_UNCERTAINTY_ASSIGNED_CONTEXT ( ( #36 ) ) GLOBAL_UNIT_ASSIGNED_CONTEXT ( ( #252, #9, #283 ) ) REPRESENTATION_CONTEXT ( 'NONE', 'WORKASPACE' ) );
#199 = DIRECTION ( 'NONE',  ( -0.000000000000000000, -1.000000000000000000, -0.000000000000000000 ) ) ;
#200 = ORIENTED_EDGE ( 'NONE', *, *, #276, .F. ) ;
#201 =( CONVERSION_BASED_UNIT ( 'INCH', #104 ) LENGTH_UNIT ( ) NAMED_UNIT ( #71 ) );
#202 = ORIENTED_EDGE ( 'NONE', *, *, #196, .T. ) ;
#203 = CARTESIAN_POINT ( 'NONE',  ( 0.09374999999999998612, 2.500000000000000000, 0.000000000000000000 ) ) ;
#204 = PRESENTATION_LAYER_ASSIGNMENT (  '', '', ( #44 ) ) ;
#205 = AXIS2_PLACEMENT_3D ( 'NONE', #87, #242, #113 ) ;
#206 =( NAMED_UNIT ( * ) SI_UNIT ( $, .STERADIAN. ) SOLID_ANGLE_UNIT ( ) );
#207 = UNCERTAINTY_MEASURE_WITH_UNIT (LENGTH_MEASURE( 1.000000000000000082E-05 ), #192, 'distance_accuracy_value', 'NONE');
#208 = CARTESIAN_POINT ( 'NONE',  ( 0.000000000000000000, 0.000000000000000000, 0.000000000000000000 ) ) ;
#209 = CARTESIAN_POINT ( 'NONE',  ( 0.000000000000000000, 0.5625000000000001110, 0.000000000000000000 ) ) ;
#210 = DIRECTION ( 'NONE',  ( -1.000000000000000000, -3.160378836509298460E-17, 0.000000000000000000 ) ) ;
#211 = UNCERTAINTY_MEASURE_WITH_UNIT (LENGTH_MEASURE( 1.000000000000000082E-05 ), #307, 'distance_accuracy_value', 'NONE');
#212 = CIRCLE ( 'NONE', #168, 0.09375000000000005551 ) ;
#213 = SURFACE_STYLE_USAGE ( .BOTH. , #42 ) ;
#214 = CARTESIAN_POINT ( 'NONE',  ( 0.09374999999999995837, 2.500000000000000000, 1.148106374200644017E-17 ) ) ;
#215 =( CONVERSION_BASED_UNIT ( 'INCH', #159 ) LENGTH_UNIT ( ) NAMED_UNIT ( #305 ) );
#216 = PRESENTATION_STYLE_ASSIGNMENT (( #114 ) ) ;
#217 =( NAMED_UNIT ( * ) PLANE_ANGLE_UNIT ( ) SI_UNIT ( $, .RADIAN. ) );
#218 = DIRECTION ( 'NONE',  ( -0.000000000000000000, -1.000000000000000000, -0.000000000000000000 ) ) ;
#219 = ADVANCED_FACE ( 'NONE', ( #11 ), #150, .F. ) ;
#220 = EDGE_CURVE ( 'NONE', #56, #226, #58, .T. ) ;
#221 = VECTOR ( 'NONE', #74, 39.37007874015748143 ) ;
#222 =( GEOMETRIC_REPRESENTATION_CONTEXT ( 3 ) GLOBAL_UNCERTAINTY_ASSIGNED_CONTEXT ( ( #138 ) ) GLOBAL_UNIT_ASSIGNED_CONTEXT ( ( #201, #197, #299 ) ) REPRESENTATION_CONTEXT ( 'NONE', 'WORKASPACE' ) );
#223 = LINE ( 'NONE', #142, #221 ) ;
#224 = CARTESIAN_POINT ( 'NONE',  ( 0.000000000000000000, 0.5625000000000001110, 0.000000000000000000 ) ) ;
#225 = DIRECTION ( 'NONE',  ( 0.000000000000000000, 0.000000000000000000, -1.000000000000000000 ) ) ;
#226 = VERTEX_POINT ( 'NONE', #128 ) ;
#227 = MECHANICAL_DESIGN_GEOMETRIC_PRESENTATION_REPRESENTATION (  '', ( #154 ), #198 ) ;
#228 = FILL_AREA_STYLE_COLOUR ( '', #125 ) ;
#229 = ORIENTED_EDGE ( 'NONE', *, *, #72, .T. ) ;
#230 = ADVANCED_BREP_SHAPE_REPRESENTATION ( '01107', ( #75, #178, #193 ), #279 ) ;
#231 = SURFACE_STYLE_FILL_AREA ( #34 ) ;
#232 = DIRECTION ( 'NONE',  ( -3.160378836509298460E-17, 1.000000000000000000, -0.000000000000000000 ) ) ;
#233 = APPLICATION_PROTOCOL_DEFINITION ( 'draft international standard', 'automotive_design', 1998, #10 ) ;
#234 = ORIENTED_EDGE ( 'NONE', *, *, #107, .T. ) ;
#235 = EDGE_CURVE ( 'NONE', #60, #61, #241, .T. ) ;
#236 = CYLINDRICAL_SURFACE ( 'NONE', #8, 0.09375000000000002776 ) ;
#237 = DIRECTION ( 'NONE',  ( -1.000000000000000000, 0.000000000000000000, 0.000000000000000000 ) ) ;
#238 = AXIS2_PLACEMENT_3D ( 'NONE', #59, #121, #31 ) ;
#239 = FACE_OUTER_BOUND ( 'NONE', #122, .T. ) ;
#240 = AXIS2_PLACEMENT_3D ( 'NONE', #127, #199, #225 ) ;
#241 = CIRCLE ( 'NONE', #97, 0.09374999999999998612 ) ;
#242 = DIRECTION ( 'NONE',  ( 0.000000000000000000, 1.000000000000000000, 0.000000000000000000 ) ) ;
#243 = DIRECTION ( 'NONE',  ( -3.160378836509298460E-17, 1.000000000000000000, -0.000000000000000000 ) ) ;
#244 =( NAMED_UNIT ( * ) SI_UNIT ( $, .STERADIAN. ) SOLID_ANGLE_UNIT ( ) );
#245 = AXIS2_PLACEMENT_3D ( 'NONE', #203, #120, #297 ) ;
#246 = EDGE_CURVE ( 'NONE', #61, #56, #149, .T. ) ;
#247 = PRESENTATION_STYLE_ASSIGNMENT (( #53 ) ) ;
#248 = ADVANCED_FACE ( 'NONE', ( #14 ), #99, .T. ) ;
#249 = CARTESIAN_POINT ( 'NONE',  ( 0.000000000000000000, 0.000000000000000000, 0.000000000000000000 ) ) ;
#250 = MECHANICAL_DESIGN_GEOMETRIC_PRESENTATION_REPRESENTATION (  '', ( #44 ), #106 ) ;
#251 = CIRCLE ( 'NONE', #308, 0.09374999999999998612 ) ;
#252 =( CONVERSION_BASED_UNIT ( 'INCH', #80 ) LENGTH_UNIT ( ) NAMED_UNIT ( #136 ) );
#253 = ORIENTED_EDGE ( 'NONE', *, *, #12, .T. ) ;
#254 = PRODUCT_RELATED_PRODUCT_CATEGORY ( 'part', '', ( #16 ) ) ;
#255 = APPLICATION_PROTOCOL_DEFINITION ( 'draft international standard', 'automotive_design', 1998, #273 ) ;
#256 = ADVANCED_FACE ( 'NONE', ( #7 ), #277, .T. ) ;
#257 = ORIENTED_EDGE ( 'NONE', *, *, #116, .F. ) ;
#258 = DIMENSIONAL_EXPONENTS ( 1.000000000000000000, 0.000000000000000000, 0.000000000000000000, 0.000000000000000000, 0.000000000000000000, 0.000000000000000000, 0.000000000000000000 ) ;
#259 = AXIS2_PLACEMENT_3D ( 'NONE', #28, #167, #50 ) ;
#260 = DIRECTION ( 'NONE',  ( -3.160378836509298460E-17, 1.000000000000000000, -0.000000000000000000 ) ) ;
#261 = CARTESIAN_POINT ( 'NONE',  ( 1.148106374200643401E-17, 0.5625000000000000000, 0.09374999999999998612 ) ) ;
#262 = LENGTH_MEASURE_WITH_UNIT ( LENGTH_MEASURE( 0.02539999999999999897 ), #294 );
#263 = DIRECTION ( 'NONE',  ( -3.160378836509298460E-17, 1.000000000000000000, -0.000000000000000000 ) ) ;
#264 = SURFACE_STYLE_FILL_AREA ( #67 ) ;
#265 = CLOSED_SHELL ( 'NONE', ( #248, #256, #180, #83 ) ) ;
#266 = VECTOR ( 'NONE', #189, 39.37007874015748143 ) ;
#267 = LINE ( 'NONE', #187, #32 ) ;
#268 =( GEOMETRIC_REPRESENTATION_CONTEXT ( 3 ) GLOBAL_UNCERTAINTY_ASSIGNED_CONTEXT ( ( #179 ) ) GLOBAL_UNIT_ASSIGNED_CONTEXT ( ( #289, #90, #206 ) ) REPRESENTATION_CONTEXT ( 'NONE', 'WORKASPACE' ) );
#269 = ORIENTED_EDGE ( 'NONE', *, *, #107, .F. ) ;
#270 =( CONVERSION_BASED_UNIT ( 'INCH', #98 ) LENGTH_UNIT ( ) NAMED_UNIT ( #21 ) );
#271 = PRESENTATION_LAYER_ASSIGNMENT (  '', '', ( #6 ) ) ;
#272 =( NAMED_UNIT ( * ) SI_UNIT ( $, .STERADIAN. ) SOLID_ANGLE_UNIT ( ) );
#273 = APPLICATION_CONTEXT ( 'automotive_design' ) ;
#274 =( LENGTH_UNIT ( ) NAMED_UNIT ( * ) SI_UNIT ( $, .METRE. ) );
#275 = DIRECTION ( 'NONE',  ( -0.000000000000000000, -1.000000000000000000, -0.000000000000000000 ) ) ;
#276 = EDGE_CURVE ( 'NONE', #61, #60, #251, .T. ) ;
#277 = PLANE ( 'NONE',  #205 ) ;
#278 = AXIS2_PLACEMENT_3D ( 'NONE', #30, #175, #100 ) ;
#279 =( GEOMETRIC_REPRESENTATION_CONTEXT ( 3 ) GLOBAL_UNCERTAINTY_ASSIGNED_CONTEXT ( ( #286 ) ) GLOBAL_UNIT_ASSIGNED_CONTEXT ( ( #215, #184, #188 ) ) REPRESENTATION_CONTEXT ( 'NONE', 'WORKASPACE' ) );
#280 = DIRECTION ( 'NONE',  ( -3.160378836509298460E-17, 1.000000000000000000, -0.000000000000000000 ) ) ;
#281 = ORIENTED_EDGE ( 'NONE', *, *, #276, .T. ) ;
#282 = ADVANCED_FACE ( 'NONE', ( #155 ), #133, .T. ) ;
#283 =( NAMED_UNIT ( * ) SI_UNIT ( $, .STERADIAN. ) SOLID_ANGLE_UNIT ( ) );
#284 = EDGE_LOOP ( 'NONE', ( #129, #298 ) ) ;
#285 = PRESENTATION_STYLE_ASSIGNMENT (( #213 ) ) ;
#286 = UNCERTAINTY_MEASURE_WITH_UNIT (LENGTH_MEASURE( 1.000000000000000082E-05 ), #215, 'distance_accuracy_value', 'NONE');
#287 = VERTEX_POINT ( 'NONE', #261 ) ;
#288 =( GEOMETRIC_REPRESENTATION_CONTEXT ( 3 ) GLOBAL_UNCERTAINTY_ASSIGNED_CONTEXT ( ( #64 ) ) GLOBAL_UNIT_ASSIGNED_CONTEXT ( ( #270, #140, #244 ) ) REPRESENTATION_CONTEXT ( 'NONE', 'WORKASPACE' ) );
#289 =( CONVERSION_BASED_UNIT ( 'INCH', #157 ) LENGTH_UNIT ( ) NAMED_UNIT ( #306 ) );
#290 = FILL_AREA_STYLE_COLOUR ( '', #124 ) ;
#291 = DIRECTION ( 'NONE',  ( -1.000000000000000000, 0.000000000000000000, 0.000000000000000000 ) ) ;
#292 = CARTESIAN_POINT ( 'NONE',  ( 1.148106374200643555E-17, 0.000000000000000000, 0.09375000000000001388 ) ) ;
#293 = AXIS2_PLACEMENT_3D ( 'NONE', #249, #5, #190 ) ;
#294 =( LENGTH_UNIT ( ) NAMED_UNIT ( * ) SI_UNIT ( $, .METRE. ) );
#295 = SURFACE_STYLE_FILL_AREA ( #194 ) ;
#296 = PRODUCT_DEFINITION_FORMATION_WITH_SPECIFIED_SOURCE ( 'ANY', '', #16, .NOT_KNOWN. ) ;
#297 = DIRECTION ( 'NONE',  ( 1.000000000000000000, 3.160378836509298460E-17, 0.000000000000000000 ) ) ;
#298 = ORIENTED_EDGE ( 'NONE', *, *, #24, .T. ) ;
#299 =( NAMED_UNIT ( * ) SI_UNIT ( $, .STERADIAN. ) SOLID_ANGLE_UNIT ( ) );
#300 = EDGE_LOOP ( 'NONE', ( #202, #77, #269, #257 ) ) ;
#301 = EDGE_LOOP ( 'NONE', ( #200, #176 ) ) ;
#302 = AXIS2_PLACEMENT_3D ( 'NONE', #191, #218, #95 ) ;
#303 =( LENGTH_UNIT ( ) NAMED_UNIT ( * ) SI_UNIT ( $, .METRE. ) );
#304 = PRODUCT_DEFINITION_CONTEXT ( 'detailed design', #10, 'design' ) ;
#305 = DIMENSIONAL_EXPONENTS ( 1.000000000000000000, 0.000000000000000000, 0.000000000000000000, 0.000000000000000000, 0.000000000000000000, 0.000000000000000000, 0.000000000000000000 ) ;
#306 = DIMENSIONAL_EXPONENTS ( 1.000000000000000000, 0.000000000000000000, 0.000000000000000000, 0.000000000000000000, 0.000000000000000000, 0.000000000000000000, 0.000000000000000000 ) ;
#307 =( CONVERSION_BASED_UNIT ( 'INCH', #262 ) LENGTH_UNIT ( ) NAMED_UNIT ( #258 ) );
#308 = AXIS2_PLACEMENT_3D ( 'NONE', #209, #22, #88 ) ;
#309 = ORIENTED_EDGE ( 'NONE', *, *, #235, .T. ) ;
ENDSEC;
END-ISO-10303-21;
