ISO-10303-21;
HEADER;
FILE_DESCRIPTION (( 'STEP AP214' ),
    '1' );
FILE_NAME ('59535.STEP',
    '2023-07-24T15:09:36',
    ( '' ),
    ( '' ),
    'SwSTEP 2.0',
    'SolidWorks 2023',
    '' );
FILE_SCHEMA (( 'AUTOMOTIVE_DESIGN' ));
ENDSEC;

DATA;
#1 = ADVANCED_FACE ( 'NONE', ( #192 ), #252, .T. ) ;
#2 = MECHANICAL_DESIGN_GEOMETRIC_PRESENTATION_REPRESENTATION (  '', ( #326 ), #248 ) ;
#3 = DIRECTION ( 'NONE',  ( -1.000000000000000000, 0.000000000000000000, 0.000000000000000000 ) ) ;
#4 = DIRECTION ( 'NONE',  ( 0.000000000000000000, 0.000000000000000000, -1.000000000000000000 ) ) ;
#5 = EDGE_CURVE ( 'NONE', #35, #132, #191, .T. ) ;
#6 = FILL_AREA_STYLE ('',( #152 ) ) ;
#7 = FILL_AREA_STYLE_COLOUR ( '', #238 ) ;
#8 = CIRCLE ( 'NONE', #356, 2.999999999999991562 ) ;
#9 =( NAMED_UNIT ( * ) PLANE_ANGLE_UNIT ( ) SI_UNIT ( $, .RADIAN. ) );
#10 = AXIS2_PLACEMENT_3D ( 'NONE', #80, #366, #113 ) ;
#11 =( LENGTH_UNIT ( ) NAMED_UNIT ( * ) SI_UNIT ( .MILLI., .METRE. ) );
#12 = MANIFOLD_SOLID_BREP ( 'Revolve - Cutting Edge', #126 ) ;
#13 =( NAMED_UNIT ( * ) SI_UNIT ( $, .STERADIAN. ) SOLID_ANGLE_UNIT ( ) );
#14 = SURFACE_SIDE_STYLE ('',( #236 ) ) ;
#15 = ADVANCED_FACE ( 'NONE', ( #115 ), #305, .T. ) ;
#16 = PRESENTATION_STYLE_ASSIGNMENT (( #256 ) ) ;
#17 =( NAMED_UNIT ( * ) PLANE_ANGLE_UNIT ( ) SI_UNIT ( $, .RADIAN. ) );
#18 =( NAMED_UNIT ( * ) SI_UNIT ( $, .STERADIAN. ) SOLID_ANGLE_UNIT ( ) );
#19 = AXIS2_PLACEMENT_3D ( 'NONE', #251, #193, #109 ) ;
#20 =( GEOMETRIC_REPRESENTATION_CONTEXT ( 3 ) GLOBAL_UNCERTAINTY_ASSIGNED_CONTEXT ( ( #269 ) ) GLOBAL_UNIT_ASSIGNED_CONTEXT ( ( #118, #155, #13 ) ) REPRESENTATION_CONTEXT ( 'NONE', 'WORKASPACE' ) );
#21 = CARTESIAN_POINT ( 'NONE',  ( 9.324138683375338132E-15, 11.99999999999999645, 0.000000000000000000 ) ) ;
#22 = ORIENTED_EDGE ( 'NONE', *, *, #300, .F. ) ;
#23 = VECTOR ( 'NONE', #54, 1000.000000000000000 ) ;
#24 = VERTEX_POINT ( 'NONE', #81 ) ;
#25 = VERTEX_POINT ( 'NONE', #194 ) ;
#26 = CARTESIAN_POINT ( 'NONE',  ( 3.184081677783117402E-15, 63.00000000000000000, 0.000000000000000000 ) ) ;
#27 = UNCERTAINTY_MEASURE_WITH_UNIT (LENGTH_MEASURE( 1.000000000000000082E-05 ), #45, 'distance_accuracy_value', 'NONE');
#28 = DIRECTION ( 'NONE',  ( -0.000000000000000000, -1.000000000000000000, -0.000000000000000000 ) ) ;
#29 = VECTOR ( 'NONE', #316, 1000.000000000000000 ) ;
#30 = UNCERTAINTY_MEASURE_WITH_UNIT (LENGTH_MEASURE( 1.000000000000000082E-05 ), #82, 'distance_accuracy_value', 'NONE');
#31 = FILL_AREA_STYLE_COLOUR ( '', #72 ) ;
#32 = FACE_OUTER_BOUND ( 'NONE', #71, .T. ) ;
#33 = CARTESIAN_POINT ( 'NONE',  ( 0.000000000000000000, 12.00000000000000000, 0.000000000000000000 ) ) ;
#34 = SURFACE_STYLE_FILL_AREA ( #179 ) ;
#35 = VERTEX_POINT ( 'NONE', #280 ) ;
#36 = AXIS2_PLACEMENT_3D ( 'NONE', #175, #245, #276 ) ;
#37 = CARTESIAN_POINT ( 'NONE',  ( 3.000000000000000000, 63.00000000000000000, 0.000000000000000000 ) ) ;
#38 = CARTESIAN_POINT ( 'NONE',  ( 3.000000000000000444, 63.00000000000000000, 3.673940397442054938E-16 ) ) ;
#39 = EDGE_CURVE ( 'NONE', #292, #211, #286, .T. ) ;
#40 = PLANE ( 'NONE',  #189 ) ;
#41 = APPLICATION_PROTOCOL_DEFINITION ( 'draft international standard', 'automotive_design', 1998, #138 ) ;
#42 = EDGE_CURVE ( 'NONE', #180, #25, #8, .T. ) ;
#43 = SURFACE_STYLE_USAGE ( .BOTH. , #270 ) ;
#44 =( NAMED_UNIT ( * ) PLANE_ANGLE_UNIT ( ) SI_UNIT ( $, .RADIAN. ) );
#45 =( LENGTH_UNIT ( ) NAMED_UNIT ( * ) SI_UNIT ( .MILLI., .METRE. ) );
#46 = EDGE_LOOP ( 'NONE', ( #233, #304, #165, #333 ) ) ;
#47 =( LENGTH_UNIT ( ) NAMED_UNIT ( * ) SI_UNIT ( .MILLI., .METRE. ) );
#48 =( GEOMETRIC_REPRESENTATION_CONTEXT ( 3 ) GLOBAL_UNCERTAINTY_ASSIGNED_CONTEXT ( ( #170 ) ) GLOBAL_UNIT_ASSIGNED_CONTEXT ( ( #212, #166, #262 ) ) REPRESENTATION_CONTEXT ( 'NONE', 'WORKASPACE' ) );
#49 = ORIENTED_EDGE ( 'NONE', *, *, #311, .F. ) ;
#50 = STYLED_ITEM ( 'NONE', ( #310 ), #171 ) ;
#51 = CIRCLE ( 'NONE', #243, 2.999999999999996891 ) ;
#52 = FILL_AREA_STYLE_COLOUR ( '', #279 ) ;
#53 = FILL_AREA_STYLE ('',( #52 ) ) ;
#54 = DIRECTION ( 'NONE',  ( -0.000000000000000000, -1.000000000000000000, -0.000000000000000000 ) ) ;
#55 = CARTESIAN_POINT ( 'NONE',  ( 3.184081677783117402E-15, 63.00000000000000000, 0.000000000000000000 ) ) ;
#56 = UNCERTAINTY_MEASURE_WITH_UNIT (LENGTH_MEASURE( 1.000000000000000082E-05 ), #199, 'distance_accuracy_value', 'NONE');
#57 = SURFACE_STYLE_FILL_AREA ( #275 ) ;
#58 = LINE ( 'NONE', #65, #29 ) ;
#59 = CYLINDRICAL_SURFACE ( 'NONE', #317, 3.000000000000000000 ) ;
#60 = ORIENTED_EDGE ( 'NONE', *, *, #311, .T. ) ;
#61 = DIRECTION ( 'NONE',  ( -0.000000000000000000, -1.000000000000000000, -0.000000000000000000 ) ) ;
#62 = PRESENTATION_LAYER_ASSIGNMENT (  '', '', ( #50 ) ) ;
#63 = AXIS2_PLACEMENT_3D ( 'NONE', #21, #98, #291 ) ;
#64 = DIRECTION ( 'NONE',  ( -1.203932746194552959E-16, 1.000000000000000000, -0.000000000000000000 ) ) ;
#65 = CARTESIAN_POINT ( 'NONE',  ( -2.999999999999991118, 63.00000000000000000, 0.000000000000000000 ) ) ;
#66 = SURFACE_SIDE_STYLE ('',( #350 ) ) ;
#67 = AXIS2_PLACEMENT_3D ( 'NONE', #234, #229, #288 ) ;
#68 = EDGE_LOOP ( 'NONE', ( #328, #206 ) ) ;
#69 = CARTESIAN_POINT ( 'NONE',  ( 3.673940397442059868E-16, 0.5000000000000000000, 3.000000000000000000 ) ) ;
#70 =( GEOMETRIC_REPRESENTATION_CONTEXT ( 3 ) GLOBAL_UNCERTAINTY_ASSIGNED_CONTEXT ( ( #83 ) ) GLOBAL_UNIT_ASSIGNED_CONTEXT ( ( #11, #44, #160 ) ) REPRESENTATION_CONTEXT ( 'NONE', 'WORKASPACE' ) );
#71 = EDGE_LOOP ( 'NONE', ( #77, #203, #345, #278 ) ) ;
#72 = COLOUR_RGB ( '',0.7921568627450980005, 0.8196078431372548767, 0.9333333333333333481 ) ;
#73 = CIRCLE ( 'NONE', #258, 2.500000000000000444 ) ;
#74 = TOROIDAL_SURFACE ( 'NONE', #315, 2.500000000000000444, 0.4999999999999997780 ) ;
#75 = PRODUCT_RELATED_PRODUCT_CATEGORY ( 'part', '', ( #364 ) ) ;
#76 = EDGE_CURVE ( 'NONE', #24, #211, #110, .T. ) ;
#77 = ORIENTED_EDGE ( 'NONE', *, *, #42, .T. ) ;
#78 = ORIENTED_EDGE ( 'NONE', *, *, #108, .T. ) ;
#79 = UNCERTAINTY_MEASURE_WITH_UNIT (LENGTH_MEASURE( 1.000000000000000082E-05 ), #267, 'distance_accuracy_value', 'NONE');
#80 = CARTESIAN_POINT ( 'NONE',  ( 0.000000000000000000, 12.00000000000000000, 0.000000000000000000 ) ) ;
#81 = CARTESIAN_POINT ( 'NONE',  ( 0.000000000000000000, 0.5000000000000000000, -3.000000000000000000 ) ) ;
#82 =( LENGTH_UNIT ( ) NAMED_UNIT ( * ) SI_UNIT ( .MILLI., .METRE. ) );
#83 = UNCERTAINTY_MEASURE_WITH_UNIT (LENGTH_MEASURE( 1.000000000000000082E-05 ), #11, 'distance_accuracy_value', 'NONE');
#84 =( NAMED_UNIT ( * ) SI_UNIT ( $, .STERADIAN. ) SOLID_ANGLE_UNIT ( ) );
#85 = ADVANCED_FACE ( 'NONE', ( #222 ), #40, .F. ) ;
#86 = AXIS2_PLACEMENT_3D ( 'NONE', #55, #334, #298 ) ;
#87 = DIRECTION ( 'NONE',  ( -0.000000000000000000, -1.000000000000000000, -0.000000000000000000 ) ) ;
#88 = FACE_OUTER_BOUND ( 'NONE', #365, .T. ) ;
#89 = STYLED_ITEM ( 'NONE', ( #107 ), #239 ) ;
#90 = DIRECTION ( 'NONE',  ( 1.000000000000000000, 1.203932746194552959E-16, 0.000000000000000000 ) ) ;
#91 = PRESENTATION_LAYER_ASSIGNMENT (  '', '', ( #146 ) ) ;
#92 = APPLICATION_CONTEXT ( 'automotive_design' ) ;
#93 = VECTOR ( 'NONE', #293, 1000.000000000000000 ) ;
#94 = CYLINDRICAL_SURFACE ( 'NONE', #112, 2.999999999999993783 ) ;
#95 = PRODUCT_DEFINITION_SHAPE ( 'NONE', 'NONE',  #266 ) ;
#96 = DIRECTION ( 'NONE',  ( 0.000000000000000000, 0.000000000000000000, -1.000000000000000000 ) ) ;
#97 = CARTESIAN_POINT ( 'NONE',  ( 0.000000000000000000, 0.000000000000000000, -3.000000000000000000 ) ) ;
#98 = DIRECTION ( 'NONE',  ( -1.203932746194552959E-16, 1.000000000000000000, -0.000000000000000000 ) ) ;
#99 = PRODUCT_DEFINITION_FORMATION_WITH_SPECIFIED_SOURCE ( 'ANY', '', #364, .NOT_KNOWN. ) ;
#100 = CARTESIAN_POINT ( 'NONE',  ( -2.999999999999981792, 11.99999999999999645, 0.000000000000000000 ) ) ;
#101 = DIRECTION ( 'NONE',  ( -1.000000000000000000, 0.000000000000000000, 0.000000000000000000 ) ) ;
#102 = ADVANCED_FACE ( 'NONE', ( #32 ), #94, .T. ) ;
#103 = ORIENTED_EDGE ( 'NONE', *, *, #263, .F. ) ;
#104 = DIRECTION ( 'NONE',  ( 0.000000000000000000, 0.000000000000000000, -1.000000000000000000 ) ) ;
#105 = STYLED_ITEM ( 'NONE', ( #167 ), #1 ) ;
#106 = ADVANCED_FACE ( 'NONE', ( #277 ), #74, .T. ) ;
#107 = PRESENTATION_STYLE_ASSIGNMENT (( #320 ) ) ;
#108 = EDGE_CURVE ( 'NONE', #360, #24, #128, .T. ) ;
#109 = DIRECTION ( 'NONE',  ( -1.224646799147353454E-16, 0.000000000000000000, -1.000000000000000000 ) ) ;
#110 = CIRCLE ( 'NONE', #295, 0.4999999999999995559 ) ;
#111 = DIRECTION ( 'NONE',  ( -1.000000000000000000, 0.000000000000000000, 0.000000000000000000 ) ) ;
#112 = AXIS2_PLACEMENT_3D ( 'NONE', #312, #64, #3 ) ;
#113 = DIRECTION ( 'NONE',  ( 0.000000000000000000, -0.000000000000000000, 1.000000000000000000 ) ) ;
#114 = COLOUR_RGB ( '',1.000000000000000000, 0.000000000000000000, 0.000000000000000000 ) ;
#115 = FACE_OUTER_BOUND ( 'NONE', #156, .T. ) ;
#116 = SURFACE_STYLE_FILL_AREA ( #341 ) ;
#117 =( NAMED_UNIT ( * ) PLANE_ANGLE_UNIT ( ) SI_UNIT ( $, .RADIAN. ) );
#118 =( LENGTH_UNIT ( ) NAMED_UNIT ( * ) SI_UNIT ( .MILLI., .METRE. ) );
#119 = ORIENTED_EDGE ( 'NONE', *, *, #370, .F. ) ;
#120 = CIRCLE ( 'NONE', #19, 0.4999999999999995559 ) ;
#121 = PRESENTATION_STYLE_ASSIGNMENT (( #283 ) ) ;
#122 = UNCERTAINTY_MEASURE_WITH_UNIT (LENGTH_MEASURE( 1.000000000000000082E-05 ), #182, 'distance_accuracy_value', 'NONE');
#123 = FILL_AREA_STYLE_COLOUR ( '', #114 ) ;
#124 = DIRECTION ( 'NONE',  ( -1.000000000000000000, 0.000000000000000000, 0.000000000000000000 ) ) ;
#125 = EDGE_LOOP ( 'NONE', ( #187, #290 ) ) ;
#126 = CLOSED_SHELL ( 'NONE', ( #171, #1, #297, #106, #227, #205 ) ) ;
#127 = FILL_AREA_STYLE ('',( #7 ) ) ;
#128 = CIRCLE ( 'NONE', #210, 3.000000000000000000 ) ;
#129 = FACE_OUTER_BOUND ( 'NONE', #264, .T. ) ;
#130 = CARTESIAN_POINT ( 'NONE',  ( 0.000000000000000000, 12.00000000000000000, 0.000000000000000000 ) ) ;
#131 = DIRECTION ( 'NONE',  ( -1.000000000000000000, -1.203932746194552959E-16, 0.000000000000000000 ) ) ;
#132 = VERTEX_POINT ( 'NONE', #215 ) ;
#133 = SURFACE_STYLE_USAGE ( .BOTH. , #14 ) ;
#134 = EDGE_LOOP ( 'NONE', ( #176, #78, #240, #361 ) ) ;
#135 = LINE ( 'NONE', #162, #93 ) ;
#136 = CIRCLE ( 'NONE', #349, 2.999999999999996891 ) ;
#137 = FILL_AREA_STYLE ('',( #31 ) ) ;
#138 = APPLICATION_CONTEXT ( 'automotive_design' ) ;
#139 = ADVANCED_BREP_SHAPE_REPRESENTATION ( '59535', ( #12, #239, #67 ), #301 ) ;
#140 = AXIS2_PLACEMENT_3D ( 'NONE', #250, #177, #253 ) ;
#141 = PRESENTATION_LAYER_ASSIGNMENT (  '', '', ( #89 ) ) ;
#142 = SURFACE_SIDE_STYLE ('',( #144 ) ) ;
#143 = CARTESIAN_POINT ( 'NONE',  ( 0.000000000000000000, 0.5000000000000000000, 0.000000000000000000 ) ) ;
#144 = SURFACE_STYLE_FILL_AREA ( #53 ) ;
#145 = AXIS2_PLACEMENT_3D ( 'NONE', #244, #28, #174 ) ;
#146 = STYLED_ITEM ( 'NONE', ( #16 ), #205 ) ;
#147 = CARTESIAN_POINT ( 'NONE',  ( 3.673940397442059868E-16, 0.000000000000000000, 3.000000000000000000 ) ) ;
#148 = CARTESIAN_POINT ( 'NONE',  ( 0.000000000000000000, 0.000000000000000000, -2.500000000000000444 ) ) ;
#149 = FACE_OUTER_BOUND ( 'NONE', #125, .T. ) ;
#150 = EDGE_CURVE ( 'NONE', #180, #294, #58, .T. ) ;
#151 = DIRECTION ( 'NONE',  ( 1.203932746194552959E-16, -1.000000000000000000, 0.000000000000000000 ) ) ;
#152 = FILL_AREA_STYLE_COLOUR ( '', #351 ) ;
#153 = DIRECTION ( 'NONE',  ( -0.000000000000000000, -1.000000000000000000, -0.000000000000000000 ) ) ;
#154 = FACE_OUTER_BOUND ( 'NONE', #161, .T. ) ;
#155 =( NAMED_UNIT ( * ) PLANE_ANGLE_UNIT ( ) SI_UNIT ( $, .RADIAN. ) );
#156 = EDGE_LOOP ( 'NONE', ( #119, #60, #223, #158 ) ) ;
#157 = SURFACE_STYLE_FILL_AREA ( #327 ) ;
#158 = ORIENTED_EDGE ( 'NONE', *, *, #357, .F. ) ;
#159 = SHAPE_DEFINITION_REPRESENTATION ( #95, #139 ) ;
#160 =( NAMED_UNIT ( * ) SI_UNIT ( $, .STERADIAN. ) SOLID_ANGLE_UNIT ( ) );
#161 = EDGE_LOOP ( 'NONE', ( #265, #362, #22, #299 ) ) ;
#162 = CARTESIAN_POINT ( 'NONE',  ( 2.999999999999996891, 63.00000000000000000, 3.673940397442052472E-16 ) ) ;
#163 = AXIS2_PLACEMENT_3D ( 'NONE', #202, #255, #359 ) ;
#164 = CIRCLE ( 'NONE', #368, 3.000000000000000000 ) ;
#165 = ORIENTED_EDGE ( 'NONE', *, *, #329, .F. ) ;
#166 =( NAMED_UNIT ( * ) PLANE_ANGLE_UNIT ( ) SI_UNIT ( $, .RADIAN. ) );
#167 = PRESENTATION_STYLE_ASSIGNMENT (( #335 ) ) ;
#168 = PRESENTATION_LAYER_ASSIGNMENT (  '', '', ( #326 ) ) ;
#169 =( NAMED_UNIT ( * ) SI_UNIT ( $, .STERADIAN. ) SOLID_ANGLE_UNIT ( ) );
#170 = UNCERTAINTY_MEASURE_WITH_UNIT (LENGTH_MEASURE( 1.000000000000000082E-05 ), #212, 'distance_accuracy_value', 'NONE');
#171 = ADVANCED_FACE ( 'NONE', ( #154 ), #178, .T. ) ;
#172 = PRESENTATION_STYLE_ASSIGNMENT (( #246 ) ) ;
#173 =( NAMED_UNIT ( * ) SI_UNIT ( $, .STERADIAN. ) SOLID_ANGLE_UNIT ( ) );
#174 = DIRECTION ( 'NONE',  ( 0.000000000000000000, 0.000000000000000000, -1.000000000000000000 ) ) ;
#175 = CARTESIAN_POINT ( 'NONE',  ( 0.000000000000000000, 0.000000000000000000, 0.000000000000000000 ) ) ;
#176 = ORIENTED_EDGE ( 'NONE', *, *, #261, .F. ) ;
#177 = DIRECTION ( 'NONE',  ( -0.000000000000000000, -1.000000000000000000, -0.000000000000000000 ) ) ;
#178 = CYLINDRICAL_SURFACE ( 'NONE', #163, 3.000000000000000000 ) ;
#179 = FILL_AREA_STYLE ('',( #123 ) ) ;
#180 = VERTEX_POINT ( 'NONE', #100 ) ;
#181 = DIRECTION ( 'NONE',  ( -0.000000000000000000, -1.000000000000000000, -0.000000000000000000 ) ) ;
#182 =( LENGTH_UNIT ( ) NAMED_UNIT ( * ) SI_UNIT ( .MILLI., .METRE. ) );
#183 = ORIENTED_EDGE ( 'NONE', *, *, #302, .T. ) ;
#184 = PRODUCT_CONTEXT ( 'NONE', #92, 'mechanical' ) ;
#185 = ADVANCED_FACE ( 'NONE', ( #129 ), #226, .F. ) ;
#186 = COLOUR_RGB ( '',1.000000000000000000, 0.000000000000000000, 0.000000000000000000 ) ;
#187 = ORIENTED_EDGE ( 'NONE', *, *, #329, .T. ) ;
#188 =( NAMED_UNIT ( * ) PLANE_ANGLE_UNIT ( ) SI_UNIT ( $, .RADIAN. ) );
#189 = AXIS2_PLACEMENT_3D ( 'NONE', #37, #151, #90 ) ;
#190 = ORIENTED_EDGE ( 'NONE', *, *, #342, .T. ) ;
#191 = CIRCLE ( 'NONE', #231, 3.000000000000000000 ) ;
#192 = FACE_OUTER_BOUND ( 'NONE', #46, .T. ) ;
#193 = DIRECTION ( 'NONE',  ( 1.000000000000000000, 0.000000000000000000, -1.224646799147353207E-16 ) ) ;
#194 = CARTESIAN_POINT ( 'NONE',  ( 3.000000000000000000, 11.99999999999999645, 3.673940397442054938E-16 ) ) ;
#195 = FILL_AREA_STYLE_COLOUR ( '', #186 ) ;
#196 = SURFACE_STYLE_USAGE ( .BOTH. , #285 ) ;
#197 = CARTESIAN_POINT ( 'NONE',  ( 0.000000000000000000, 0.5000000000000000000, -2.500000000000000444 ) ) ;
#198 = SURFACE_SIDE_STYLE ('',( #34 ) ) ;
#199 =( LENGTH_UNIT ( ) NAMED_UNIT ( * ) SI_UNIT ( .MILLI., .METRE. ) );
#200 = PRESENTATION_LAYER_ASSIGNMENT (  '', '', ( #225 ) ) ;
#201 =( GEOMETRIC_REPRESENTATION_CONTEXT ( 3 ) GLOBAL_UNCERTAINTY_ASSIGNED_CONTEXT ( ( #122 ) ) GLOBAL_UNIT_ASSIGNED_CONTEXT ( ( #182, #287, #84 ) ) REPRESENTATION_CONTEXT ( 'NONE', 'WORKASPACE' ) );
#202 = CARTESIAN_POINT ( 'NONE',  ( 0.000000000000000000, 0.000000000000000000, 0.000000000000000000 ) ) ;
#203 = ORIENTED_EDGE ( 'NONE', *, *, #370, .T. ) ;
#204 = EDGE_CURVE ( 'NONE', #35, #24, #322, .T. ) ;
#205 = ADVANCED_FACE ( 'NONE', ( #207 ), #313, .T. ) ;
#206 = ORIENTED_EDGE ( 'NONE', *, *, #342, .F. ) ;
#207 = FACE_OUTER_BOUND ( 'NONE', #68, .T. ) ;
#208 = CARTESIAN_POINT ( 'NONE',  ( 3.184081677783117402E-15, 63.00000000000000000, 0.000000000000000000 ) ) ;
#209 = STYLED_ITEM ( 'NONE', ( #325 ), #227 ) ;
#210 = AXIS2_PLACEMENT_3D ( 'NONE', #247, #87, #220 ) ;
#211 = VERTEX_POINT ( 'NONE', #148 ) ;
#212 =( LENGTH_UNIT ( ) NAMED_UNIT ( * ) SI_UNIT ( .MILLI., .METRE. ) );
#213 = DIRECTION ( 'NONE',  ( -0.000000000000000000, -1.000000000000000000, -0.000000000000000000 ) ) ;
#214 = MECHANICAL_DESIGN_GEOMETRIC_PRESENTATION_REPRESENTATION (  '', ( #146 ), #201 ) ;
#215 = CARTESIAN_POINT ( 'NONE',  ( 3.673940397442059868E-16, 12.00000000000000000, 3.000000000000000000 ) ) ;
#216 = FILL_AREA_STYLE_COLOUR ( '', #218 ) ;
#217 = EDGE_LOOP ( 'NONE', ( #183, #332 ) ) ;
#218 = COLOUR_RGB ( '',1.000000000000000000, 0.000000000000000000, 0.000000000000000000 ) ;
#219 = CARTESIAN_POINT ( 'NONE',  ( 9.324138683375338132E-15, 11.99999999999999645, 0.000000000000000000 ) ) ;
#220 = DIRECTION ( 'NONE',  ( 0.000000000000000000, 0.000000000000000000, -1.000000000000000000 ) ) ;
#221 = PRESENTATION_LAYER_ASSIGNMENT (  '', '', ( #105 ) ) ;
#222 = FACE_OUTER_BOUND ( 'NONE', #217, .T. ) ;
#223 = ORIENTED_EDGE ( 'NONE', *, *, #150, .T. ) ;
#224 = CIRCLE ( 'NONE', #232, 3.000000000000000000 ) ;
#225 = STYLED_ITEM ( 'NONE', ( #121 ), #106 ) ;
#226 = PLANE ( 'NONE',  #257 ) ;
#227 = ADVANCED_FACE ( 'NONE', ( #88 ), #59, .T. ) ;
#228 = DIRECTION ( 'NONE',  ( -0.000000000000000000, -1.000000000000000000, -0.000000000000000000 ) ) ;
#229 = DIRECTION ( 'NONE',  ( 0.000000000000000000, 0.000000000000000000, 1.000000000000000000 ) ) ;
#230 = ORIENTED_EDGE ( 'NONE', *, *, #108, .F. ) ;
#231 = AXIS2_PLACEMENT_3D ( 'NONE', #33, #340, #273 ) ;
#232 = AXIS2_PLACEMENT_3D ( 'NONE', #143, #213, #336 ) ;
#233 = ORIENTED_EDGE ( 'NONE', *, *, #300, .T. ) ;
#234 = CARTESIAN_POINT ( 'NONE',  ( 0.000000000000000000, 0.000000000000000000, 0.000000000000000000 ) ) ;
#235 = ORIENTED_EDGE ( 'NONE', *, *, #204, .T. ) ;
#236 = SURFACE_STYLE_FILL_AREA ( #137 ) ;
#237 = VERTEX_POINT ( 'NONE', #38 ) ;
#238 = COLOUR_RGB ( '',0.7921568627450980005, 0.8196078431372548767, 0.9333333333333333481 ) ;
#239 = MANIFOLD_SOLID_BREP ( 'Revolve - Tool Body (Straight Shanked)', #272 ) ;
#240 = ORIENTED_EDGE ( 'NONE', *, *, #76, .T. ) ;
#241 = DIRECTION ( 'NONE',  ( -1.203932746194552959E-16, 1.000000000000000000, -0.000000000000000000 ) ) ;
#242 = VECTOR ( 'NONE', #228, 1000.000000000000000 ) ;
#243 = AXIS2_PLACEMENT_3D ( 'NONE', #208, #354, #101 ) ;
#244 = CARTESIAN_POINT ( 'NONE',  ( 0.000000000000000000, 0.5000000000000000000, 0.000000000000000000 ) ) ;
#245 = DIRECTION ( 'NONE',  ( 0.000000000000000000, -1.000000000000000000, -0.000000000000000000 ) ) ;
#246 = SURFACE_STYLE_USAGE ( .BOTH. , #309 ) ;
#247 = CARTESIAN_POINT ( 'NONE',  ( 0.000000000000000000, 0.5000000000000000000, 0.000000000000000000 ) ) ;
#248 =( GEOMETRIC_REPRESENTATION_CONTEXT ( 3 ) GLOBAL_UNCERTAINTY_ASSIGNED_CONTEXT ( ( #79 ) ) GLOBAL_UNIT_ASSIGNED_CONTEXT ( ( #267, #117, #307 ) ) REPRESENTATION_CONTEXT ( 'NONE', 'WORKASPACE' ) );
#249 = DIRECTION ( 'NONE',  ( -1.000000000000000000, 0.000000000000000000, 0.000000000000000000 ) ) ;
#250 = CARTESIAN_POINT ( 'NONE',  ( 0.000000000000000000, 0.000000000000000000, 0.000000000000000000 ) ) ;
#251 = CARTESIAN_POINT ( 'NONE',  ( 3.061616997868383634E-16, 0.5000000000000000000, 2.500000000000000444 ) ) ;
#252 = TOROIDAL_SURFACE ( 'NONE', #145, 2.500000000000000444, 0.4999999999999997780 ) ;
#253 = DIRECTION ( 'NONE',  ( 0.000000000000000000, 0.000000000000000000, -1.000000000000000000 ) ) ;
#254 = MECHANICAL_DESIGN_GEOMETRIC_PRESENTATION_REPRESENTATION (  '', ( #209 ), #70 ) ;
#255 = DIRECTION ( 'NONE',  ( -0.000000000000000000, -1.000000000000000000, -0.000000000000000000 ) ) ;
#256 = SURFACE_STYLE_USAGE ( .BOTH. , #352 ) ;
#257 = AXIS2_PLACEMENT_3D ( 'NONE', #289, #353, #131 ) ;
#258 = AXIS2_PLACEMENT_3D ( 'NONE', #324, #259, #104 ) ;
#259 = DIRECTION ( 'NONE',  ( -0.000000000000000000, -1.000000000000000000, -0.000000000000000000 ) ) ;
#260 = APPLICATION_PROTOCOL_DEFINITION ( 'draft international standard', 'automotive_design', 1998, #92 ) ;
#261 = EDGE_CURVE ( 'NONE', #360, #292, #120, .T. ) ;
#262 =( NAMED_UNIT ( * ) SI_UNIT ( $, .STERADIAN. ) SOLID_ANGLE_UNIT ( ) );
#263 = EDGE_CURVE ( 'NONE', #132, #360, #343, .T. ) ;
#264 = EDGE_LOOP ( 'NONE', ( #323, #49 ) ) ;
#265 = ORIENTED_EDGE ( 'NONE', *, *, #5, .T. ) ;
#266 = PRODUCT_DEFINITION ( 'UNKNOWN', '', #99, #306 ) ;
#267 =( LENGTH_UNIT ( ) NAMED_UNIT ( * ) SI_UNIT ( .MILLI., .METRE. ) );
#268 = CARTESIAN_POINT ( 'NONE',  ( -2.999999999999993783, 63.00000000000000000, 0.000000000000000000 ) ) ;
#269 = UNCERTAINTY_MEASURE_WITH_UNIT (LENGTH_MEASURE( 1.000000000000000082E-05 ), #118, 'distance_accuracy_value', 'NONE');
#270 = SURFACE_SIDE_STYLE ('',( #57 ) ) ;
#271 = PRESENTATION_LAYER_ASSIGNMENT (  '', '', ( #347 ) ) ;
#272 = CLOSED_SHELL ( 'NONE', ( #102, #185, #15, #85 ) ) ;
#273 = DIRECTION ( 'NONE',  ( 0.000000000000000000, 0.000000000000000000, -1.000000000000000000 ) ) ;
#274 = CARTESIAN_POINT ( 'NONE',  ( 3.367778697655221505E-16, 0.000000000000000000, 2.500000000000000444 ) ) ;
#275 = FILL_AREA_STYLE ('',( #195 ) ) ;
#276 = DIRECTION ( 'NONE',  ( 0.000000000000000000, 0.000000000000000000, -1.000000000000000000 ) ) ;
#277 = FACE_OUTER_BOUND ( 'NONE', #134, .T. ) ;
#278 = ORIENTED_EDGE ( 'NONE', *, *, #150, .F. ) ;
#279 = COLOUR_RGB ( '',1.000000000000000000, 0.000000000000000000, 0.000000000000000000 ) ;
#280 = CARTESIAN_POINT ( 'NONE',  ( 0.000000000000000000, 12.00000000000000000, -3.000000000000000000 ) ) ;
#281 = CARTESIAN_POINT ( 'NONE',  ( 0.000000000000000000, 0.000000000000000000, 0.000000000000000000 ) ) ;
#282 = CIRCLE ( 'NONE', #63, 2.999999999999991562 ) ;
#283 = SURFACE_STYLE_USAGE ( .BOTH. , #198 ) ;
#284 = DIRECTION ( 'NONE',  ( 0.000000000000000000, 0.000000000000000000, -1.000000000000000000 ) ) ;
#285 = SURFACE_SIDE_STYLE ('',( #348 ) ) ;
#286 = CIRCLE ( 'NONE', #140, 2.500000000000000444 ) ;
#287 =( NAMED_UNIT ( * ) PLANE_ANGLE_UNIT ( ) SI_UNIT ( $, .RADIAN. ) );
#288 = DIRECTION ( 'NONE',  ( 1.000000000000000000, 0.000000000000000000, 0.000000000000000000 ) ) ;
#289 = CARTESIAN_POINT ( 'NONE',  ( 9.324138683375338132E-15, 12.00000000000000000, 0.000000000000000000 ) ) ;
#290 = ORIENTED_EDGE ( 'NONE', *, *, #39, .T. ) ;
#291 = DIRECTION ( 'NONE',  ( -1.000000000000000000, 0.000000000000000000, 0.000000000000000000 ) ) ;
#292 = VERTEX_POINT ( 'NONE', #274 ) ;
#293 = DIRECTION ( 'NONE',  ( -1.203932746194552959E-16, 1.000000000000000000, -0.000000000000000000 ) ) ;
#294 = VERTEX_POINT ( 'NONE', #268 ) ;
#295 = AXIS2_PLACEMENT_3D ( 'NONE', #197, #124, #344 ) ;
#296 = MECHANICAL_DESIGN_GEOMETRIC_PRESENTATION_REPRESENTATION (  '', ( #225 ), #318 ) ;
#297 = ADVANCED_FACE ( 'NONE', ( #149 ), #369, .T. ) ;
#298 = DIRECTION ( 'NONE',  ( -1.000000000000000000, 0.000000000000000000, 0.000000000000000000 ) ) ;
#299 = ORIENTED_EDGE ( 'NONE', *, *, #204, .F. ) ;
#300 = EDGE_CURVE ( 'NONE', #24, #360, #224, .T. ) ;
#301 =( GEOMETRIC_REPRESENTATION_CONTEXT ( 3 ) GLOBAL_UNCERTAINTY_ASSIGNED_CONTEXT ( ( #346 ) ) GLOBAL_UNIT_ASSIGNED_CONTEXT ( ( #47, #188, #18 ) ) REPRESENTATION_CONTEXT ( 'NONE', 'WORKASPACE' ) );
#302 = EDGE_CURVE ( 'NONE', #294, #237, #136, .T. ) ;
#303 = MECHANICAL_DESIGN_GEOMETRIC_PRESENTATION_REPRESENTATION (  '', ( #89 ), #338 ) ;
#304 = ORIENTED_EDGE ( 'NONE', *, *, #261, .T. ) ;
#305 = CYLINDRICAL_SURFACE ( 'NONE', #86, 2.999999999999993783 ) ;
#306 = PRODUCT_DEFINITION_CONTEXT ( 'detailed design', #138, 'design' ) ;
#307 =( NAMED_UNIT ( * ) SI_UNIT ( $, .STERADIAN. ) SOLID_ANGLE_UNIT ( ) );
#308 =( NAMED_UNIT ( * ) PLANE_ANGLE_UNIT ( ) SI_UNIT ( $, .RADIAN. ) );
#309 = SURFACE_SIDE_STYLE ('',( #116 ) ) ;
#310 = PRESENTATION_STYLE_ASSIGNMENT (( #196 ) ) ;
#311 = EDGE_CURVE ( 'NONE', #25, #180, #282, .T. ) ;
#312 = CARTESIAN_POINT ( 'NONE',  ( 3.184081677783117402E-15, 63.00000000000000000, 0.000000000000000000 ) ) ;
#313 = PLANE ( 'NONE',  #10 ) ;
#314 = CARTESIAN_POINT ( 'NONE',  ( 0.000000000000000000, 0.5000000000000000000, 0.000000000000000000 ) ) ;
#315 = AXIS2_PLACEMENT_3D ( 'NONE', #314, #61, #4 ) ;
#316 = DIRECTION ( 'NONE',  ( -1.203932746194552959E-16, 1.000000000000000000, -0.000000000000000000 ) ) ;
#317 = AXIS2_PLACEMENT_3D ( 'NONE', #281, #153, #284 ) ;
#318 =( GEOMETRIC_REPRESENTATION_CONTEXT ( 3 ) GLOBAL_UNCERTAINTY_ASSIGNED_CONTEXT ( ( #56 ) ) GLOBAL_UNIT_ASSIGNED_CONTEXT ( ( #199, #9, #173 ) ) REPRESENTATION_CONTEXT ( 'NONE', 'WORKASPACE' ) );
#319 = DIRECTION ( 'NONE',  ( -1.203932746194552959E-16, 1.000000000000000000, -0.000000000000000000 ) ) ;
#320 = SURFACE_STYLE_USAGE ( .BOTH. , #66 ) ;
#321 = FILL_AREA_STYLE_COLOUR ( '', #367 ) ;
#322 = LINE ( 'NONE', #97, #242 ) ;
#323 = ORIENTED_EDGE ( 'NONE', *, *, #42, .F. ) ;
#324 = CARTESIAN_POINT ( 'NONE',  ( 0.000000000000000000, 0.000000000000000000, 0.000000000000000000 ) ) ;
#325 = PRESENTATION_STYLE_ASSIGNMENT (( #43 ) ) ;
#326 = STYLED_ITEM ( 'NONE', ( #172 ), #297 ) ;
#327 = FILL_AREA_STYLE ('',( #321 ) ) ;
#328 = ORIENTED_EDGE ( 'NONE', *, *, #5, .F. ) ;
#329 = EDGE_CURVE ( 'NONE', #211, #292, #73, .T. ) ;
#330 = MECHANICAL_DESIGN_GEOMETRIC_PRESENTATION_REPRESENTATION (  '', ( #347 ), #363 ) ;
#331 = MECHANICAL_DESIGN_GEOMETRIC_PRESENTATION_REPRESENTATION (  '', ( #50 ), #20 ) ;
#332 = ORIENTED_EDGE ( 'NONE', *, *, #357, .T. ) ;
#333 = ORIENTED_EDGE ( 'NONE', *, *, #76, .F. ) ;
#334 = DIRECTION ( 'NONE',  ( -1.203932746194552959E-16, 1.000000000000000000, -0.000000000000000000 ) ) ;
#335 = SURFACE_STYLE_USAGE ( .BOTH. , #142 ) ;
#336 = DIRECTION ( 'NONE',  ( 0.000000000000000000, 0.000000000000000000, -1.000000000000000000 ) ) ;
#337 = PRESENTATION_LAYER_ASSIGNMENT (  '', '', ( #209 ) ) ;
#338 =( GEOMETRIC_REPRESENTATION_CONTEXT ( 3 ) GLOBAL_UNCERTAINTY_ASSIGNED_CONTEXT ( ( #30 ) ) GLOBAL_UNIT_ASSIGNED_CONTEXT ( ( #82, #308, #339 ) ) REPRESENTATION_CONTEXT ( 'NONE', 'WORKASPACE' ) );
#339 =( NAMED_UNIT ( * ) SI_UNIT ( $, .STERADIAN. ) SOLID_ANGLE_UNIT ( ) );
#340 = DIRECTION ( 'NONE',  ( -0.000000000000000000, -1.000000000000000000, -0.000000000000000000 ) ) ;
#341 = FILL_AREA_STYLE ('',( #216 ) ) ;
#342 = EDGE_CURVE ( 'NONE', #132, #35, #164, .T. ) ;
#343 = LINE ( 'NONE', #147, #23 ) ;
#344 = DIRECTION ( 'NONE',  ( 0.000000000000000000, 0.000000000000000000, 1.000000000000000000 ) ) ;
#345 = ORIENTED_EDGE ( 'NONE', *, *, #302, .F. ) ;
#346 = UNCERTAINTY_MEASURE_WITH_UNIT (LENGTH_MEASURE( 1.000000000000000082E-05 ), #47, 'distance_accuracy_value', 'NONE');
#347 = STYLED_ITEM ( 'NONE', ( #355 ), #12 ) ;
#348 = SURFACE_STYLE_FILL_AREA ( #6 ) ;
#349 = AXIS2_PLACEMENT_3D ( 'NONE', #26, #241, #111 ) ;
#350 = SURFACE_STYLE_FILL_AREA ( #127 ) ;
#351 = COLOUR_RGB ( '',1.000000000000000000, 0.000000000000000000, 0.000000000000000000 ) ;
#352 = SURFACE_SIDE_STYLE ('',( #157 ) ) ;
#353 = DIRECTION ( 'NONE',  ( -1.203932746194552959E-16, 1.000000000000000000, 0.000000000000000000 ) ) ;
#354 = DIRECTION ( 'NONE',  ( -1.203932746194552959E-16, 1.000000000000000000, -0.000000000000000000 ) ) ;
#355 = PRESENTATION_STYLE_ASSIGNMENT (( #133 ) ) ;
#356 = AXIS2_PLACEMENT_3D ( 'NONE', #219, #319, #249 ) ;
#357 = EDGE_CURVE ( 'NONE', #237, #294, #51, .T. ) ;
#358 = MECHANICAL_DESIGN_GEOMETRIC_PRESENTATION_REPRESENTATION (  '', ( #105 ), #48 ) ;
#359 = DIRECTION ( 'NONE',  ( 0.000000000000000000, 0.000000000000000000, -1.000000000000000000 ) ) ;
#360 = VERTEX_POINT ( 'NONE', #69 ) ;
#361 = ORIENTED_EDGE ( 'NONE', *, *, #39, .F. ) ;
#362 = ORIENTED_EDGE ( 'NONE', *, *, #263, .T. ) ;
#363 =( GEOMETRIC_REPRESENTATION_CONTEXT ( 3 ) GLOBAL_UNCERTAINTY_ASSIGNED_CONTEXT ( ( #27 ) ) GLOBAL_UNIT_ASSIGNED_CONTEXT ( ( #45, #17, #169 ) ) REPRESENTATION_CONTEXT ( 'NONE', 'WORKASPACE' ) );
#364 = PRODUCT ( '59535', '59535', '', ( #184 ) ) ;
#365 = EDGE_LOOP ( 'NONE', ( #103, #190, #235, #230 ) ) ;
#366 = DIRECTION ( 'NONE',  ( 0.000000000000000000, 1.000000000000000000, 0.000000000000000000 ) ) ;
#367 = COLOUR_RGB ( '',1.000000000000000000, 0.000000000000000000, 0.000000000000000000 ) ;
#368 = AXIS2_PLACEMENT_3D ( 'NONE', #130, #181, #96 ) ;
#369 = PLANE ( 'NONE',  #36 ) ;
#370 = EDGE_CURVE ( 'NONE', #25, #237, #135, .T. ) ;
ENDSEC;
END-ISO-10303-21;
