ISO-10303-21;
HEADER;
FILE_DESCRIPTION (( 'STEP AP214' ),
    '1' );
FILE_NAME ('Micro_RNC-312-24.STEP',
    '2021-09-03T17:37:28',
    ( '' ),
    ( '' ),
    'SwSTEP 2.0',
    'SolidWorks 2020',
    '' );
FILE_SCHEMA (( 'AUTOMOTIVE_DESIGN' ));
ENDSEC;

DATA;
#1 = EDGE_CURVE ( 'NONE', #19, #149, #7, .T. ) ;
#2 = PRESENTATION_STYLE_ASSIGNMENT (( #229 ) ) ;
#3 = CARTESIAN_POINT ( 'NONE',  ( 0.003999999999999999216, 0.0000000000000000000, 4.000000000000000000 ) ) ;
#4 = ADVANCED_FACE ( 'NONE', ( #69 ), #142, .T. ) ;
#5 = CARTESIAN_POINT ( 'NONE',  ( 0.0000000000000000000, 0.0000000000000000000, 0.0000000000000000000 ) ) ;
#6 = DIRECTION ( 'NONE',  ( 0.0000000000000000000, 0.0000000000000000000, -1.000000000000000000 ) ) ;
#7 = CIRCLE ( 'NONE', #154, 0.003999999999999999216 ) ;
#8 = DIRECTION ( 'NONE',  ( 0.0000000000000000000, 0.0000000000000000000, -1.000000000000000000 ) ) ;
#9 = FILL_AREA_STYLE_COLOUR ( '', #232 ) ;
#10 =( LENGTH_UNIT ( ) NAMED_UNIT ( * ) SI_UNIT ( $, .METRE. ) );
#11 =( LENGTH_UNIT ( ) NAMED_UNIT ( * ) SI_UNIT ( $, .METRE. ) );
#12 = EDGE_CURVE ( 'NONE', #45, #20, #198, .T. ) ;
#13 = ORIENTED_EDGE ( 'NONE', *, *, #211, .T. ) ;
#14 = ORIENTED_EDGE ( 'NONE', *, *, #136, .F. ) ;
#15 = EDGE_CURVE ( 'NONE', #170, #227, #195, .T. ) ;
#16 = PRODUCT_DEFINITION_FORMATION_WITH_SPECIFIED_SOURCE ( 'ANY', '', #27, .NOT_KNOWN. ) ;
#17 = VERTEX_POINT ( 'NONE', #215 ) ;
#18 = ADVANCED_FACE ( 'NONE', ( #68 ), #91, .F. ) ;
#19 = VERTEX_POINT ( 'NONE', #85 ) ;
#20 = VERTEX_POINT ( 'NONE', #84 ) ;
#21 = DIRECTION ( 'NONE',  ( -1.000000000000000000, 0.0000000000000000000, 0.0000000000000000000 ) ) ;
#22 = AXIS2_PLACEMENT_3D ( 'NONE', #26, #55, #162 ) ;
#23 = DIRECTION ( 'NONE',  ( 1.000000000000000000, 0.0000000000000000000, -0.0000000000000000000 ) ) ;
#24 = LENGTH_MEASURE_WITH_UNIT ( LENGTH_MEASURE( 0.02539999999999999897 ), #194 );
#25 = CARTESIAN_POINT ( 'NONE',  ( 0.0000000000000000000, 0.0000000000000000000, 0.0000000000000000000 ) ) ;
#26 = CARTESIAN_POINT ( 'NONE',  ( 0.0000000000000000000, 0.0000000000000000000, 4.000000000000000000 ) ) ;
#27 = PRODUCT ( 'Micro_RNC-312-24', 'Micro_RNC-312-24', '', ( #86 ) ) ;
#28 = EDGE_CURVE ( 'NONE', #149, #19, #186, .T. ) ;
#29 = CARTESIAN_POINT ( 'NONE',  ( 0.0000000000000000000, 0.0000000000000000000, 4.000000000000000000 ) ) ;
#30 = DIRECTION ( 'NONE',  ( 1.000000000000000000, 0.0000000000000000000, 0.0000000000000000000 ) ) ;
#31 = EDGE_CURVE ( 'NONE', #17, #228, #231, .T. ) ;
#32 = DIRECTION ( 'NONE',  ( 0.0000000000000000000, 0.0000000000000000000, -1.000000000000000000 ) ) ;
#33 = CONICAL_SURFACE ( 'NONE', #56, 0.003999999999999999216, 0.7853981633974503884 ) ;
#34 = CONICAL_SURFACE ( 'NONE', #204, 0.003999999999999999216, 0.7853981633974503884 ) ;
#35 = SURFACE_SIDE_STYLE ('',( #190 ) ) ;
#36 = FACE_OUTER_BOUND ( 'NONE', #172, .T. ) ;
#37 = EDGE_CURVE ( 'NONE', #227, #170, #52, .T. ) ;
#38 = PRESENTATION_LAYER_ASSIGNMENT (  '', '', ( #217 ) ) ;
#39 = EDGE_LOOP ( 'NONE', ( #246, #123 ) ) ;
#40 = ORIENTED_EDGE ( 'NONE', *, *, #221, .T. ) ;
#41 = ORIENTED_EDGE ( 'NONE', *, *, #28, .F. ) ;
#42 = COLOUR_RGB ( '',0.7921568627450980005, 0.8196078431372548767, 0.9333333333333333481 ) ;
#43 = ORIENTED_EDGE ( 'NONE', *, *, #221, .F. ) ;
#44 = STYLED_ITEM ( 'NONE', ( #241 ), #224 ) ;
#45 = VERTEX_POINT ( 'NONE', #46 ) ;
#46 = CARTESIAN_POINT ( 'NONE',  ( 0.003999999999999999216, 0.0000000000000000000, 4.000000000000000000 ) ) ;
#47 = CARTESIAN_POINT ( 'NONE',  ( 0.0000000000000000000, 0.0000000000000000000, 0.1522499999999993858 ) ) ;
#48 = AXIS2_PLACEMENT_3D ( 'NONE', #146, #225, #147 ) ;
#49 = CARTESIAN_POINT ( 'NONE',  ( 0.0000000000000000000, 0.0000000000000000000, 4.000000000000000000 ) ) ;
#50 = DIMENSIONAL_EXPONENTS ( 1.000000000000000000, 0.0000000000000000000, 0.0000000000000000000, 0.0000000000000000000, 0.0000000000000000000, 0.0000000000000000000, 0.0000000000000000000 ) ;
#51 = DIRECTION ( 'NONE',  ( -0.0000000000000000000, -0.0000000000000000000, -1.000000000000000000 ) ) ;
#52 = CIRCLE ( 'NONE', #242, 0.1562500000000000000 ) ;
#53 = CONICAL_SURFACE ( 'NONE', #48, 0.003999999999999999216, 0.7853981633974503884 ) ;
#54 = FACE_OUTER_BOUND ( 'NONE', #193, .T. ) ;
#55 = DIRECTION ( 'NONE',  ( 0.0000000000000000000, 0.0000000000000000000, 1.000000000000000000 ) ) ;
#56 = AXIS2_PLACEMENT_3D ( 'NONE', #202, #8, #164 ) ;
#57 = CARTESIAN_POINT ( 'NONE',  ( -0.1562500000000000000, 0.0000000000000000000, 0.1522499999999993858 ) ) ;
#58 = PRODUCT_DEFINITION_SHAPE ( 'NONE', 'NONE',  #151 ) ;
#59 = EDGE_LOOP ( 'NONE', ( #81, #41, #82, #171 ) ) ;
#60 = ORIENTED_EDGE ( 'NONE', *, *, #211, .F. ) ;
#61 = ORIENTED_EDGE ( 'NONE', *, *, #37, .T. ) ;
#62 = DIRECTION ( 'NONE',  ( -0.0000000000000000000, -0.0000000000000000000, -1.000000000000000000 ) ) ;
#63 = DIRECTION ( 'NONE',  ( 0.7071067811865490160, 0.0000000000000000000, -0.7071067811865460184 ) ) ;
#64 = CARTESIAN_POINT ( 'NONE',  ( 0.0000000000000000000, 0.0000000000000000000, 0.1522499999999993858 ) ) ;
#65 = CLOSED_SHELL ( 'NONE', ( #180, #66, #87, #4, #244, #18, #220, #168 ) ) ;
#66 = ADVANCED_FACE ( 'NONE', ( #106 ), #143, .T. ) ;
#67 = APPLICATION_CONTEXT ( 'automotive_design' ) ;
#68 = FACE_OUTER_BOUND ( 'NONE', #39, .T. ) ;
#69 = FACE_OUTER_BOUND ( 'NONE', #141, .T. ) ;
#70 = DIRECTION ( 'NONE',  ( -0.0000000000000000000, -0.0000000000000000000, -1.000000000000000000 ) ) ;
#71 =( GEOMETRIC_REPRESENTATION_CONTEXT ( 3 ) GLOBAL_UNCERTAINTY_ASSIGNED_CONTEXT ( ( #131 ) ) GLOBAL_UNIT_ASSIGNED_CONTEXT ( ( #128, #145, #235 ) ) REPRESENTATION_CONTEXT ( 'NONE', 'WORKASPACE' ) );
#72 = AXIS2_PLACEMENT_3D ( 'NONE', #187, #6, #75 ) ;
#73 = LINE ( 'NONE', #239, #105 ) ;
#74 = DIRECTION ( 'NONE',  ( 0.0000000000000000000, 0.0000000000000000000, -1.000000000000000000 ) ) ;
#75 = DIRECTION ( 'NONE',  ( -1.000000000000000000, 0.0000000000000000000, 0.0000000000000000000 ) ) ;
#76 =( NAMED_UNIT ( * ) PLANE_ANGLE_UNIT ( ) SI_UNIT ( $, .RADIAN. ) );
#77 = MECHANICAL_DESIGN_GEOMETRIC_PRESENTATION_REPRESENTATION (  '', ( #217 ), #71 ) ;
#78 = EDGE_LOOP ( 'NONE', ( #120, #40, #192, #140 ) ) ;
#79 = AXIS2_PLACEMENT_3D ( 'NONE', #156, #62, #175 ) ;
#80 = VECTOR ( 'NONE', #95, 39.37007874015748143 ) ;
#81 = ORIENTED_EDGE ( 'NONE', *, *, #102, .F. ) ;
#82 = ORIENTED_EDGE ( 'NONE', *, *, #174, .T. ) ;
#83 = SURFACE_STYLE_FILL_AREA ( #177 ) ;
#84 = CARTESIAN_POINT ( 'NONE',  ( 0.1562500000000000000, 1.913510623667739463E-17, 3.847750000000000448 ) ) ;
#85 = CARTESIAN_POINT ( 'NONE',  ( -0.003999999999999999216, 9.812482478168165875E-18, 0.0000000000000000000 ) ) ;
#86 = PRODUCT_CONTEXT ( 'NONE', #67, 'mechanical' ) ;
#87 = ADVANCED_FACE ( 'NONE', ( #233 ), #200, .T. ) ;
#88 = DIRECTION ( 'NONE',  ( 0.0000000000000000000, 0.0000000000000000000, 1.000000000000000000 ) ) ;
#89 = AXIS2_PLACEMENT_3D ( 'NONE', #47, #138, #21 ) ;
#90 = MECHANICAL_DESIGN_GEOMETRIC_PRESENTATION_REPRESENTATION (  '', ( #44 ), #139 ) ;
#91 = PLANE ( 'NONE',  #101 ) ;
#92 = APPLICATION_PROTOCOL_DEFINITION ( 'draft international standard', 'automotive_design', 1998, #67 ) ;
#93 =( GEOMETRIC_REPRESENTATION_CONTEXT ( 3 ) GLOBAL_UNCERTAINTY_ASSIGNED_CONTEXT ( ( #109 ) ) GLOBAL_UNIT_ASSIGNED_CONTEXT ( ( #205, #116, #240 ) ) REPRESENTATION_CONTEXT ( 'NONE', 'WORKASPACE' ) );
#94 = CARTESIAN_POINT ( 'NONE',  ( 0.003999999999999999216, 0.0000000000000000000, 0.0000000000000000000 ) ) ;
#95 = DIRECTION ( 'NONE',  ( -0.0000000000000000000, -0.0000000000000000000, -1.000000000000000000 ) ) ;
#96 = AXIS2_PLACEMENT_3D ( 'NONE', #179, #249, #157 ) ;
#97 =( NAMED_UNIT ( * ) SI_UNIT ( $, .STERADIAN. ) SOLID_ANGLE_UNIT ( ) );
#98 = ORIENTED_EDGE ( 'NONE', *, *, #31, .F. ) ;
#99 = EDGE_LOOP ( 'NONE', ( #209, #121, #61, #173 ) ) ;
#100 = CIRCLE ( 'NONE', #72, 0.1562500000000000000 ) ;
#101 = AXIS2_PLACEMENT_3D ( 'NONE', #182, #88, #23 ) ;
#102 = EDGE_CURVE ( 'NONE', #19, #227, #137, .T. ) ;
#103 = DIMENSIONAL_EXPONENTS ( 1.000000000000000000, 0.0000000000000000000, 0.0000000000000000000, 0.0000000000000000000, 0.0000000000000000000, 0.0000000000000000000, 0.0000000000000000000 ) ;
#104 = CARTESIAN_POINT ( 'NONE',  ( -0.003999999999999999216, -4.898587196589411612E-19, 4.000000000000000000 ) ) ;
#105 = VECTOR ( 'NONE', #70, 39.37007874015748143 ) ;
#106 = FACE_OUTER_BOUND ( 'NONE', #99, .T. ) ;
#107 = DIRECTION ( 'NONE',  ( -0.0000000000000000000, -0.0000000000000000000, -1.000000000000000000 ) ) ;
#108 = APPLICATION_PROTOCOL_DEFINITION ( 'draft international standard', 'automotive_design', 1998, #245 ) ;
#109 = UNCERTAINTY_MEASURE_WITH_UNIT (LENGTH_MEASURE( 1.000000000000000082E-05 ), #205, 'distance_accuracy_value', 'NONE');
#110 = DIRECTION ( 'NONE',  ( -1.000000000000000000, 0.0000000000000000000, 0.0000000000000000000 ) ) ;
#111 = DIRECTION ( 'NONE',  ( -0.0000000000000000000, -0.0000000000000000000, -1.000000000000000000 ) ) ;
#112 = UNCERTAINTY_MEASURE_WITH_UNIT (LENGTH_MEASURE( 1.000000000000000082E-05 ), #191, 'distance_accuracy_value', 'NONE');
#113 = CARTESIAN_POINT ( 'NONE',  ( 0.0000000000000000000, 0.0000000000000000000, 0.0000000000000000000 ) ) ;
#114 = DIRECTION ( 'NONE',  ( -1.000000000000000000, 0.0000000000000000000, 0.0000000000000000000 ) ) ;
#115 = EDGE_CURVE ( 'NONE', #17, #45, #122, .T. ) ;
#116 =( NAMED_UNIT ( * ) PLANE_ANGLE_UNIT ( ) SI_UNIT ( $, .RADIAN. ) );
#117 = SURFACE_STYLE_USAGE ( .BOTH. , #35 ) ;
#118 = CARTESIAN_POINT ( 'NONE',  ( 0.1562500000000000000, 1.913510623667739463E-17, 4.000000000000000000 ) ) ;
#119 = ORIENTED_EDGE ( 'NONE', *, *, #115, .T. ) ;
#120 = ORIENTED_EDGE ( 'NONE', *, *, #136, .T. ) ;
#121 = ORIENTED_EDGE ( 'NONE', *, *, #102, .T. ) ;
#122 = CIRCLE ( 'NONE', #181, 0.003999999999999999216 ) ;
#123 = ORIENTED_EDGE ( 'NONE', *, *, #1, .T. ) ;
#124 = DIMENSIONAL_EXPONENTS ( 1.000000000000000000, 0.0000000000000000000, 0.0000000000000000000, 0.0000000000000000000, 0.0000000000000000000, 0.0000000000000000000, 0.0000000000000000000 ) ;
#125 = CARTESIAN_POINT ( 'NONE',  ( 0.0000000000000000000, 0.0000000000000000000, 3.847750000000000448 ) ) ;
#126 = DIRECTION ( 'NONE',  ( 0.0000000000000000000, 0.0000000000000000000, 1.000000000000000000 ) ) ;
#127 = VECTOR ( 'NONE', #63, 39.37007874015748143 ) ;
#128 =( CONVERSION_BASED_UNIT ( 'INCH', #24 ) LENGTH_UNIT ( ) NAMED_UNIT ( #103 ) );
#129 = MANIFOLD_SOLID_BREP ( 'Mirror1', #65 ) ;
#130 = CARTESIAN_POINT ( 'NONE',  ( 0.003999999999999999216, 0.0000000000000000000, 0.0000000000000000000 ) ) ;
#131 = UNCERTAINTY_MEASURE_WITH_UNIT (LENGTH_MEASURE( 1.000000000000000082E-05 ), #128, 'distance_accuracy_value', 'NONE');
#132 = LENGTH_MEASURE_WITH_UNIT ( LENGTH_MEASURE( 0.02539999999999999897 ), #11 );
#133 = EDGE_CURVE ( 'NONE', #228, #227, #73, .T. ) ;
#134 = AXIS2_PLACEMENT_3D ( 'NONE', #125, #74, #183 ) ;
#135 = ORIENTED_EDGE ( 'NONE', *, *, #31, .T. ) ;
#136 = EDGE_CURVE ( 'NONE', #228, #20, #237, .T. ) ;
#137 = LINE ( 'NONE', #214, #222 ) ;
#138 = DIRECTION ( 'NONE',  ( -0.0000000000000000000, -0.0000000000000000000, -1.000000000000000000 ) ) ;
#139 =( GEOMETRIC_REPRESENTATION_CONTEXT ( 3 ) GLOBAL_UNCERTAINTY_ASSIGNED_CONTEXT ( ( #112 ) ) GLOBAL_UNIT_ASSIGNED_CONTEXT ( ( #191, #76, #97 ) ) REPRESENTATION_CONTEXT ( 'NONE', 'WORKASPACE' ) );
#140 = ORIENTED_EDGE ( 'NONE', *, *, #133, .F. ) ;
#141 = EDGE_LOOP ( 'NONE', ( #43, #13, #210, #169 ) ) ;
#142 = CYLINDRICAL_SURFACE ( 'NONE', #96, 0.1562500000000000000 ) ;
#143 = CONICAL_SURFACE ( 'NONE', #148, 0.003999999999999999216, 0.7853981633974503884 ) ;
#144 = CARTESIAN_POINT ( 'NONE',  ( 0.1562500000000000000, 1.913510623667739463E-17, 0.1522499999999993858 ) ) ;
#145 =( NAMED_UNIT ( * ) PLANE_ANGLE_UNIT ( ) SI_UNIT ( $, .RADIAN. ) );
#146 = CARTESIAN_POINT ( 'NONE',  ( 0.0000000000000000000, 0.0000000000000000000, 4.000000000000000000 ) ) ;
#147 = DIRECTION ( 'NONE',  ( 1.000000000000000000, 0.0000000000000000000, 0.0000000000000000000 ) ) ;
#148 = AXIS2_PLACEMENT_3D ( 'NONE', #176, #126, #216 ) ;
#149 = VERTEX_POINT ( 'NONE', #94 ) ;
#150 = ORIENTED_EDGE ( 'NONE', *, *, #115, .F. ) ;
#151 = PRODUCT_DEFINITION ( 'UNKNOWN', '', #16, #153 ) ;
#152 = ORIENTED_EDGE ( 'NONE', *, *, #12, .F. ) ;
#153 = PRODUCT_DEFINITION_CONTEXT ( 'detailed design', #245, 'design' ) ;
#154 = AXIS2_PLACEMENT_3D ( 'NONE', #5, #111, #110 ) ;
#155 = SURFACE_SIDE_STYLE ('',( #83 ) ) ;
#156 = CARTESIAN_POINT ( 'NONE',  ( 0.0000000000000000000, 0.0000000000000000000, 4.000000000000000000 ) ) ;
#157 = DIRECTION ( 'NONE',  ( -1.000000000000000000, 0.0000000000000000000, 0.0000000000000000000 ) ) ;
#158 = SHAPE_DEFINITION_REPRESENTATION ( #58, #224 ) ;
#159 = AXIS2_PLACEMENT_3D ( 'NONE', #25, #51, #161 ) ;
#160 = DIRECTION ( 'NONE',  ( -1.000000000000000000, 0.0000000000000000000, 0.0000000000000000000 ) ) ;
#161 = DIRECTION ( 'NONE',  ( -1.000000000000000000, 0.0000000000000000000, 0.0000000000000000000 ) ) ;
#162 = DIRECTION ( 'NONE',  ( 1.000000000000000000, 0.0000000000000000000, -0.0000000000000000000 ) ) ;
#163 = PLANE ( 'NONE',  #22 ) ;
#164 = DIRECTION ( 'NONE',  ( 1.000000000000000000, 0.0000000000000000000, 0.0000000000000000000 ) ) ;
#165 = FILL_AREA_STYLE ('',( #9 ) ) ;
#166 = LENGTH_MEASURE_WITH_UNIT ( LENGTH_MEASURE( 0.02539999999999999897 ), #10 );
#167 = DIRECTION ( 'NONE',  ( 0.0000000000000000000, 0.0000000000000000000, 1.000000000000000000 ) ) ;
#168 = ADVANCED_FACE ( 'NONE', ( #184 ), #163, .T. ) ;
#169 = ORIENTED_EDGE ( 'NONE', *, *, #15, .F. ) ;
#170 = VERTEX_POINT ( 'NONE', #144 ) ;
#171 = ORIENTED_EDGE ( 'NONE', *, *, #15, .T. ) ;
#172 = EDGE_LOOP ( 'NONE', ( #98, #119, #247, #14 ) ) ;
#173 = ORIENTED_EDGE ( 'NONE', *, *, #174, .F. ) ;
#174 = EDGE_CURVE ( 'NONE', #149, #170, #238, .T. ) ;
#175 = DIRECTION ( 'NONE',  ( -1.000000000000000000, 0.0000000000000000000, 0.0000000000000000000 ) ) ;
#176 = CARTESIAN_POINT ( 'NONE',  ( 0.0000000000000000000, 0.0000000000000000000, 0.0000000000000000000 ) ) ;
#177 = FILL_AREA_STYLE ('',( #199 ) ) ;
#178 = PRODUCT_RELATED_PRODUCT_CATEGORY ( 'part', '', ( #27 ) ) ;
#179 = CARTESIAN_POINT ( 'NONE',  ( 0.0000000000000000000, 0.0000000000000000000, 4.000000000000000000 ) ) ;
#180 = ADVANCED_FACE ( 'NONE', ( #54 ), #33, .T. ) ;
#181 = AXIS2_PLACEMENT_3D ( 'NONE', #49, #212, #248 ) ;
#182 = CARTESIAN_POINT ( 'NONE',  ( 0.0000000000000000000, 0.0000000000000000000, 0.0000000000000000000 ) ) ;
#183 = DIRECTION ( 'NONE',  ( -1.000000000000000000, 0.0000000000000000000, 0.0000000000000000000 ) ) ;
#184 = FACE_OUTER_BOUND ( 'NONE', #226, .T. ) ;
#185 = DIRECTION ( 'NONE',  ( 0.0000000000000000000, 0.0000000000000000000, 1.000000000000000000 ) ) ;
#186 = CIRCLE ( 'NONE', #159, 0.003999999999999999216 ) ;
#187 = CARTESIAN_POINT ( 'NONE',  ( 0.0000000000000000000, 0.0000000000000000000, 3.847750000000000448 ) ) ;
#188 = VECTOR ( 'NONE', #219, 39.37007874015748143 ) ;
#189 = CARTESIAN_POINT ( 'NONE',  ( 0.0000000000000000000, 0.0000000000000000000, 0.0000000000000000000 ) ) ;
#190 = SURFACE_STYLE_FILL_AREA ( #165 ) ;
#191 =( CONVERSION_BASED_UNIT ( 'INCH', #166 ) LENGTH_UNIT ( ) NAMED_UNIT ( #124 ) );
#192 = ORIENTED_EDGE ( 'NONE', *, *, #37, .F. ) ;
#193 = EDGE_LOOP ( 'NONE', ( #207, #135, #60, #152 ) ) ;
#194 =( LENGTH_UNIT ( ) NAMED_UNIT ( * ) SI_UNIT ( $, .METRE. ) );
#195 = CIRCLE ( 'NONE', #89, 0.1562500000000000000 ) ;
#196 = CIRCLE ( 'NONE', #213, 0.003999999999999999216 ) ;
#197 = ORIENTED_EDGE ( 'NONE', *, *, #208, .F. ) ;
#198 = LINE ( 'NONE', #3, #127 ) ;
#199 = FILL_AREA_STYLE_COLOUR ( '', #42 ) ;
#200 = CYLINDRICAL_SURFACE ( 'NONE', #79, 0.1562500000000000000 ) ;
#201 = CARTESIAN_POINT ( 'NONE',  ( -0.1562500000000000000, 0.0000000000000000000, 3.847750000000000448 ) ) ;
#202 = CARTESIAN_POINT ( 'NONE',  ( 0.0000000000000000000, 0.0000000000000000000, 4.000000000000000000 ) ) ;
#203 = DIRECTION ( 'NONE',  ( 1.000000000000000000, 0.0000000000000000000, 0.0000000000000000000 ) ) ;
#204 = AXIS2_PLACEMENT_3D ( 'NONE', #189, #167, #30 ) ;
#205 =( CONVERSION_BASED_UNIT ( 'INCH', #132 ) LENGTH_UNIT ( ) NAMED_UNIT ( #50 ) );
#206 = VECTOR ( 'NONE', #234, 39.37007874015748143 ) ;
#207 = ORIENTED_EDGE ( 'NONE', *, *, #208, .T. ) ;
#208 = EDGE_CURVE ( 'NONE', #45, #17, #196, .T. ) ;
#209 = ORIENTED_EDGE ( 'NONE', *, *, #1, .F. ) ;
#210 = ORIENTED_EDGE ( 'NONE', *, *, #133, .T. ) ;
#211 = EDGE_CURVE ( 'NONE', #20, #228, #100, .T. ) ;
#212 = DIRECTION ( 'NONE',  ( 0.0000000000000000000, 0.0000000000000000000, -1.000000000000000000 ) ) ;
#213 = AXIS2_PLACEMENT_3D ( 'NONE', #29, #32, #114 ) ;
#214 = CARTESIAN_POINT ( 'NONE',  ( -0.003999999999999999216, 4.898587196589411612E-19, 0.0000000000000000000 ) ) ;
#215 = CARTESIAN_POINT ( 'NONE',  ( -0.003999999999999999216, -9.812482478168165875E-18, 4.000000000000000000 ) ) ;
#216 = DIRECTION ( 'NONE',  ( 1.000000000000000000, 0.0000000000000000000, 0.0000000000000000000 ) ) ;
#217 = STYLED_ITEM ( 'NONE', ( #2 ), #129 ) ;
#218 = PRESENTATION_LAYER_ASSIGNMENT (  '', '', ( #44 ) ) ;
#219 = DIRECTION ( 'NONE',  ( 0.7071067811865490160, 0.0000000000000000000, 0.7071067811865460184 ) ) ;
#220 = ADVANCED_FACE ( 'NONE', ( #36 ), #53, .T. ) ;
#221 = EDGE_CURVE ( 'NONE', #20, #170, #243, .T. ) ;
#222 = VECTOR ( 'NONE', #230, 39.37007874015748143 ) ;
#223 = AXIS2_PLACEMENT_3D ( 'NONE', #113, #185, #203 ) ;
#224 = ADVANCED_BREP_SHAPE_REPRESENTATION ( 'Micro_RNC-312-24', ( #129, #223 ), #93 ) ;
#225 = DIRECTION ( 'NONE',  ( 0.0000000000000000000, 0.0000000000000000000, -1.000000000000000000 ) ) ;
#226 = EDGE_LOOP ( 'NONE', ( #197, #150 ) ) ;
#227 = VERTEX_POINT ( 'NONE', #57 ) ;
#228 = VERTEX_POINT ( 'NONE', #201 ) ;
#229 = SURFACE_STYLE_USAGE ( .BOTH. , #155 ) ;
#230 = DIRECTION ( 'NONE',  ( -0.7071067811865490160, 8.659560562354951347E-17, 0.7071067811865460184 ) ) ;
#231 = LINE ( 'NONE', #104, #206 ) ;
#232 = COLOUR_RGB ( '',0.7921568627450980005, 0.8196078431372548767, 0.9333333333333333481 ) ;
#233 = FACE_OUTER_BOUND ( 'NONE', #78, .T. ) ;
#234 = DIRECTION ( 'NONE',  ( -0.7071067811865490160, -8.659560562354951347E-17, -0.7071067811865460184 ) ) ;
#235 =( NAMED_UNIT ( * ) SI_UNIT ( $, .STERADIAN. ) SOLID_ANGLE_UNIT ( ) );
#236 = FACE_OUTER_BOUND ( 'NONE', #59, .T. ) ;
#237 = CIRCLE ( 'NONE', #134, 0.1562500000000000000 ) ;
#238 = LINE ( 'NONE', #130, #188 ) ;
#239 = CARTESIAN_POINT ( 'NONE',  ( -0.1562500000000000000, 0.0000000000000000000, 4.000000000000000000 ) ) ;
#240 =( NAMED_UNIT ( * ) SI_UNIT ( $, .STERADIAN. ) SOLID_ANGLE_UNIT ( ) );
#241 = PRESENTATION_STYLE_ASSIGNMENT (( #117 ) ) ;
#242 = AXIS2_PLACEMENT_3D ( 'NONE', #64, #107, #160 ) ;
#243 = LINE ( 'NONE', #118, #80 ) ;
#244 = ADVANCED_FACE ( 'NONE', ( #236 ), #34, .T. ) ;
#245 = APPLICATION_CONTEXT ( 'automotive_design' ) ;
#246 = ORIENTED_EDGE ( 'NONE', *, *, #28, .T. ) ;
#247 = ORIENTED_EDGE ( 'NONE', *, *, #12, .T. ) ;
#248 = DIRECTION ( 'NONE',  ( -1.000000000000000000, 0.0000000000000000000, 0.0000000000000000000 ) ) ;
#249 = DIRECTION ( 'NONE',  ( -0.0000000000000000000, -0.0000000000000000000, -1.000000000000000000 ) ) ;
ENDSEC;
END-ISO-10303-21;
