ISO-10303-21;
HEADER;
FILE_DESCRIPTION (( 'STEP AP214' ),
    '1' );
FILE_NAME ('Micro_RSC-250-145.STEP',
    '2021-09-03T17:47:51',
    ( '' ),
    ( '' ),
    'SwSTEP 2.0',
    'SolidWorks 2020',
    '' );
FILE_SCHEMA (( 'AUTOMOTIVE_DESIGN' ));
ENDSEC;

DATA;
#1 = ORIENTED_EDGE ( 'NONE', *, *, #189, .T. ) ;
#2 = EDGE_CURVE ( 'NONE', #145, #206, #232, .T. ) ;
#3 = CARTESIAN_POINT ( 'NONE',  ( 0.0000000000000000000, 0.0000000000000000000, 0.0000000000000000000 ) ) ;
#4 = DIRECTION ( 'NONE',  ( -1.000000000000000000, 0.0000000000000000000, 0.0000000000000000000 ) ) ;
#5 = CARTESIAN_POINT ( 'NONE',  ( 0.0000000000000000000, 0.0000000000000000000, 2.500000000000000000 ) ) ;
#6 = CIRCLE ( 'NONE', #243, 0.1100000000000001948 ) ;
#7 = EDGE_CURVE ( 'NONE', #247, #107, #116, .T. ) ;
#8 = FACE_OUTER_BOUND ( 'NONE', #182, .T. ) ;
#9 = LENGTH_MEASURE_WITH_UNIT ( LENGTH_MEASURE( 0.02539999999999999897 ), #64 );
#10 = DIRECTION ( 'NONE',  ( 1.000000000000000000, 0.0000000000000000000, 0.0000000000000000000 ) ) ;
#11 = SURFACE_STYLE_USAGE ( .BOTH. , #72 ) ;
#12 = AXIS2_PLACEMENT_3D ( 'NONE', #74, #209, #96 ) ;
#13 = EDGE_CURVE ( 'NONE', #208, #33, #6, .T. ) ;
#14 = ORIENTED_EDGE ( 'NONE', *, *, #112, .F. ) ;
#15 = ORIENTED_EDGE ( 'NONE', *, *, #13, .F. ) ;
#16 = DIRECTION ( 'NONE',  ( -0.0000000000000000000, -0.0000000000000000000, -1.000000000000000000 ) ) ;
#17 = DIMENSIONAL_EXPONENTS ( 1.000000000000000000, 0.0000000000000000000, 0.0000000000000000000, 0.0000000000000000000, 0.0000000000000000000, 0.0000000000000000000, 0.0000000000000000000 ) ;
#18 = CARTESIAN_POINT ( 'NONE',  ( 0.1250000000000000000, 1.530808498934191509E-17, 2.500000000000000000 ) ) ;
#19 = UNCERTAINTY_MEASURE_WITH_UNIT (LENGTH_MEASURE( 1.000000000000000082E-05 ), #193, 'distance_accuracy_value', 'NONE');
#20 = COLOUR_RGB ( '',0.7921568627450980005, 0.8196078431372548767, 0.9333333333333333481 ) ;
#21 = CARTESIAN_POINT ( 'NONE',  ( 0.0000000000000000000, 0.0000000000000000000, 2.500000000000000000 ) ) ;
#22 = DIRECTION ( 'NONE',  ( -0.5000000000000007772, 6.123233995736775897E-17, 0.8660254037844382635 ) ) ;
#23 = DIRECTION ( 'NONE',  ( -1.000000000000000000, 0.0000000000000000000, 0.0000000000000000000 ) ) ;
#24 = EDGE_CURVE ( 'NONE', #107, #115, #117, .T. ) ;
#25 = DIRECTION ( 'NONE',  ( 0.0000000000000000000, 0.0000000000000000000, -1.000000000000000000 ) ) ;
#26 = AXIS2_PLACEMENT_3D ( 'NONE', #42, #114, #172 ) ;
#27 = LINE ( 'NONE', #104, #41 ) ;
#28 = PLANE ( 'NONE',  #215 ) ;
#29 = CYLINDRICAL_SURFACE ( 'NONE', #196, 0.1250000000000000000 ) ;
#30 = MECHANICAL_DESIGN_GEOMETRIC_PRESENTATION_REPRESENTATION (  '', ( #248 ), #165 ) ;
#31 = ORIENTED_EDGE ( 'NONE', *, *, #179, .F. ) ;
#32 =( LENGTH_UNIT ( ) NAMED_UNIT ( * ) SI_UNIT ( $, .METRE. ) );
#33 = VERTEX_POINT ( 'NONE', #98 ) ;
#34 = SURFACE_STYLE_FILL_AREA ( #156 ) ;
#35 = ORIENTED_EDGE ( 'NONE', *, *, #88, .F. ) ;
#36 =( NAMED_UNIT ( * ) SI_UNIT ( $, .STERADIAN. ) SOLID_ANGLE_UNIT ( ) );
#37 = EDGE_CURVE ( 'NONE', #206, #115, #39, .T. ) ;
#38 = VECTOR ( 'NONE', #16, 39.37007874015748143 ) ;
#39 = LINE ( 'NONE', #79, #239 ) ;
#40 =( NAMED_UNIT ( * ) PLANE_ANGLE_UNIT ( ) SI_UNIT ( $, .RADIAN. ) );
#41 = VECTOR ( 'NONE', #242, 39.37007874015748143 ) ;
#42 = CARTESIAN_POINT ( 'NONE',  ( 0.0000000000000000000, 0.0000000000000000000, 2.500000000000000000 ) ) ;
#43 = CARTESIAN_POINT ( 'NONE',  ( 0.0000000000000000000, 0.0000000000000000000, 2.500000000000000000 ) ) ;
#44 = DIRECTION ( 'NONE',  ( 0.0000000000000000000, 0.0000000000000000000, 1.000000000000000000 ) ) ;
#45 = CONICAL_SURFACE ( 'NONE', #211, 0.1100000000000001948, 0.7853981633974517207 ) ;
#46 = CARTESIAN_POINT ( 'NONE',  ( 0.02199999999999999872, 0.0000000000000000000, 0.0000000000000000000 ) ) ;
#47 = CARTESIAN_POINT ( 'NONE',  ( 0.02199999999999999872, 0.0000000000000000000, 0.0000000000000000000 ) ) ;
#48 =( GEOMETRIC_REPRESENTATION_CONTEXT ( 3 ) GLOBAL_UNCERTAINTY_ASSIGNED_CONTEXT ( ( #121 ) ) GLOBAL_UNIT_ASSIGNED_CONTEXT ( ( #135, #142, #92 ) ) REPRESENTATION_CONTEXT ( 'NONE', 'WORKASPACE' ) );
#49 = ORIENTED_EDGE ( 'NONE', *, *, #2, .T. ) ;
#50 = EDGE_LOOP ( 'NONE', ( #76, #227, #1, #212 ) ) ;
#51 = PRESENTATION_LAYER_ASSIGNMENT (  '', '', ( #140 ) ) ;
#52 = LENGTH_MEASURE_WITH_UNIT ( LENGTH_MEASURE( 0.02539999999999999897 ), #32 );
#53 = DIRECTION ( 'NONE',  ( 0.0000000000000000000, 0.0000000000000000000, -1.000000000000000000 ) ) ;
#54 = MANIFOLD_SOLID_BREP ( 'Cut-Revolve1', #99 ) ;
#55 = EDGE_LOOP ( 'NONE', ( #129, #168, #94, #228 ) ) ;
#56 = CIRCLE ( 'NONE', #12, 0.1100000000000001948 ) ;
#57 = CIRCLE ( 'NONE', #203, 0.02199999999999999872 ) ;
#58 = DIRECTION ( 'NONE',  ( 0.0000000000000000000, 0.0000000000000000000, 1.000000000000000000 ) ) ;
#59 = EDGE_CURVE ( 'NONE', #247, #148, #190, .T. ) ;
#60 = FACE_OUTER_BOUND ( 'NONE', #55, .T. ) ;
#61 = EDGE_CURVE ( 'NONE', #148, #115, #130, .T. ) ;
#62 = VECTOR ( 'NONE', #231, 39.37007874015748143 ) ;
#63 = LINE ( 'NONE', #176, #109 ) ;
#64 =( LENGTH_UNIT ( ) NAMED_UNIT ( * ) SI_UNIT ( $, .METRE. ) );
#65 = CARTESIAN_POINT ( 'NONE',  ( 0.0000000000000000000, 0.0000000000000000000, 0.0000000000000000000 ) ) ;
#66 = DIRECTION ( 'NONE',  ( 0.5000000000000007772, 0.0000000000000000000, 0.8660254037844382635 ) ) ;
#67 = CONICAL_SURFACE ( 'NONE', #219, 0.1100000000000001948, 0.7853981633974517207 ) ;
#68 = CARTESIAN_POINT ( 'NONE',  ( 0.1100000000000001948, 1.438959988998141146E-17, 2.500000000000000000 ) ) ;
#69 = APPLICATION_PROTOCOL_DEFINITION ( 'draft international standard', 'automotive_design', 1998, #180 ) ;
#70 = ORIENTED_EDGE ( 'NONE', *, *, #2, .F. ) ;
#71 = AXIS2_PLACEMENT_3D ( 'NONE', #65, #44, #138 ) ;
#72 = SURFACE_SIDE_STYLE ('',( #34 ) ) ;
#73 = EDGE_LOOP ( 'NONE', ( #159, #161 ) ) ;
#74 = CARTESIAN_POINT ( 'NONE',  ( 0.0000000000000000000, 0.0000000000000000000, 2.500000000000000000 ) ) ;
#75 = DIMENSIONAL_EXPONENTS ( 1.000000000000000000, 0.0000000000000000000, 0.0000000000000000000, 0.0000000000000000000, 0.0000000000000000000, 0.0000000000000000000, 0.0000000000000000000 ) ;
#76 = ORIENTED_EDGE ( 'NONE', *, *, #169, .F. ) ;
#77 = PRODUCT_RELATED_PRODUCT_CATEGORY ( 'part', '', ( #188 ) ) ;
#78 = DIMENSIONAL_EXPONENTS ( 1.000000000000000000, 0.0000000000000000000, 0.0000000000000000000, 0.0000000000000000000, 0.0000000000000000000, 0.0000000000000000000, 0.0000000000000000000 ) ;
#79 = CARTESIAN_POINT ( 'NONE',  ( -0.02199999999999999872, 2.694222958124176868E-18, 0.0000000000000000000 ) ) ;
#80 = AXIS2_PLACEMENT_3D ( 'NONE', #127, #162, #184 ) ;
#81 = DIRECTION ( 'NONE',  ( 1.000000000000000000, 0.0000000000000000000, 0.0000000000000000000 ) ) ;
#82 = CARTESIAN_POINT ( 'NONE',  ( -0.1250000000000000000, 0.0000000000000000000, 0.1784012331795939987 ) ) ;
#83 = ADVANCED_FACE ( 'NONE', ( #60 ), #134, .T. ) ;
#84 = CONICAL_SURFACE ( 'NONE', #152, 0.02199999999999999872, 0.5235987755982998149 ) ;
#85 = DIRECTION ( 'NONE',  ( 0.7071067811865499042, 8.659560562354961208E-17, -0.7071067811865451302 ) ) ;
#86 = DIRECTION ( 'NONE',  ( 0.0000000000000000000, 0.0000000000000000000, 1.000000000000000000 ) ) ;
#87 = DIRECTION ( 'NONE',  ( -0.0000000000000000000, -0.0000000000000000000, -1.000000000000000000 ) ) ;
#88 = EDGE_CURVE ( 'NONE', #33, #208, #56, .T. ) ;
#89 = AXIS2_PLACEMENT_3D ( 'NONE', #3, #90, #103 ) ;
#90 = DIRECTION ( 'NONE',  ( 0.0000000000000000000, 0.0000000000000000000, 1.000000000000000000 ) ) ;
#91 = ORIENTED_EDGE ( 'NONE', *, *, #189, .F. ) ;
#92 =( NAMED_UNIT ( * ) SI_UNIT ( $, .STERADIAN. ) SOLID_ANGLE_UNIT ( ) );
#93 = ORIENTED_EDGE ( 'NONE', *, *, #7, .T. ) ;
#94 = ORIENTED_EDGE ( 'NONE', *, *, #61, .T. ) ;
#95 = CIRCLE ( 'NONE', #224, 0.1250000000000000000 ) ;
#96 = DIRECTION ( 'NONE',  ( 1.000000000000000000, 0.0000000000000000000, 0.0000000000000000000 ) ) ;
#97 = FILL_AREA_STYLE ('',( #100 ) ) ;
#98 = CARTESIAN_POINT ( 'NONE',  ( -0.1100000000000001948, 0.0000000000000000000, 2.500000000000000000 ) ) ;
#99 = CLOSED_SHELL ( 'NONE', ( #101, #230, #207, #83, #143, #125, #155, #166 ) ) ;
#100 = FILL_AREA_STYLE_COLOUR ( '', #20 ) ;
#101 = ADVANCED_FACE ( 'NONE', ( #167 ), #181, .T. ) ;
#102 = FACE_OUTER_BOUND ( 'NONE', #108, .T. ) ;
#103 = DIRECTION ( 'NONE',  ( 1.000000000000000000, 0.0000000000000000000, 0.0000000000000000000 ) ) ;
#104 = CARTESIAN_POINT ( 'NONE',  ( -0.1100000000000001948, 0.0000000000000000000, 2.500000000000000000 ) ) ;
#105 = DIRECTION ( 'NONE',  ( 1.000000000000000000, 0.0000000000000000000, 0.0000000000000000000 ) ) ;
#106 = CARTESIAN_POINT ( 'NONE',  ( 0.0000000000000000000, 0.0000000000000000000, 2.485000000000000320 ) ) ;
#107 = VERTEX_POINT ( 'NONE', #216 ) ;
#108 = EDGE_LOOP ( 'NONE', ( #110, #70, #235, #157 ) ) ;
#109 = VECTOR ( 'NONE', #85, 39.37007874015748143 ) ;
#110 = ORIENTED_EDGE ( 'NONE', *, *, #37, .F. ) ;
#111 = CARTESIAN_POINT ( 'NONE',  ( 0.0000000000000000000, 0.0000000000000000000, 0.0000000000000000000 ) ) ;
#112 = EDGE_CURVE ( 'NONE', #33, #148, #27, .T. ) ;
#113 = MECHANICAL_DESIGN_GEOMETRIC_PRESENTATION_REPRESENTATION (  '', ( #140 ), #124 ) ;
#114 = DIRECTION ( 'NONE',  ( -0.0000000000000000000, -0.0000000000000000000, -1.000000000000000000 ) ) ;
#115 = VERTEX_POINT ( 'NONE', #82 ) ;
#116 = LINE ( 'NONE', #18, #62 ) ;
#117 = CIRCLE ( 'NONE', #137, 0.1250000000000000000 ) ;
#118 = ORIENTED_EDGE ( 'NONE', *, *, #169, .T. ) ;
#119 = LINE ( 'NONE', #46, #234 ) ;
#120 = DIRECTION ( 'NONE',  ( -1.000000000000000000, 0.0000000000000000000, 0.0000000000000000000 ) ) ;
#121 = UNCERTAINTY_MEASURE_WITH_UNIT (LENGTH_MEASURE( 1.000000000000000082E-05 ), #135, 'distance_accuracy_value', 'NONE');
#122 = DIRECTION ( 'NONE',  ( -0.0000000000000000000, -0.0000000000000000000, -1.000000000000000000 ) ) ;
#123 = DIRECTION ( 'NONE',  ( 0.0000000000000000000, 0.0000000000000000000, -1.000000000000000000 ) ) ;
#124 =( GEOMETRIC_REPRESENTATION_CONTEXT ( 3 ) GLOBAL_UNCERTAINTY_ASSIGNED_CONTEXT ( ( #19 ) ) GLOBAL_UNIT_ASSIGNED_CONTEXT ( ( #193, #40, #229 ) ) REPRESENTATION_CONTEXT ( 'NONE', 'WORKASPACE' ) );
#125 = ADVANCED_FACE ( 'NONE', ( #218 ), #45, .T. ) ;
#126 = EDGE_LOOP ( 'NONE', ( #141, #35, #185, #144 ) ) ;
#127 = CARTESIAN_POINT ( 'NONE',  ( 0.0000000000000000000, 0.0000000000000000000, 0.0000000000000000000 ) ) ;
#128 = COLOUR_RGB ( '',0.7921568627450980005, 0.8196078431372548767, 0.9333333333333333481 ) ;
#129 = ORIENTED_EDGE ( 'NONE', *, *, #7, .F. ) ;
#130 = LINE ( 'NONE', #236, #38 ) ;
#131 = ORIENTED_EDGE ( 'NONE', *, *, #246, .T. ) ;
#132 = LENGTH_MEASURE_WITH_UNIT ( LENGTH_MEASURE( 0.02539999999999999897 ), #170 );
#133 = UNCERTAINTY_MEASURE_WITH_UNIT (LENGTH_MEASURE( 1.000000000000000082E-05 ), #186, 'distance_accuracy_value', 'NONE');
#134 = CYLINDRICAL_SURFACE ( 'NONE', #26, 0.1250000000000000000 ) ;
#135 =( CONVERSION_BASED_UNIT ( 'INCH', #9 ) LENGTH_UNIT ( ) NAMED_UNIT ( #17 ) );
#136 = CARTESIAN_POINT ( 'NONE',  ( 0.0000000000000000000, 0.0000000000000000000, 0.1784012331795939987 ) ) ;
#137 = AXIS2_PLACEMENT_3D ( 'NONE', #210, #149, #4 ) ;
#138 = DIRECTION ( 'NONE',  ( 1.000000000000000000, 0.0000000000000000000, -0.0000000000000000000 ) ) ;
#139 = CARTESIAN_POINT ( 'NONE',  ( 0.0000000000000000000, 0.0000000000000000000, 2.500000000000000000 ) ) ;
#140 = STYLED_ITEM ( 'NONE', ( #233 ), #54 ) ;
#141 = ORIENTED_EDGE ( 'NONE', *, *, #246, .F. ) ;
#142 =( NAMED_UNIT ( * ) PLANE_ANGLE_UNIT ( ) SI_UNIT ( $, .RADIAN. ) );
#143 = ADVANCED_FACE ( 'NONE', ( #153 ), #28, .T. ) ;
#144 = ORIENTED_EDGE ( 'NONE', *, *, #59, .F. ) ;
#145 = VERTEX_POINT ( 'NONE', #47 ) ;
#146 = SURFACE_SIDE_STYLE ('',( #191 ) ) ;
#147 = SURFACE_STYLE_USAGE ( .BOTH. , #146 ) ;
#148 = VERTEX_POINT ( 'NONE', #175 ) ;
#149 = DIRECTION ( 'NONE',  ( -0.0000000000000000000, -0.0000000000000000000, -1.000000000000000000 ) ) ;
#150 = DIRECTION ( 'NONE',  ( -1.000000000000000000, 0.0000000000000000000, 0.0000000000000000000 ) ) ;
#151 = AXIS2_PLACEMENT_3D ( 'NONE', #213, #53, #81 ) ;
#152 = AXIS2_PLACEMENT_3D ( 'NONE', #198, #238, #105 ) ;
#153 = FACE_OUTER_BOUND ( 'NONE', #73, .T. ) ;
#154 = DIRECTION ( 'NONE',  ( -1.000000000000000000, 0.0000000000000000000, 0.0000000000000000000 ) ) ;
#155 = ADVANCED_FACE ( 'NONE', ( #102 ), #84, .T. ) ;
#156 = FILL_AREA_STYLE ('',( #223 ) ) ;
#157 = ORIENTED_EDGE ( 'NONE', *, *, #24, .T. ) ;
#158 = PRODUCT_CONTEXT ( 'NONE', #180, 'mechanical' ) ;
#159 = ORIENTED_EDGE ( 'NONE', *, *, #88, .T. ) ;
#160 = ADVANCED_BREP_SHAPE_REPRESENTATION ( 'Micro_RSC-250-145', ( #54, #80 ), #48 ) ;
#161 = ORIENTED_EDGE ( 'NONE', *, *, #13, .T. ) ;
#162 = DIRECTION ( 'NONE',  ( 0.0000000000000000000, 0.0000000000000000000, 1.000000000000000000 ) ) ;
#163 = EDGE_LOOP ( 'NONE', ( #15, #131, #31, #14 ) ) ;
#164 = AXIS2_PLACEMENT_3D ( 'NONE', #111, #214, #194 ) ;
#165 =( GEOMETRIC_REPRESENTATION_CONTEXT ( 3 ) GLOBAL_UNCERTAINTY_ASSIGNED_CONTEXT ( ( #133 ) ) GLOBAL_UNIT_ASSIGNED_CONTEXT ( ( #186, #205, #36 ) ) REPRESENTATION_CONTEXT ( 'NONE', 'WORKASPACE' ) );
#166 = ADVANCED_FACE ( 'NONE', ( #8 ), #178, .F. ) ;
#167 = FACE_OUTER_BOUND ( 'NONE', #50, .T. ) ;
#168 = ORIENTED_EDGE ( 'NONE', *, *, #59, .T. ) ;
#169 = EDGE_CURVE ( 'NONE', #206, #145, #57, .T. ) ;
#170 =( LENGTH_UNIT ( ) NAMED_UNIT ( * ) SI_UNIT ( $, .METRE. ) );
#171 = PRODUCT_DEFINITION_CONTEXT ( 'detailed design', #222, 'design' ) ;
#172 = DIRECTION ( 'NONE',  ( -1.000000000000000000, 0.0000000000000000000, 0.0000000000000000000 ) ) ;
#173 = DIRECTION ( 'NONE',  ( -0.0000000000000000000, -0.0000000000000000000, -1.000000000000000000 ) ) ;
#174 = CIRCLE ( 'NONE', #199, 0.1250000000000000000 ) ;
#175 = CARTESIAN_POINT ( 'NONE',  ( -0.1250000000000000000, 0.0000000000000000000, 2.485000000000000320 ) ) ;
#176 = CARTESIAN_POINT ( 'NONE',  ( 0.1100000000000001948, 1.347111479062090784E-17, 2.500000000000000000 ) ) ;
#177 = PRODUCT_DEFINITION_SHAPE ( 'NONE', 'NONE',  #237 ) ;
#178 = PLANE ( 'NONE',  #71 ) ;
#179 = EDGE_CURVE ( 'NONE', #148, #247, #95, .T. ) ;
#180 = APPLICATION_CONTEXT ( 'automotive_design' ) ;
#181 = CONICAL_SURFACE ( 'NONE', #89, 0.02199999999999999872, 0.5235987755982998149 ) ;
#182 = EDGE_LOOP ( 'NONE', ( #49, #118 ) ) ;
#183 = EDGE_CURVE ( 'NONE', #145, #107, #119, .T. ) ;
#184 = DIRECTION ( 'NONE',  ( 1.000000000000000000, 0.0000000000000000000, 0.0000000000000000000 ) ) ;
#185 = ORIENTED_EDGE ( 'NONE', *, *, #112, .T. ) ;
#186 =( CONVERSION_BASED_UNIT ( 'INCH', #52 ) LENGTH_UNIT ( ) NAMED_UNIT ( #78 ) );
#187 = ORIENTED_EDGE ( 'NONE', *, *, #61, .F. ) ;
#188 = PRODUCT ( 'Micro_RSC-250-145', 'Micro_RSC-250-145', '', ( #158 ) ) ;
#189 = EDGE_CURVE ( 'NONE', #115, #107, #174, .T. ) ;
#190 = CIRCLE ( 'NONE', #151, 0.1250000000000000000 ) ;
#191 = SURFACE_STYLE_FILL_AREA ( #97 ) ;
#192 = EDGE_LOOP ( 'NONE', ( #225, #93, #91, #187 ) ) ;
#193 =( CONVERSION_BASED_UNIT ( 'INCH', #132 ) LENGTH_UNIT ( ) NAMED_UNIT ( #75 ) );
#194 = DIRECTION ( 'NONE',  ( -1.000000000000000000, 0.0000000000000000000, 0.0000000000000000000 ) ) ;
#195 = PRODUCT_DEFINITION_FORMATION_WITH_SPECIFIED_SOURCE ( 'ANY', '', #188, .NOT_KNOWN. ) ;
#196 = AXIS2_PLACEMENT_3D ( 'NONE', #5, #122, #150 ) ;
#197 = DIRECTION ( 'NONE',  ( 1.000000000000000000, 0.0000000000000000000, 0.0000000000000000000 ) ) ;
#198 = CARTESIAN_POINT ( 'NONE',  ( 0.0000000000000000000, 0.0000000000000000000, 0.0000000000000000000 ) ) ;
#199 = AXIS2_PLACEMENT_3D ( 'NONE', #136, #173, #201 ) ;
#200 = CARTESIAN_POINT ( 'NONE',  ( 0.0000000000000000000, 0.0000000000000000000, 2.500000000000000000 ) ) ;
#201 = DIRECTION ( 'NONE',  ( -1.000000000000000000, 0.0000000000000000000, 0.0000000000000000000 ) ) ;
#202 = CARTESIAN_POINT ( 'NONE',  ( -0.02199999999999999872, 9.001153973733046171E-18, 0.0000000000000000000 ) ) ;
#203 = AXIS2_PLACEMENT_3D ( 'NONE', #220, #87, #154 ) ;
#204 = PRESENTATION_STYLE_ASSIGNMENT (( #11 ) ) ;
#205 =( NAMED_UNIT ( * ) PLANE_ANGLE_UNIT ( ) SI_UNIT ( $, .RADIAN. ) );
#206 = VERTEX_POINT ( 'NONE', #202 ) ;
#207 = ADVANCED_FACE ( 'NONE', ( #245 ), #29, .T. ) ;
#208 = VERTEX_POINT ( 'NONE', #68 ) ;
#209 = DIRECTION ( 'NONE',  ( 0.0000000000000000000, 0.0000000000000000000, 1.000000000000000000 ) ) ;
#210 = CARTESIAN_POINT ( 'NONE',  ( 0.0000000000000000000, 0.0000000000000000000, 0.1784012331795939987 ) ) ;
#211 = AXIS2_PLACEMENT_3D ( 'NONE', #43, #25, #23 ) ;
#212 = ORIENTED_EDGE ( 'NONE', *, *, #183, .F. ) ;
#213 = CARTESIAN_POINT ( 'NONE',  ( 0.0000000000000000000, 0.0000000000000000000, 2.485000000000000320 ) ) ;
#214 = DIRECTION ( 'NONE',  ( -0.0000000000000000000, -0.0000000000000000000, -1.000000000000000000 ) ) ;
#215 = AXIS2_PLACEMENT_3D ( 'NONE', #139, #86, #241 ) ;
#216 = CARTESIAN_POINT ( 'NONE',  ( 0.1250000000000000000, 1.530808498934191509E-17, 0.1784012331795939987 ) ) ;
#217 = CARTESIAN_POINT ( 'NONE',  ( 0.1250000000000000000, 1.530808498934191509E-17, 2.485000000000000320 ) ) ;
#218 = FACE_OUTER_BOUND ( 'NONE', #126, .T. ) ;
#219 = AXIS2_PLACEMENT_3D ( 'NONE', #200, #240, #120 ) ;
#220 = CARTESIAN_POINT ( 'NONE',  ( 0.0000000000000000000, 0.0000000000000000000, 0.0000000000000000000 ) ) ;
#221 = FACE_OUTER_BOUND ( 'NONE', #163, .T. ) ;
#222 = APPLICATION_CONTEXT ( 'automotive_design' ) ;
#223 = FILL_AREA_STYLE_COLOUR ( '', #128 ) ;
#224 = AXIS2_PLACEMENT_3D ( 'NONE', #106, #123, #10 ) ;
#225 = ORIENTED_EDGE ( 'NONE', *, *, #179, .T. ) ;
#226 = SHAPE_DEFINITION_REPRESENTATION ( #177, #160 ) ;
#227 = ORIENTED_EDGE ( 'NONE', *, *, #37, .T. ) ;
#228 = ORIENTED_EDGE ( 'NONE', *, *, #24, .F. ) ;
#229 =( NAMED_UNIT ( * ) SI_UNIT ( $, .STERADIAN. ) SOLID_ANGLE_UNIT ( ) );
#230 = ADVANCED_FACE ( 'NONE', ( #221 ), #67, .T. ) ;
#231 = DIRECTION ( 'NONE',  ( -0.0000000000000000000, -0.0000000000000000000, -1.000000000000000000 ) ) ;
#232 = CIRCLE ( 'NONE', #164, 0.02199999999999999872 ) ;
#233 = PRESENTATION_STYLE_ASSIGNMENT (( #147 ) ) ;
#234 = VECTOR ( 'NONE', #66, 39.37007874015748854 ) ;
#235 = ORIENTED_EDGE ( 'NONE', *, *, #183, .T. ) ;
#236 = CARTESIAN_POINT ( 'NONE',  ( -0.1250000000000000000, 0.0000000000000000000, 2.500000000000000000 ) ) ;
#237 = PRODUCT_DEFINITION ( 'UNKNOWN', '', #195, #171 ) ;
#238 = DIRECTION ( 'NONE',  ( 0.0000000000000000000, 0.0000000000000000000, 1.000000000000000000 ) ) ;
#239 = VECTOR ( 'NONE', #22, 39.37007874015748854 ) ;
#240 = DIRECTION ( 'NONE',  ( 0.0000000000000000000, 0.0000000000000000000, -1.000000000000000000 ) ) ;
#241 = DIRECTION ( 'NONE',  ( 1.000000000000000000, 0.0000000000000000000, -0.0000000000000000000 ) ) ;
#242 = DIRECTION ( 'NONE',  ( -0.7071067811865499042, 0.0000000000000000000, -0.7071067811865451302 ) ) ;
#243 = AXIS2_PLACEMENT_3D ( 'NONE', #21, #58, #197 ) ;
#244 = PRESENTATION_LAYER_ASSIGNMENT (  '', '', ( #248 ) ) ;
#245 = FACE_OUTER_BOUND ( 'NONE', #192, .T. ) ;
#246 = EDGE_CURVE ( 'NONE', #208, #247, #63, .T. ) ;
#247 = VERTEX_POINT ( 'NONE', #217 ) ;
#248 = STYLED_ITEM ( 'NONE', ( #204 ), #160 ) ;
#249 = APPLICATION_PROTOCOL_DEFINITION ( 'draft international standard', 'automotive_design', 1998, #222 ) ;
ENDSEC;
END-ISO-10303-21;
