ISO-10303-21;
HEADER;
FILE_DESCRIPTION (( 'STEP AP214' ),
    '1' );
FILE_NAME ('Micro_BEM-125-02X.STEP',
    '2021-09-03T13:01:45',
    ( '' ),
    ( '' ),
    'SwSTEP 2.0',
    'SolidWorks 2020',
    '' );
FILE_SCHEMA (( 'AUTOMOTIVE_DESIGN' ));
ENDSEC;

DATA;
#1 = DIRECTION ( 'NONE',  ( 0.0000000000000000000, 0.0000000000000000000, 1.000000000000000000 ) ) ;
#2 = UNCERTAINTY_MEASURE_WITH_UNIT (LENGTH_MEASURE( 1.000000000000000082E-05 ), #228, 'distance_accuracy_value', 'NONE');
#3 = CARTESIAN_POINT ( 'NONE',  ( 6.123233995736768501E-17, 0.0000000000000000000, 0.5000000000000000000 ) ) ;
#4 = FACE_OUTER_BOUND ( 'NONE', #78, .T. ) ;
#5 = CARTESIAN_POINT ( 'NONE',  ( -0.06243749999999999994, 0.0000000000000000000, 7.646388452176290456E-18 ) ) ;
#6 = EDGE_CURVE ( 'NONE', #198, #256, #106, .T. ) ;
#7 = CYLINDRICAL_SURFACE ( 'NONE', #37, 0.06243749999999999994 ) ;
#8 = VERTEX_POINT ( 'NONE', #278 ) ;
#9 = COLOUR_RGB ( '',0.7921568627450980005, 0.8196078431372548767, 0.9333333333333333481 ) ;
#10 = ORIENTED_EDGE ( 'NONE', *, *, #6, .T. ) ;
#11 = DIRECTION ( 'NONE',  ( -1.000000000000000000, 0.0000000000000000000, 1.367291288120251888E-16 ) ) ;
#12 = CARTESIAN_POINT ( 'NONE',  ( 6.123233995736768501E-17, 0.0000000000000000000, 0.5000000000000000000 ) ) ;
#13 = UNCERTAINTY_MEASURE_WITH_UNIT (LENGTH_MEASURE( 1.000000000000000082E-05 ), #42, 'distance_accuracy_value', 'NONE');
#14 = CYLINDRICAL_SURFACE ( 'NONE', #140, 0.06250000000000002776 ) ;
#15 =( GEOMETRIC_REPRESENTATION_CONTEXT ( 3 ) GLOBAL_UNCERTAINTY_ASSIGNED_CONTEXT ( ( #251 ) ) GLOBAL_UNIT_ASSIGNED_CONTEXT ( ( #68, #294, #66 ) ) REPRESENTATION_CONTEXT ( 'NONE', 'WORKASPACE' ) );
#16 = VECTOR ( 'NONE', #283, 39.37007874015748854 ) ;
#17 = SPHERICAL_SURFACE ( 'NONE', #264, 0.06243749999999999994 ) ;
#18 = SPHERICAL_SURFACE ( 'NONE', #92, 0.06243749999999999994 ) ;
#19 = EDGE_CURVE ( 'NONE', #276, #45, #208, .T. ) ;
#20 = ORIENTED_EDGE ( 'NONE', *, *, #40, .F. ) ;
#21 = DIRECTION ( 'NONE',  ( 1.000000000000000000, 0.0000000000000000000, 0.0000000000000000000 ) ) ;
#22 = FACE_OUTER_BOUND ( 'NONE', #280, .T. ) ;
#23 = CARTESIAN_POINT ( 'NONE',  ( 0.04750000000000064587, 5.817072295950006528E-18, 1.500000000000000222 ) ) ;
#24 = DIRECTION ( 'NONE',  ( 0.0000000000000000000, 0.0000000000000000000, -1.000000000000000000 ) ) ;
#25 = APPLICATION_PROTOCOL_DEFINITION ( 'draft international standard', 'automotive_design', 1998, #302 ) ;
#26 = DIRECTION ( 'NONE',  ( -0.0000000000000000000, -0.0000000000000000000, -1.000000000000000000 ) ) ;
#27 = DIRECTION ( 'NONE',  ( -1.224646799147353700E-16, -0.0000000000000000000, -1.000000000000000000 ) ) ;
#28 = AXIS2_PLACEMENT_3D ( 'NONE', #155, #258, #34 ) ;
#29 = EDGE_CURVE ( 'NONE', #198, #45, #105, .T. ) ;
#30 = DIRECTION ( 'NONE',  ( -0.0000000000000000000, -0.0000000000000000000, -1.000000000000000000 ) ) ;
#31 = ADVANCED_FACE ( 'NONE', ( #22 ), #213, .T. ) ;
#32 = AXIS2_PLACEMENT_3D ( 'NONE', #43, #253, #300 ) ;
#33 = AXIS2_PLACEMENT_3D ( 'NONE', #250, #246, #71 ) ;
#34 = DIRECTION ( 'NONE',  ( 1.000000000000000000, 0.0000000000000000000, 0.0000000000000000000 ) ) ;
#35 = CARTESIAN_POINT ( 'NONE',  ( 0.0000000000000000000, 0.0000000000000000000, 1.485000000000000764 ) ) ;
#36 = SURFACE_STYLE_FILL_AREA ( #158 ) ;
#37 = AXIS2_PLACEMENT_3D ( 'NONE', #46, #147, #245 ) ;
#38 = DIRECTION ( 'NONE',  ( -0.0000000000000000000, -0.0000000000000000000, -1.000000000000000000 ) ) ;
#39 = CARTESIAN_POINT ( 'NONE',  ( 7.646388452176290456E-18, 0.0000000000000000000, 0.06243749999999999994 ) ) ;
#40 = EDGE_CURVE ( 'NONE', #48, #45, #123, .T. ) ;
#41 = ADVANCED_FACE ( 'NONE', ( #67 ), #65, .T. ) ;
#42 =( CONVERSION_BASED_UNIT ( 'INCH', #255 ) LENGTH_UNIT ( ) NAMED_UNIT ( #311 ) );
#43 = CARTESIAN_POINT ( 'NONE',  ( 6.123233995736768501E-17, 0.0000000000000000000, 0.5000000000000000000 ) ) ;
#44 = AXIS2_PLACEMENT_3D ( 'NONE', #277, #1, #21 ) ;
#45 = VERTEX_POINT ( 'NONE', #146 ) ;
#46 = CARTESIAN_POINT ( 'NONE',  ( 0.0000000000000000000, 0.0000000000000000000, 0.0000000000000000000 ) ) ;
#47 = ORIENTED_EDGE ( 'NONE', *, *, #243, .F. ) ;
#48 = VERTEX_POINT ( 'NONE', #224 ) ;
#49 = CONICAL_SURFACE ( 'NONE', #126, 0.04750000000000064587, 0.7853981633974466137 ) ;
#50 = FILL_AREA_STYLE_COLOUR ( '', #231 ) ;
#51 = ADVANCED_BREP_SHAPE_REPRESENTATION ( 'Micro_BEM-125-02X', ( #159, #135 ), #15 ) ;
#52 = ORIENTED_EDGE ( 'NONE', *, *, #308, .F. ) ;
#53 = CIRCLE ( 'NONE', #115, 0.06250000000000002776 ) ;
#54 = CARTESIAN_POINT ( 'NONE',  ( -0.04750000000000064587, 0.0000000000000000000, 1.500000000000000222 ) ) ;
#55 = VECTOR ( 'NONE', #325, 39.37007874015748143 ) ;
#56 = CYLINDRICAL_SURFACE ( 'NONE', #241, 0.06250000000000002776 ) ;
#57 = LINE ( 'NONE', #54, #314 ) ;
#58 = SURFACE_SIDE_STYLE ('',( #36 ) ) ;
#59 = DIRECTION ( 'NONE',  ( -1.000000000000000000, 0.0000000000000000000, 1.367291288120251888E-16 ) ) ;
#60 = EDGE_CURVE ( 'NONE', #256, #74, #297, .T. ) ;
#61 = CARTESIAN_POINT ( 'NONE',  ( 0.0000000000000000000, 0.0000000000000000000, 1.500000000000000222 ) ) ;
#62 = DIRECTION ( 'NONE',  ( 0.0000000000000000000, 1.000000000000000000, 0.0000000000000000000 ) ) ;
#63 = ORIENTED_EDGE ( 'NONE', *, *, #60, .F. ) ;
#64 = ORIENTED_EDGE ( 'NONE', *, *, #40, .T. ) ;
#65 = CONICAL_SURFACE ( 'NONE', #252, 0.04750000000000064587, 0.7853981633974466137 ) ;
#66 =( NAMED_UNIT ( * ) SI_UNIT ( $, .STERADIAN. ) SOLID_ANGLE_UNIT ( ) );
#67 = FACE_OUTER_BOUND ( 'NONE', #248, .T. ) ;
#68 =( CONVERSION_BASED_UNIT ( 'INCH', #145 ) LENGTH_UNIT ( ) NAMED_UNIT ( #266 ) );
#69 = CARTESIAN_POINT ( 'NONE',  ( -0.06250000000000002776, 0.0000000000000000000, 1.500000000000000222 ) ) ;
#70 = EDGE_CURVE ( 'NONE', #218, #276, #199, .T. ) ;
#71 = DIRECTION ( 'NONE',  ( 1.000000000000000000, 0.0000000000000000000, 0.0000000000000000000 ) ) ;
#72 = SURFACE_STYLE_FILL_AREA ( #275 ) ;
#73 = CIRCLE ( 'NONE', #200, 0.06250000000000002776 ) ;
#74 = VERTEX_POINT ( 'NONE', #160 ) ;
#75 = DIRECTION ( 'NONE',  ( 1.000000000000000000, 0.0000000000000000000, -0.0000000000000000000 ) ) ;
#76 = PRODUCT_DEFINITION_CONTEXT ( 'detailed design', #94, 'design' ) ;
#77 = AXIS2_PLACEMENT_3D ( 'NONE', #287, #166, #112 ) ;
#78 = EDGE_LOOP ( 'NONE', ( #188, #196 ) ) ;
#79 = CIRCLE ( 'NONE', #168, 0.04750000000000064587 ) ;
#80 = DIRECTION ( 'NONE',  ( -1.224646799147353700E-16, -0.0000000000000000000, -1.000000000000000000 ) ) ;
#81 = CARTESIAN_POINT ( 'NONE',  ( 0.04750000000000064587, 6.735557395310483192E-18, 1.500000000000000222 ) ) ;
#82 = DIRECTION ( 'NONE',  ( 1.224646799147353700E-16, 0.0000000000000000000, 1.000000000000000000 ) ) ;
#83 = STYLED_ITEM ( 'NONE', ( #301 ), #51 ) ;
#84 = FACE_OUTER_BOUND ( 'NONE', #202, .T. ) ;
#85 = CARTESIAN_POINT ( 'NONE',  ( 0.0000000000000000000, 0.0000000000000000000, 1.485000000000000764 ) ) ;
#86 = CIRCLE ( 'NONE', #153, 0.06243749999999999994 ) ;
#87 = FACE_OUTER_BOUND ( 'NONE', #270, .T. ) ;
#88 = DIRECTION ( 'NONE',  ( -1.000000000000000000, 0.0000000000000000000, 1.224646799147353947E-16 ) ) ;
#89 = ADVANCED_FACE ( 'NONE', ( #182 ), #56, .T. ) ;
#90 = ORIENTED_EDGE ( 'NONE', *, *, #117, .T. ) ;
#91 = DIRECTION ( 'NONE',  ( -1.224646799147353700E-16, -0.0000000000000000000, -1.000000000000000000 ) ) ;
#92 = AXIS2_PLACEMENT_3D ( 'NONE', #186, #289, #141 ) ;
#93 = VERTEX_POINT ( 'NONE', #306 ) ;
#94 = APPLICATION_CONTEXT ( 'automotive_design' ) ;
#95 =( GEOMETRIC_REPRESENTATION_CONTEXT ( 3 ) GLOBAL_UNCERTAINTY_ASSIGNED_CONTEXT ( ( #13 ) ) GLOBAL_UNIT_ASSIGNED_CONTEXT ( ( #42, #124, #100 ) ) REPRESENTATION_CONTEXT ( 'NONE', 'WORKASPACE' ) );
#96 = VECTOR ( 'NONE', #127, 39.37007874015748143 ) ;
#97 =( LENGTH_UNIT ( ) NAMED_UNIT ( * ) SI_UNIT ( $, .METRE. ) );
#98 = ORIENTED_EDGE ( 'NONE', *, *, #70, .T. ) ;
#99 = DIRECTION ( 'NONE',  ( -1.000000000000000000, 0.0000000000000000000, 0.0000000000000000000 ) ) ;
#100 =( NAMED_UNIT ( * ) SI_UNIT ( $, .STERADIAN. ) SOLID_ANGLE_UNIT ( ) );
#101 = CARTESIAN_POINT ( 'NONE',  ( 0.0000000000000000000, 0.0000000000000000000, 1.500000000000000222 ) ) ;
#102 = EDGE_CURVE ( 'NONE', #256, #198, #86, .T. ) ;
#103 = PRESENTATION_LAYER_ASSIGNMENT (  '', '', ( #324 ) ) ;
#104 = ORIENTED_EDGE ( 'NONE', *, *, #120, .T. ) ;
#105 = LINE ( 'NONE', #121, #96 ) ;
#106 = CIRCLE ( 'NONE', #284, 0.06243749999999999994 ) ;
#107 = DIRECTION ( 'NONE',  ( 1.000000000000000000, 0.0000000000000000000, 0.0000000000000000000 ) ) ;
#108 = DIRECTION ( 'NONE',  ( 1.224646799147353207E-16, 1.000000000000000000, -0.0000000000000000000 ) ) ;
#109 = DIRECTION ( 'NONE',  ( 0.0000000000000000000, 0.0000000000000000000, 1.000000000000000000 ) ) ;
#110 = PRODUCT_RELATED_PRODUCT_CATEGORY ( 'part', '', ( #114 ) ) ;
#111 = CARTESIAN_POINT ( 'NONE',  ( 0.0000000000000000000, 0.0000000000000000000, 0.0000000000000000000 ) ) ;
#112 = DIRECTION ( 'NONE',  ( 0.0000000000000000000, 0.0000000000000000000, -1.000000000000000000 ) ) ;
#113 = ORIENTED_EDGE ( 'NONE', *, *, #151, .T. ) ;
#114 = PRODUCT ( 'Micro_BEM-125-02X', 'Micro_BEM-125-02X', '', ( #207 ) ) ;
#115 = AXIS2_PLACEMENT_3D ( 'NONE', #85, #185, #107 ) ;
#116 = ORIENTED_EDGE ( 'NONE', *, *, #128, .F. ) ;
#117 = EDGE_CURVE ( 'NONE', #256, #276, #137, .T. ) ;
#118 = AXIS2_PLACEMENT_3D ( 'NONE', #201, #221, #75 ) ;
#119 =( LENGTH_UNIT ( ) NAMED_UNIT ( * ) SI_UNIT ( $, .METRE. ) );
#120 = EDGE_CURVE ( 'NONE', #74, #8, #220, .T. ) ;
#121 = CARTESIAN_POINT ( 'NONE',  ( 0.06243750000000006239, 0.0000000000000000000, 0.5000000000000000000 ) ) ;
#122 = PLANE ( 'NONE',  #118 ) ;
#123 = LINE ( 'NONE', #295, #156 ) ;
#124 =( NAMED_UNIT ( * ) PLANE_ANGLE_UNIT ( ) SI_UNIT ( $, .RADIAN. ) );
#125 = ORIENTED_EDGE ( 'NONE', *, *, #189, .F. ) ;
#126 = AXIS2_PLACEMENT_3D ( 'NONE', #61, #316, #265 ) ;
#127 = DIRECTION ( 'NONE',  ( 0.1736481776669312471, 0.0000000000000000000, 0.9848077530122077983 ) ) ;
#128 = EDGE_CURVE ( 'NONE', #93, #218, #57, .T. ) ;
#129 = CIRCLE ( 'NONE', #133, 0.06243749999999999994 ) ;
#130 = ORIENTED_EDGE ( 'NONE', *, *, #102, .F. ) ;
#131 = EDGE_CURVE ( 'NONE', #198, #8, #205, .T. ) ;
#132 = DIRECTION ( 'NONE',  ( -1.000000000000000000, 1.224646799147353454E-16, 0.0000000000000000000 ) ) ;
#133 = AXIS2_PLACEMENT_3D ( 'NONE', #309, #108, #132 ) ;
#134 = FILL_AREA_STYLE_COLOUR ( '', #9 ) ;
#135 = AXIS2_PLACEMENT_3D ( 'NONE', #260, #109, #233 ) ;
#136 = EDGE_CURVE ( 'NONE', #170, #74, #129, .T. ) ;
#137 = LINE ( 'NONE', #259, #16 ) ;
#138 = EDGE_CURVE ( 'NONE', #218, #48, #53, .T. ) ;
#139 = DIRECTION ( 'NONE',  ( 1.000000000000000000, 0.0000000000000000000, 0.0000000000000000000 ) ) ;
#140 = AXIS2_PLACEMENT_3D ( 'NONE', #232, #30, #204 ) ;
#141 = DIRECTION ( 'NONE',  ( 1.000000000000000000, 0.0000000000000000000, 0.0000000000000000000 ) ) ;
#142 = ORIENTED_EDGE ( 'NONE', *, *, #6, .F. ) ;
#143 = AXIS2_PLACEMENT_3D ( 'NONE', #177, #82, #11 ) ;
#144 = ORIENTED_EDGE ( 'NONE', *, *, #131, .F. ) ;
#145 = LENGTH_MEASURE_WITH_UNIT ( LENGTH_MEASURE( 0.02539999999999999897 ), #97 );
#146 = CARTESIAN_POINT ( 'NONE',  ( 0.06250000000000008327, 7.654042494670966789E-18, 0.5003544551137262264 ) ) ;
#147 = DIRECTION ( 'NONE',  ( -1.224646799147353700E-16, -0.0000000000000000000, -1.000000000000000000 ) ) ;
#148 = DIRECTION ( 'NONE',  ( -1.000000000000000000, 0.0000000000000000000, 0.0000000000000000000 ) ) ;
#149 = ORIENTED_EDGE ( 'NONE', *, *, #151, .F. ) ;
#150 = ORIENTED_EDGE ( 'NONE', *, *, #29, .F. ) ;
#151 = EDGE_CURVE ( 'NONE', #48, #218, #73, .T. ) ;
#152 = ORIENTED_EDGE ( 'NONE', *, *, #29, .T. ) ;
#153 = AXIS2_PLACEMENT_3D ( 'NONE', #12, #80, #227 ) ;
#154 =( NAMED_UNIT ( * ) SI_UNIT ( $, .STERADIAN. ) SOLID_ANGLE_UNIT ( ) );
#155 = CARTESIAN_POINT ( 'NONE',  ( 6.123233995736768501E-17, 0.0000000000000000000, 0.5000000000000000000 ) ) ;
#156 = VECTOR ( 'NONE', #26, 39.37007874015748143 ) ;
#157 = CARTESIAN_POINT ( 'NONE',  ( 0.0000000000000000000, 0.0000000000000000000, 1.500000000000000222 ) ) ;
#158 = FILL_AREA_STYLE ('',( #134 ) ) ;
#159 = MANIFOLD_SOLID_BREP ( 'Fillet1', #282 ) ;
#160 = CARTESIAN_POINT ( 'NONE',  ( -0.06243749999999999301, 0.0000000000000000000, 0.06243750000000001382 ) ) ;
#161 = FACE_OUTER_BOUND ( 'NONE', #219, .T. ) ;
#162 = DIMENSIONAL_EXPONENTS ( 1.000000000000000000, 0.0000000000000000000, 0.0000000000000000000, 0.0000000000000000000, 0.0000000000000000000, 0.0000000000000000000, 0.0000000000000000000 ) ;
#163 = CARTESIAN_POINT ( 'NONE',  ( -0.06249999999999996531, 0.0000000000000000000, 0.5003544551137262264 ) ) ;
#164 = ORIENTED_EDGE ( 'NONE', *, *, #131, .T. ) ;
#165 = ADVANCED_FACE ( 'NONE', ( #229 ), #14, .T. ) ;
#166 = DIRECTION ( 'NONE',  ( 0.0000000000000000000, -1.000000000000000000, 0.0000000000000000000 ) ) ;
#167 = ORIENTED_EDGE ( 'NONE', *, *, #120, .F. ) ;
#168 = AXIS2_PLACEMENT_3D ( 'NONE', #320, #249, #299 ) ;
#169 = VERTEX_POINT ( 'NONE', #81 ) ;
#170 = VERTEX_POINT ( 'NONE', #180 ) ;
#171 = PRODUCT_DEFINITION_FORMATION_WITH_SPECIFIED_SOURCE ( 'ANY', '', #114, .NOT_KNOWN. ) ;
#172 = ORIENTED_EDGE ( 'NONE', *, *, #216, .T. ) ;
#173 = EDGE_LOOP ( 'NONE', ( #304, #64, #319, #321 ) ) ;
#174 = ORIENTED_EDGE ( 'NONE', *, *, #102, .T. ) ;
#175 = SURFACE_STYLE_USAGE ( .BOTH. , #322 ) ;
#176 = ORIENTED_EDGE ( 'NONE', *, *, #310, .T. ) ;
#177 = CARTESIAN_POINT ( 'NONE',  ( 7.646388452176290456E-18, 0.0000000000000000000, 0.06243749999999999994 ) ) ;
#178 = ADVANCED_FACE ( 'NONE', ( #84 ), #179, .T. ) ;
#179 = CONICAL_SURFACE ( 'NONE', #28, 0.06243749999999999994, 0.1745329251994337527 ) ;
#180 = CARTESIAN_POINT ( 'NONE',  ( 1.146958267826443414E-17, 0.0000000000000000000, 0.0000000000000000000 ) ) ;
#181 = LENGTH_MEASURE_WITH_UNIT ( LENGTH_MEASURE( 0.02539999999999999897 ), #263 );
#182 = FACE_OUTER_BOUND ( 'NONE', #173, .T. ) ;
#183 = APPLICATION_PROTOCOL_DEFINITION ( 'draft international standard', 'automotive_design', 1998, #94 ) ;
#184 = CIRCLE ( 'NONE', #210, 0.06250000000000002776 ) ;
#185 = DIRECTION ( 'NONE',  ( 0.0000000000000000000, 0.0000000000000000000, -1.000000000000000000 ) ) ;
#186 = CARTESIAN_POINT ( 'NONE',  ( 7.646388452176290456E-18, 0.0000000000000000000, 0.06243749999999999994 ) ) ;
#187 = CARTESIAN_POINT ( 'NONE',  ( -0.06243749999999994443, 7.650215473423623230E-18, 0.5000000000000000000 ) ) ;
#188 = ORIENTED_EDGE ( 'NONE', *, *, #298, .T. ) ;
#189 = EDGE_CURVE ( 'NONE', #45, #276, #184, .T. ) ;
#190 = CARTESIAN_POINT ( 'NONE',  ( -0.06250000000000002776, 0.0000000000000000000, 1.485000000000000764 ) ) ;
#191 = ADVANCED_FACE ( 'NONE', ( #267 ), #18, .T. ) ;
#192 = EDGE_LOOP ( 'NONE', ( #174, #164, #303, #63 ) ) ;
#193 = PRODUCT_DEFINITION ( 'UNKNOWN', '', #171, #76 ) ;
#194 = DIRECTION ( 'NONE',  ( 0.7071067811865462405, 8.659560562354916834E-17, -0.7071067811865486830 ) ) ;
#195 = VECTOR ( 'NONE', #203, 39.37007874015748143 ) ;
#196 = ORIENTED_EDGE ( 'NONE', *, *, #308, .T. ) ;
#197 = FACE_OUTER_BOUND ( 'NONE', #192, .T. ) ;
#198 = VERTEX_POINT ( 'NONE', #212 ) ;
#199 = LINE ( 'NONE', #69, #240 ) ;
#200 = AXIS2_PLACEMENT_3D ( 'NONE', #35, #285, #261 ) ;
#201 = CARTESIAN_POINT ( 'NONE',  ( 0.0000000000000000000, 0.0000000000000000000, 1.500000000000000222 ) ) ;
#202 = EDGE_LOOP ( 'NONE', ( #215, #142, #152, #244 ) ) ;
#203 = DIRECTION ( 'NONE',  ( -1.224646799147353700E-16, -0.0000000000000000000, -1.000000000000000000 ) ) ;
#204 = DIRECTION ( 'NONE',  ( -1.000000000000000000, 0.0000000000000000000, 0.0000000000000000000 ) ) ;
#205 = LINE ( 'NONE', #230, #195 ) ;
#206 = DIRECTION ( 'NONE',  ( -0.7071067811865462405, 0.0000000000000000000, -0.7071067811865486830 ) ) ;
#207 = PRODUCT_CONTEXT ( 'NONE', #302, 'mechanical' ) ;
#208 = CIRCLE ( 'NONE', #33, 0.06250000000000002776 ) ;
#209 = DIRECTION ( 'NONE',  ( -1.000000000000000000, 0.0000000000000000000, 0.0000000000000000000 ) ) ;
#210 = AXIS2_PLACEMENT_3D ( 'NONE', #238, #91, #211 ) ;
#211 = DIRECTION ( 'NONE',  ( 1.000000000000000000, 0.0000000000000000000, 0.0000000000000000000 ) ) ;
#212 = CARTESIAN_POINT ( 'NONE',  ( 0.06243750000000006239, 0.0000000000000000000, 0.5000000000000000000 ) ) ;
#213 = CONICAL_SURFACE ( 'NONE', #32, 0.06243749999999999994, 0.1745329251994337527 ) ;
#214 = DIRECTION ( 'NONE',  ( 1.224646799147353700E-16, 0.0000000000000000000, 1.000000000000000000 ) ) ;
#215 = ORIENTED_EDGE ( 'NONE', *, *, #117, .F. ) ;
#216 = EDGE_CURVE ( 'NONE', #170, #8, #291, .T. ) ;
#217 = PRESENTATION_LAYER_ASSIGNMENT (  '', '', ( #83 ) ) ;
#218 = VERTEX_POINT ( 'NONE', #190 ) ;
#219 = EDGE_LOOP ( 'NONE', ( #52, #176, #273, #116 ) ) ;
#220 = CIRCLE ( 'NONE', #143, 0.06243749999999999994 ) ;
#221 = DIRECTION ( 'NONE',  ( 0.0000000000000000000, 0.0000000000000000000, 1.000000000000000000 ) ) ;
#222 = ORIENTED_EDGE ( 'NONE', *, *, #136, .F. ) ;
#223 = ORIENTED_EDGE ( 'NONE', *, *, #136, .T. ) ;
#224 = CARTESIAN_POINT ( 'NONE',  ( 0.06250000000000002776, 7.654042494670959086E-18, 1.485000000000000764 ) ) ;
#225 = ORIENTED_EDGE ( 'NONE', *, *, #128, .T. ) ;
#226 = VECTOR ( 'NONE', #194, 39.37007874015748854 ) ;
#227 = DIRECTION ( 'NONE',  ( -1.000000000000000000, 0.0000000000000000000, 0.0000000000000000000 ) ) ;
#228 =( CONVERSION_BASED_UNIT ( 'INCH', #181 ) LENGTH_UNIT ( ) NAMED_UNIT ( #162 ) );
#229 = FACE_OUTER_BOUND ( 'NONE', #288, .T. ) ;
#230 = CARTESIAN_POINT ( 'NONE',  ( 0.06243749999999999994, 7.646388452176287375E-18, -7.646388452176290456E-18 ) ) ;
#231 = COLOUR_RGB ( '',0.7921568627450980005, 0.8196078431372548767, 0.9333333333333333481 ) ;
#232 = CARTESIAN_POINT ( 'NONE',  ( 0.0000000000000000000, 0.0000000000000000000, 1.500000000000000222 ) ) ;
#233 = DIRECTION ( 'NONE',  ( 1.000000000000000000, 0.0000000000000000000, 0.0000000000000000000 ) ) ;
#234 = ADVANCED_FACE ( 'NONE', ( #87 ), #286, .T. ) ;
#235 = MECHANICAL_DESIGN_GEOMETRIC_PRESENTATION_REPRESENTATION (  '', ( #324 ), #281 ) ;
#236 = CARTESIAN_POINT ( 'NONE',  ( 7.646388452176290456E-18, 0.0000000000000000000, 0.06243749999999999994 ) ) ;
#237 = CIRCLE ( 'NONE', #279, 0.06243749999999999994 ) ;
#238 = CARTESIAN_POINT ( 'NONE',  ( 6.127574818941430966E-17, 0.0000000000000000000, 0.5003544551137262264 ) ) ;
#239 = ORIENTED_EDGE ( 'NONE', *, *, #310, .F. ) ;
#240 = VECTOR ( 'NONE', #274, 39.37007874015748143 ) ;
#241 = AXIS2_PLACEMENT_3D ( 'NONE', #157, #38, #209 ) ;
#242 = ORIENTED_EDGE ( 'NONE', *, *, #298, .F. ) ;
#243 = EDGE_CURVE ( 'NONE', #8, #74, #237, .T. ) ;
#244 = ORIENTED_EDGE ( 'NONE', *, *, #189, .T. ) ;
#245 = DIRECTION ( 'NONE',  ( -1.000000000000000000, 0.0000000000000000000, 1.224646799147353947E-16 ) ) ;
#246 = DIRECTION ( 'NONE',  ( -1.224646799147353700E-16, -0.0000000000000000000, -1.000000000000000000 ) ) ;
#247 = ADVANCED_FACE ( 'NONE', ( #161 ), #49, .T. ) ;
#248 = EDGE_LOOP ( 'NONE', ( #239, #242, #225, #149 ) ) ;
#249 = DIRECTION ( 'NONE',  ( 0.0000000000000000000, 0.0000000000000000000, 1.000000000000000000 ) ) ;
#250 = CARTESIAN_POINT ( 'NONE',  ( 6.127574818941430966E-17, 0.0000000000000000000, 0.5003544551137262264 ) ) ;
#251 = UNCERTAINTY_MEASURE_WITH_UNIT (LENGTH_MEASURE( 1.000000000000000082E-05 ), #68, 'distance_accuracy_value', 'NONE');
#252 = AXIS2_PLACEMENT_3D ( 'NONE', #101, #24, #99 ) ;
#253 = DIRECTION ( 'NONE',  ( 1.224646799147353700E-16, 0.0000000000000000000, 1.000000000000000000 ) ) ;
#254 = ADVANCED_FACE ( 'NONE', ( #318 ), #17, .T. ) ;
#255 = LENGTH_MEASURE_WITH_UNIT ( LENGTH_MEASURE( 0.02539999999999999897 ), #119 );
#256 = VERTEX_POINT ( 'NONE', #187 ) ;
#257 = PRESENTATION_STYLE_ASSIGNMENT (( #307 ) ) ;
#258 = DIRECTION ( 'NONE',  ( 1.224646799147353700E-16, 0.0000000000000000000, 1.000000000000000000 ) ) ;
#259 = CARTESIAN_POINT ( 'NONE',  ( -0.06243749999999994443, 7.646388452176287375E-18, 0.5000000000000000000 ) ) ;
#260 = CARTESIAN_POINT ( 'NONE',  ( 0.0000000000000000000, 0.0000000000000000000, 0.0000000000000000000 ) ) ;
#261 = DIRECTION ( 'NONE',  ( 1.000000000000000000, 0.0000000000000000000, 0.0000000000000000000 ) ) ;
#262 = AXIS2_PLACEMENT_3D ( 'NONE', #111, #315, #88 ) ;
#263 =( LENGTH_UNIT ( ) NAMED_UNIT ( * ) SI_UNIT ( $, .METRE. ) );
#264 = AXIS2_PLACEMENT_3D ( 'NONE', #39, #62, #139 ) ;
#265 = DIRECTION ( 'NONE',  ( -1.000000000000000000, 0.0000000000000000000, 0.0000000000000000000 ) ) ;
#266 = DIMENSIONAL_EXPONENTS ( 1.000000000000000000, 0.0000000000000000000, 0.0000000000000000000, 0.0000000000000000000, 0.0000000000000000000, 0.0000000000000000000, 0.0000000000000000000 ) ;
#267 = FACE_OUTER_BOUND ( 'NONE', #268, .T. ) ;
#268 = EDGE_LOOP ( 'NONE', ( #222, #172, #167 ) ) ;
#269 = MECHANICAL_DESIGN_GEOMETRIC_PRESENTATION_REPRESENTATION (  '', ( #83 ), #95 ) ;
#270 = EDGE_LOOP ( 'NONE', ( #144, #10, #317, #104 ) ) ;
#271 = ORIENTED_EDGE ( 'NONE', *, *, #216, .F. ) ;
#272 = LINE ( 'NONE', #23, #226 ) ;
#273 = ORIENTED_EDGE ( 'NONE', *, *, #138, .F. ) ;
#274 = DIRECTION ( 'NONE',  ( -0.0000000000000000000, -0.0000000000000000000, -1.000000000000000000 ) ) ;
#275 = FILL_AREA_STYLE ('',( #50 ) ) ;
#276 = VERTEX_POINT ( 'NONE', #163 ) ;
#277 = CARTESIAN_POINT ( 'NONE',  ( 0.0000000000000000000, 0.0000000000000000000, 1.500000000000000222 ) ) ;
#278 = CARTESIAN_POINT ( 'NONE',  ( 0.06243750000000001382, 7.646388452176287375E-18, 0.06243749999999999301 ) ) ;
#279 = AXIS2_PLACEMENT_3D ( 'NONE', #236, #214, #59 ) ;
#280 = EDGE_LOOP ( 'NONE', ( #130, #90, #290, #150 ) ) ;
#281 =( GEOMETRIC_REPRESENTATION_CONTEXT ( 3 ) GLOBAL_UNCERTAINTY_ASSIGNED_CONTEXT ( ( #2 ) ) GLOBAL_UNIT_ASSIGNED_CONTEXT ( ( #228, #312, #154 ) ) REPRESENTATION_CONTEXT ( 'NONE', 'WORKASPACE' ) );
#282 = CLOSED_SHELL ( 'NONE', ( #254, #296, #31, #247, #89, #165, #293, #41, #178, #234, #191 ) ) ;
#283 = DIRECTION ( 'NONE',  ( -0.1736481776669310251, 2.126576849575781468E-17, 0.9848077530122080203 ) ) ;
#284 = AXIS2_PLACEMENT_3D ( 'NONE', #3, #27, #148 ) ;
#285 = DIRECTION ( 'NONE',  ( 0.0000000000000000000, 0.0000000000000000000, -1.000000000000000000 ) ) ;
#286 = CYLINDRICAL_SURFACE ( 'NONE', #262, 0.06243749999999999994 ) ;
#287 = CARTESIAN_POINT ( 'NONE',  ( 7.646388452176290456E-18, 0.0000000000000000000, 0.06243749999999999994 ) ) ;
#288 = EDGE_LOOP ( 'NONE', ( #20, #113, #98, #125 ) ) ;
#289 = DIRECTION ( 'NONE',  ( 0.0000000000000000000, 1.000000000000000000, 0.0000000000000000000 ) ) ;
#290 = ORIENTED_EDGE ( 'NONE', *, *, #19, .T. ) ;
#291 = CIRCLE ( 'NONE', #77, 0.06243749999999999994 ) ;
#292 = EDGE_LOOP ( 'NONE', ( #271, #223, #47 ) ) ;
#293 = ADVANCED_FACE ( 'NONE', ( #4 ), #122, .T. ) ;
#294 =( NAMED_UNIT ( * ) PLANE_ANGLE_UNIT ( ) SI_UNIT ( $, .RADIAN. ) );
#295 = CARTESIAN_POINT ( 'NONE',  ( 0.06250000000000002776, 7.654042494670959086E-18, 1.500000000000000222 ) ) ;
#296 = ADVANCED_FACE ( 'NONE', ( #197 ), #7, .T. ) ;
#297 = LINE ( 'NONE', #5, #55 ) ;
#298 = EDGE_CURVE ( 'NONE', #93, #169, #305, .T. ) ;
#299 = DIRECTION ( 'NONE',  ( 1.000000000000000000, 0.0000000000000000000, 0.0000000000000000000 ) ) ;
#300 = DIRECTION ( 'NONE',  ( 1.000000000000000000, 0.0000000000000000000, 0.0000000000000000000 ) ) ;
#301 = PRESENTATION_STYLE_ASSIGNMENT (( #175 ) ) ;
#302 = APPLICATION_CONTEXT ( 'automotive_design' ) ;
#303 = ORIENTED_EDGE ( 'NONE', *, *, #243, .T. ) ;
#304 = ORIENTED_EDGE ( 'NONE', *, *, #138, .T. ) ;
#305 = CIRCLE ( 'NONE', #44, 0.04750000000000064587 ) ;
#306 = CARTESIAN_POINT ( 'NONE',  ( -0.04750000000000064587, 0.0000000000000000000, 1.500000000000000222 ) ) ;
#307 = SURFACE_STYLE_USAGE ( .BOTH. , #58 ) ;
#308 = EDGE_CURVE ( 'NONE', #169, #93, #79, .T. ) ;
#309 = CARTESIAN_POINT ( 'NONE',  ( 7.646388452176290456E-18, 0.0000000000000000000, 0.06243749999999999994 ) ) ;
#310 = EDGE_CURVE ( 'NONE', #169, #48, #272, .T. ) ;
#311 = DIMENSIONAL_EXPONENTS ( 1.000000000000000000, 0.0000000000000000000, 0.0000000000000000000, 0.0000000000000000000, 0.0000000000000000000, 0.0000000000000000000, 0.0000000000000000000 ) ;
#312 =( NAMED_UNIT ( * ) PLANE_ANGLE_UNIT ( ) SI_UNIT ( $, .RADIAN. ) );
#313 = SHAPE_DEFINITION_REPRESENTATION ( #323, #51 ) ;
#314 = VECTOR ( 'NONE', #206, 39.37007874015748854 ) ;
#315 = DIRECTION ( 'NONE',  ( -1.224646799147353700E-16, -0.0000000000000000000, -1.000000000000000000 ) ) ;
#316 = DIRECTION ( 'NONE',  ( 0.0000000000000000000, 0.0000000000000000000, -1.000000000000000000 ) ) ;
#317 = ORIENTED_EDGE ( 'NONE', *, *, #60, .T. ) ;
#318 = FACE_OUTER_BOUND ( 'NONE', #292, .T. ) ;
#319 = ORIENTED_EDGE ( 'NONE', *, *, #19, .F. ) ;
#320 = CARTESIAN_POINT ( 'NONE',  ( 0.0000000000000000000, 0.0000000000000000000, 1.500000000000000222 ) ) ;
#321 = ORIENTED_EDGE ( 'NONE', *, *, #70, .F. ) ;
#322 = SURFACE_SIDE_STYLE ('',( #72 ) ) ;
#323 = PRODUCT_DEFINITION_SHAPE ( 'NONE', 'NONE',  #193 ) ;
#324 = STYLED_ITEM ( 'NONE', ( #257 ), #159 ) ;
#325 = DIRECTION ( 'NONE',  ( -1.224646799147353700E-16, -0.0000000000000000000, -1.000000000000000000 ) ) ;
ENDSEC;
END-ISO-10303-21;
