ISO-10303-21;
HEADER;
FILE_DESCRIPTION (( 'STEP AP214' ),
    '1' );
FILE_NAME ('49331.STEP',
    '2023-06-30T22:01:14',
    ( '' ),
    ( '' ),
    'SwSTEP 2.0',
    'SolidWorks 2023',
    '' );
FILE_SCHEMA (( 'AUTOMOTIVE_DESIGN' ));
ENDSEC;

DATA;
#1 =( LENGTH_UNIT ( ) NAMED_UNIT ( * ) SI_UNIT ( $, .METRE. ) );
#2 = FILL_AREA_STYLE_COLOUR ( '', #179 ) ;
#3 = EDGE_CURVE ( 'NONE', #324, #164, #168, .T. ) ;
#4 = ORIENTED_EDGE ( 'NONE', *, *, #98, .F. ) ;
#5 = CLOSED_SHELL ( 'NONE', ( #153, #99, #255, #221, #257 ) ) ;
#6 = CARTESIAN_POINT ( 'NONE',  ( 0.000000000000000000, 0.7499999999999998890, -0.3124999999999998890 ) ) ;
#7 = DIRECTION ( 'NONE',  ( -0.000000000000000000, -1.000000000000000000, -0.000000000000000000 ) ) ;
#8 = DIRECTION ( 'NONE',  ( 1.000000000000000000, 0.000000000000000000, 0.000000000000000000 ) ) ;
#9 = ORIENTED_EDGE ( 'NONE', *, *, #362, .T. ) ;
#10 =( LENGTH_UNIT ( ) NAMED_UNIT ( * ) SI_UNIT ( $, .METRE. ) );
#11 = CYLINDRICAL_SURFACE ( 'NONE', #318, 0.3124999999999998890 ) ;
#12 = CLOSED_SHELL ( 'NONE', ( #368, #141, #127, #230 ) ) ;
#13 =( NAMED_UNIT ( * ) PLANE_ANGLE_UNIT ( ) SI_UNIT ( $, .RADIAN. ) );
#14 = EDGE_LOOP ( 'NONE', ( #227, #202, #55, #353 ) ) ;
#15 = FACE_OUTER_BOUND ( 'NONE', #314, .T. ) ;
#16 = FILL_AREA_STYLE_COLOUR ( '', #81 ) ;
#17 = DIRECTION ( 'NONE',  ( 0.000000000000000000, 0.000000000000000000, 1.000000000000000000 ) ) ;
#18 = CARTESIAN_POINT ( 'NONE',  ( 0.000000000000000000, 0.000000000000000000, 0.000000000000000000 ) ) ;
#19 = AXIS2_PLACEMENT_3D ( 'NONE', #41, #93, #347 ) ;
#20 = DIMENSIONAL_EXPONENTS ( 1.000000000000000000, 0.000000000000000000, 0.000000000000000000, 0.000000000000000000, 0.000000000000000000, 0.000000000000000000, 0.000000000000000000 ) ;
#21 =( CONVERSION_BASED_UNIT ( 'INCH', #276 ) LENGTH_UNIT ( ) NAMED_UNIT ( #70 ) );
#22 = DIRECTION ( 'NONE',  ( -1.227249464703778560E-16, 1.000000000000000000, -0.000000000000000000 ) ) ;
#23 = FACE_OUTER_BOUND ( 'NONE', #83, .T. ) ;
#24 = AXIS2_PLACEMENT_3D ( 'NONE', #321, #170, #206 ) ;
#25 = VECTOR ( 'NONE', #266, 39.37007874015748143 ) ;
#26 = EDGE_LOOP ( 'NONE', ( #9, #151, #259, #181 ) ) ;
#27 = ORIENTED_EDGE ( 'NONE', *, *, #188, .T. ) ;
#28 = SPHERICAL_SURFACE ( 'NONE', #196, 0.3125000000000000000 ) ;
#29 = ORIENTED_EDGE ( 'NONE', *, *, #3, .T. ) ;
#30 = MECHANICAL_DESIGN_GEOMETRIC_PRESENTATION_REPRESENTATION (  '', ( #191 ), #252 ) ;
#31 = DIRECTION ( 'NONE',  ( 0.000000000000000000, 0.000000000000000000, -1.000000000000000000 ) ) ;
#32 = STYLED_ITEM ( 'NONE', ( #286 ), #234 ) ;
#33 = FILL_AREA_STYLE_COLOUR ( '', #210 ) ;
#34 = EDGE_LOOP ( 'NONE', ( #94, #207, #192, #283, #250 ) ) ;
#35 = CARTESIAN_POINT ( 'NONE',  ( 0.3124999999999998890, 3.000000000000000444, 3.827021247335475229E-17 ) ) ;
#36 = DIRECTION ( 'NONE',  ( -1.000000000000000000, 0.000000000000000000, 0.000000000000000000 ) ) ;
#37 =( CONVERSION_BASED_UNIT ( 'INCH', #327 ) LENGTH_UNIT ( ) NAMED_UNIT ( #183 ) );
#38 =( LENGTH_UNIT ( ) NAMED_UNIT ( * ) SI_UNIT ( $, .METRE. ) );
#39 = VECTOR ( 'NONE', #172, 39.37007874015748143 ) ;
#40 = AXIS2_PLACEMENT_3D ( 'NONE', #296, #122, #254 ) ;
#41 = CARTESIAN_POINT ( 'NONE',  ( -3.827021247335478926E-17, 0.3125000000000000000, 0.000000000000000000 ) ) ;
#42 = DIRECTION ( 'NONE',  ( 1.000000000000000000, 0.000000000000000000, 0.000000000000000000 ) ) ;
#43 = STYLED_ITEM ( 'NONE', ( #176 ), #221 ) ;
#44 = APPLICATION_PROTOCOL_DEFINITION ( 'draft international standard', 'automotive_design', 1998, #219 ) ;
#45 = SURFACE_SIDE_STYLE ('',( #167 ) ) ;
#46 = PRESENTATION_LAYER_ASSIGNMENT (  '', '', ( #159 ) ) ;
#47 = PRESENTATION_STYLE_ASSIGNMENT (( #77 ) ) ;
#48 = EDGE_LOOP ( 'NONE', ( #107, #267, #301, #294 ) ) ;
#49 = DIRECTION ( 'NONE',  ( -0.000000000000000000, -1.000000000000000000, -0.000000000000000000 ) ) ;
#50 = DIRECTION ( 'NONE',  ( -0.000000000000000000, -1.000000000000000000, -0.000000000000000000 ) ) ;
#51 = VECTOR ( 'NONE', #22, 39.37007874015748143 ) ;
#52 = PRESENTATION_LAYER_ASSIGNMENT (  '', '', ( #299 ) ) ;
#53 = LENGTH_MEASURE_WITH_UNIT ( LENGTH_MEASURE( 0.02539999999999999897 ), #1 );
#54 = DIRECTION ( 'NONE',  ( 1.000000000000000000, 1.227249464703778560E-16, 0.000000000000000000 ) ) ;
#55 = ORIENTED_EDGE ( 'NONE', *, *, #84, .T. ) ;
#56 = CARTESIAN_POINT ( 'NONE',  ( 1.224646799147352714E-16, 3.000000000000000444, 0.000000000000000000 ) ) ;
#57 = VERTEX_POINT ( 'NONE', #194 ) ;
#58 = DIRECTION ( 'NONE',  ( 0.000000000000000000, 0.000000000000000000, -1.000000000000000000 ) ) ;
#59 = CARTESIAN_POINT ( 'NONE',  ( -0.3124999999999996114, 3.000000000000000444, 0.000000000000000000 ) ) ;
#60 = DIRECTION ( 'NONE',  ( 0.000000000000000000, 0.000000000000000000, -1.000000000000000000 ) ) ;
#61 = STYLED_ITEM ( 'NONE', ( #224 ), #255 ) ;
#62 = SPHERICAL_SURFACE ( 'NONE', #129, 0.3125000000000000000 ) ;
#63 = CARTESIAN_POINT ( 'NONE',  ( -0.3124999999999990563, 0.7499999999999998890, 0.000000000000000000 ) ) ;
#64 = SURFACE_STYLE_USAGE ( .BOTH. , #91 ) ;
#65 = DIRECTION ( 'NONE',  ( -1.227249464703778560E-16, 1.000000000000000000, -0.000000000000000000 ) ) ;
#66 = DIRECTION ( 'NONE',  ( -1.227249464703778560E-16, 1.000000000000000000, -0.000000000000000000 ) ) ;
#67 = EDGE_CURVE ( 'NONE', #340, #104, #231, .T. ) ;
#68 = FACE_OUTER_BOUND ( 'NONE', #26, .T. ) ;
#69 =( CONVERSION_BASED_UNIT ( 'INCH', #126 ) LENGTH_UNIT ( ) NAMED_UNIT ( #295 ) );
#70 = DIMENSIONAL_EXPONENTS ( 1.000000000000000000, 0.000000000000000000, 0.000000000000000000, 0.000000000000000000, 0.000000000000000000, 0.000000000000000000, 0.000000000000000000 ) ;
#71 =( LENGTH_UNIT ( ) NAMED_UNIT ( * ) SI_UNIT ( $, .METRE. ) );
#72 = AXIS2_PLACEMENT_3D ( 'NONE', #242, #65, #148 ) ;
#73 = CARTESIAN_POINT ( 'NONE',  ( 0.000000000000000000, 0.000000000000000000, 0.000000000000000000 ) ) ;
#74 = CYLINDRICAL_SURFACE ( 'NONE', #97, 0.3124999999999998890 ) ;
#75 =( LENGTH_UNIT ( ) NAMED_UNIT ( * ) SI_UNIT ( $, .METRE. ) );
#76 = ORIENTED_EDGE ( 'NONE', *, *, #270, .F. ) ;
#77 = SURFACE_STYLE_USAGE ( .BOTH. , #189 ) ;
#78 = DIRECTION ( 'NONE',  ( 0.000000000000000000, -0.000000000000000000, 1.000000000000000000 ) ) ;
#79 =( CONVERSION_BASED_UNIT ( 'INCH', #345 ) LENGTH_UNIT ( ) NAMED_UNIT ( #128 ) );
#80 = PRESENTATION_LAYER_ASSIGNMENT (  '', '', ( #191 ) ) ;
#81 = COLOUR_RGB ( '',1.000000000000000000, 0.000000000000000000, 0.000000000000000000 ) ;
#82 = AXIS2_PLACEMENT_3D ( 'NONE', #18, #17, #42 ) ;
#83 = EDGE_LOOP ( 'NONE', ( #197, #144, #330, #274, #280 ) ) ;
#84 = EDGE_CURVE ( 'NONE', #104, #110, #265, .T. ) ;
#85 = SURFACE_STYLE_USAGE ( .BOTH. , #322 ) ;
#86 = SURFACE_STYLE_FILL_AREA ( #201 ) ;
#87 = CARTESIAN_POINT ( 'NONE',  ( 0.000000000000000000, 0.7499999999999998890, 0.000000000000000000 ) ) ;
#88 = UNCERTAINTY_MEASURE_WITH_UNIT (LENGTH_MEASURE( 1.000000000000000082E-05 ), #21, 'distance_accuracy_value', 'NONE');
#89 = MECHANICAL_DESIGN_GEOMETRIC_PRESENTATION_REPRESENTATION (  '', ( #43 ), #166 ) ;
#90 = AXIS2_PLACEMENT_3D ( 'NONE', #150, #262, #174 ) ;
#91 = SURFACE_SIDE_STYLE ('',( #328 ) ) ;
#92 =( NAMED_UNIT ( * ) PLANE_ANGLE_UNIT ( ) SI_UNIT ( $, .RADIAN. ) );
#93 = DIRECTION ( 'NONE',  ( 1.224646799147353207E-16, -0.000000000000000000, 1.000000000000000000 ) ) ;
#94 = ORIENTED_EDGE ( 'NONE', *, *, #331, .F. ) ;
#95 = CARTESIAN_POINT ( 'NONE',  ( -3.827021247335478926E-17, 0.3125000000000000000, 0.000000000000000000 ) ) ;
#96 = DIRECTION ( 'NONE',  ( -1.000000000000000000, 0.000000000000000000, 0.000000000000000000 ) ) ;
#97 = AXIS2_PLACEMENT_3D ( 'NONE', #275, #303, #212 ) ;
#98 = EDGE_CURVE ( 'NONE', #311, #340, #271, .T. ) ;
#99 = ADVANCED_FACE ( 'NONE', ( #23 ), #74, .T. ) ;
#100 = COLOUR_RGB ( '',1.000000000000000000, 0.000000000000000000, 0.000000000000000000 ) ;
#101 = PRESENTATION_LAYER_ASSIGNMENT (  '', '', ( #61 ) ) ;
#102 = FILL_AREA_STYLE_COLOUR ( '', #100 ) ;
#103 = SURFACE_STYLE_FILL_AREA ( #278 ) ;
#104 = VERTEX_POINT ( 'NONE', #182 ) ;
#105 = FILL_AREA_STYLE_COLOUR ( '', #273 ) ;
#106 = AXIS2_PLACEMENT_3D ( 'NONE', #343, #249, #54 ) ;
#107 = ORIENTED_EDGE ( 'NONE', *, *, #178, .T. ) ;
#108 = UNCERTAINTY_MEASURE_WITH_UNIT (LENGTH_MEASURE( 1.000000000000000082E-05 ), #236, 'distance_accuracy_value', 'NONE');
#109 = APPLICATION_CONTEXT ( 'automotive_design' ) ;
#110 = VERTEX_POINT ( 'NONE', #359 ) ;
#111 = DIRECTION ( 'NONE',  ( 0.000000000000000000, 1.000000000000000000, 0.000000000000000000 ) ) ;
#112 = CARTESIAN_POINT ( 'NONE',  ( -0.3124999999999994449, 3.000000000000000444, 0.000000000000000000 ) ) ;
#113 = VERTEX_POINT ( 'NONE', #214 ) ;
#114 = EDGE_CURVE ( 'NONE', #137, #372, #333, .T. ) ;
#115 = MECHANICAL_DESIGN_GEOMETRIC_PRESENTATION_REPRESENTATION (  '', ( #365 ), #155 ) ;
#116 = CYLINDRICAL_SURFACE ( 'NONE', #305, 0.3124999999999996114 ) ;
#117 = FACE_OUTER_BOUND ( 'NONE', #261, .T. ) ;
#118 = CARTESIAN_POINT ( 'NONE',  ( 0.3124999999999998890, 0.7499999999999998890, 3.827021247335475229E-17 ) ) ;
#119 = DIRECTION ( 'NONE',  ( -1.227249464703778560E-16, 1.000000000000000000, 0.000000000000000000 ) ) ;
#120 = PRODUCT_DEFINITION ( 'UNKNOWN', '', #186, #193 ) ;
#121 = CIRCLE ( 'NONE', #19, 0.3125000000000000000 ) ;
#122 = DIRECTION ( 'NONE',  ( -1.227249464703778560E-16, 1.000000000000000000, -0.000000000000000000 ) ) ;
#123 = DIRECTION ( 'NONE',  ( -1.000000000000000000, 0.000000000000000000, 0.000000000000000000 ) ) ;
#124 = CARTESIAN_POINT ( 'NONE',  ( 0.000000000000000000, 0.3125000000000000555, 0.000000000000000000 ) ) ;
#125 = FILL_AREA_STYLE ('',( #351 ) ) ;
#126 = LENGTH_MEASURE_WITH_UNIT ( LENGTH_MEASURE( 0.02539999999999999897 ), #152 );
#127 = ADVANCED_FACE ( 'NONE', ( #15 ), #204, .T. ) ;
#128 = DIMENSIONAL_EXPONENTS ( 1.000000000000000000, 0.000000000000000000, 0.000000000000000000, 0.000000000000000000, 0.000000000000000000, 0.000000000000000000, 0.000000000000000000 ) ;
#129 = AXIS2_PLACEMENT_3D ( 'NONE', #209, #329, #8 ) ;
#130 = DIMENSIONAL_EXPONENTS ( 1.000000000000000000, 0.000000000000000000, 0.000000000000000000, 0.000000000000000000, 0.000000000000000000, 0.000000000000000000, 0.000000000000000000 ) ;
#131 = UNCERTAINTY_MEASURE_WITH_UNIT (LENGTH_MEASURE( 1.000000000000000082E-05 ), #79, 'distance_accuracy_value', 'NONE');
#132 = PRODUCT_CONTEXT ( 'NONE', #219, 'mechanical' ) ;
#133 = CIRCLE ( 'NONE', #145, 0.3124999999999994449 ) ;
#134 = UNCERTAINTY_MEASURE_WITH_UNIT (LENGTH_MEASURE( 1.000000000000000082E-05 ), #37, 'distance_accuracy_value', 'NONE');
#135 = CARTESIAN_POINT ( 'NONE',  ( 0.000000000000000000, 0.000000000000000000, -0.3124999999999998890 ) ) ;
#136 = CARTESIAN_POINT ( 'NONE',  ( 3.827021247335477694E-17, 0.3125000000000000555, 0.3124999999999999445 ) ) ;
#137 = VERTEX_POINT ( 'NONE', #118 ) ;
#138 =( CONVERSION_BASED_UNIT ( 'INCH', #190 ) LENGTH_UNIT ( ) NAMED_UNIT ( #205 ) );
#139 = AXIS2_PLACEMENT_3D ( 'NONE', #87, #208, #58 ) ;
#140 = SURFACE_STYLE_FILL_AREA ( #223 ) ;
#141 = ADVANCED_FACE ( 'NONE', ( #117 ), #356, .F. ) ;
#142 = SURFACE_SIDE_STYLE ('',( #103 ) ) ;
#143 = FACE_OUTER_BOUND ( 'NONE', #14, .T. ) ;
#144 = ORIENTED_EDGE ( 'NONE', *, *, #331, .T. ) ;
#145 = AXIS2_PLACEMENT_3D ( 'NONE', #149, #244, #96 ) ;
#146 = SURFACE_STYLE_FILL_AREA ( #354 ) ;
#147 =( LENGTH_UNIT ( ) NAMED_UNIT ( * ) SI_UNIT ( $, .METRE. ) );
#148 = DIRECTION ( 'NONE',  ( -1.000000000000000000, 0.000000000000000000, 0.000000000000000000 ) ) ;
#149 = CARTESIAN_POINT ( 'NONE',  ( 3.985958094730854598E-16, 0.7499999999999998890, 0.000000000000000000 ) ) ;
#150 = CARTESIAN_POINT ( 'NONE',  ( 0.000000000000000000, 0.3125000000000000555, 0.000000000000000000 ) ) ;
#151 = ORIENTED_EDGE ( 'NONE', *, *, #154, .T. ) ;
#152 =( LENGTH_UNIT ( ) NAMED_UNIT ( * ) SI_UNIT ( $, .METRE. ) );
#153 = ADVANCED_FACE ( 'NONE', ( #68 ), #62, .T. ) ;
#154 = EDGE_CURVE ( 'NONE', #57, #113, #121, .T. ) ;
#155 =( GEOMETRIC_REPRESENTATION_CONTEXT ( 3 ) GLOBAL_UNCERTAINTY_ASSIGNED_CONTEXT ( ( #134 ) ) GLOBAL_UNIT_ASSIGNED_CONTEXT ( ( #37, #92, #199 ) ) REPRESENTATION_CONTEXT ( 'NONE', 'WORKASPACE' ) );
#156 = UNCERTAINTY_MEASURE_WITH_UNIT (LENGTH_MEASURE( 1.000000000000000082E-05 ), #69, 'distance_accuracy_value', 'NONE');
#157 = DIMENSIONAL_EXPONENTS ( 1.000000000000000000, 0.000000000000000000, 0.000000000000000000, 0.000000000000000000, 0.000000000000000000, 0.000000000000000000, 0.000000000000000000 ) ;
#158 = SURFACE_STYLE_USAGE ( .BOTH. , #218 ) ;
#159 = STYLED_ITEM ( 'NONE', ( #47 ), #99 ) ;
#160 = PRODUCT ( '49331', '49331', '', ( #132 ) ) ;
#161 = CARTESIAN_POINT ( 'NONE',  ( 0.000000000000000000, 0.3125000000000000555, 0.000000000000000000 ) ) ;
#162 =( NAMED_UNIT ( * ) SI_UNIT ( $, .STERADIAN. ) SOLID_ANGLE_UNIT ( ) );
#163 = EDGE_LOOP ( 'NONE', ( #326, #4 ) ) ;
#164 = VERTEX_POINT ( 'NONE', #59 ) ;
#165 = CARTESIAN_POINT ( 'NONE',  ( 0.000000000000000000, 0.7499999999999998890, 0.000000000000000000 ) ) ;
#166 =( GEOMETRIC_REPRESENTATION_CONTEXT ( 3 ) GLOBAL_UNCERTAINTY_ASSIGNED_CONTEXT ( ( #156 ) ) GLOBAL_UNIT_ASSIGNED_CONTEXT ( ( #69, #308, #213 ) ) REPRESENTATION_CONTEXT ( 'NONE', 'WORKASPACE' ) );
#167 = SURFACE_STYLE_FILL_AREA ( #315 ) ;
#168 = LINE ( 'NONE', #112, #51 ) ;
#169 = ORIENTED_EDGE ( 'NONE', *, *, #178, .F. ) ;
#170 = DIRECTION ( 'NONE',  ( 0.000000000000000000, 0.000000000000000000, -1.000000000000000000 ) ) ;
#171 =( NAMED_UNIT ( * ) SI_UNIT ( $, .STERADIAN. ) SOLID_ANGLE_UNIT ( ) );
#172 = DIRECTION ( 'NONE',  ( -1.227249464703778560E-16, 1.000000000000000000, -0.000000000000000000 ) ) ;
#173 =( GEOMETRIC_REPRESENTATION_CONTEXT ( 3 ) GLOBAL_UNCERTAINTY_ASSIGNED_CONTEXT ( ( #88 ) ) GLOBAL_UNIT_ASSIGNED_CONTEXT ( ( #21, #268, #162 ) ) REPRESENTATION_CONTEXT ( 'NONE', 'WORKASPACE' ) );
#174 = DIRECTION ( 'NONE',  ( 0.000000000000000000, 0.000000000000000000, -1.000000000000000000 ) ) ;
#175 = LINE ( 'NONE', #200, #25 ) ;
#176 = PRESENTATION_STYLE_ASSIGNMENT (( #64 ) ) ;
#177 = DIRECTION ( 'NONE',  ( -1.000000000000000000, -1.227249464703778560E-16, 0.000000000000000000 ) ) ;
#178 = EDGE_CURVE ( 'NONE', #324, #137, #226, .T. ) ;
#179 = COLOUR_RGB ( '',0.7921568627450980005, 0.8196078431372548767, 0.9333333333333333481 ) ;
#180 = LENGTH_MEASURE_WITH_UNIT ( LENGTH_MEASURE( 0.02539999999999999897 ), #10 );
#181 = ORIENTED_EDGE ( 'NONE', *, *, #341, .T. ) ;
#182 = CARTESIAN_POINT ( 'NONE',  ( 0.000000000000000000, 0.3125000000000000555, -0.3124999999999999445 ) ) ;
#183 = DIMENSIONAL_EXPONENTS ( 1.000000000000000000, 0.000000000000000000, 0.000000000000000000, 0.000000000000000000, 0.000000000000000000, 0.000000000000000000, 0.000000000000000000 ) ;
#184 = MECHANICAL_DESIGN_GEOMETRIC_PRESENTATION_REPRESENTATION (  '', ( #159 ), #364 ) ;
#185 = AXIS2_PLACEMENT_3D ( 'NONE', #317, #111, #78 ) ;
#186 = PRODUCT_DEFINITION_FORMATION_WITH_SPECIFIED_SOURCE ( 'ANY', '', #160, .NOT_KNOWN. ) ;
#187 = PRODUCT_RELATED_PRODUCT_CATEGORY ( 'part', '', ( #160 ) ) ;
#188 = EDGE_CURVE ( 'NONE', #137, #324, #133, .T. ) ;
#189 = SURFACE_SIDE_STYLE ('',( #140 ) ) ;
#190 = LENGTH_MEASURE_WITH_UNIT ( LENGTH_MEASURE( 0.02539999999999999897 ), #75 );
#191 = STYLED_ITEM ( 'NONE', ( #260 ), #153 ) ;
#192 = ORIENTED_EDGE ( 'NONE', *, *, #67, .T. ) ;
#193 = PRODUCT_DEFINITION_CONTEXT ( 'detailed design', #109, 'design' ) ;
#194 = CARTESIAN_POINT ( 'NONE',  ( -0.3125000000000000000, 0.3125000000000000555, 3.827021247335477694E-17 ) ) ;
#195 = FACE_OUTER_BOUND ( 'NONE', #232, .T. ) ;
#196 = AXIS2_PLACEMENT_3D ( 'NONE', #95, #348, #235 ) ;
#197 = ORIENTED_EDGE ( 'NONE', *, *, #269, .T. ) ;
#198 =( NAMED_UNIT ( * ) SI_UNIT ( $, .STERADIAN. ) SOLID_ANGLE_UNIT ( ) );
#199 =( NAMED_UNIT ( * ) SI_UNIT ( $, .STERADIAN. ) SOLID_ANGLE_UNIT ( ) );
#200 = CARTESIAN_POINT ( 'NONE',  ( 3.827021247335477078E-17, 0.000000000000000000, 0.3124999999999998890 ) ) ;
#201 = FILL_AREA_STYLE ('',( #33 ) ) ;
#202 = ORIENTED_EDGE ( 'NONE', *, *, #312, .T. ) ;
#203 = CIRCLE ( 'NONE', #139, 0.3124999999999998890 ) ;
#204 = CYLINDRICAL_SURFACE ( 'NONE', #298, 0.3124999999999996114 ) ;
#205 = DIMENSIONAL_EXPONENTS ( 1.000000000000000000, 0.000000000000000000, 0.000000000000000000, 0.000000000000000000, 0.000000000000000000, 0.000000000000000000, 0.000000000000000000 ) ;
#206 = DIRECTION ( 'NONE',  ( -1.000000000000000000, 0.000000000000000000, 0.000000000000000000 ) ) ;
#207 = ORIENTED_EDGE ( 'NONE', *, *, #98, .T. ) ;
#208 = DIRECTION ( 'NONE',  ( -0.000000000000000000, -1.000000000000000000, -0.000000000000000000 ) ) ;
#209 = CARTESIAN_POINT ( 'NONE',  ( -3.827021247335478926E-17, 0.3125000000000000000, 0.000000000000000000 ) ) ;
#210 = COLOUR_RGB ( '',1.000000000000000000, 0.000000000000000000, 0.000000000000000000 ) ;
#211 = MECHANICAL_DESIGN_GEOMETRIC_PRESENTATION_REPRESENTATION (  '', ( #61 ), #277 ) ;
#212 = DIRECTION ( 'NONE',  ( 0.000000000000000000, 0.000000000000000000, -1.000000000000000000 ) ) ;
#213 =( NAMED_UNIT ( * ) SI_UNIT ( $, .STERADIAN. ) SOLID_ANGLE_UNIT ( ) );
#214 = CARTESIAN_POINT ( 'NONE',  ( -1.913510623667739463E-17, 0.000000000000000000, 0.000000000000000000 ) ) ;
#215 = DIRECTION ( 'NONE',  ( -0.000000000000000000, -1.000000000000000000, -0.000000000000000000 ) ) ;
#216 = SHAPE_DEFINITION_REPRESENTATION ( #222, #292 ) ;
#217 = COLOUR_RGB ( '',0.7921568627450980005, 0.8196078431372548767, 0.9333333333333333481 ) ;
#218 = SURFACE_SIDE_STYLE ('',( #220 ) ) ;
#219 = APPLICATION_CONTEXT ( 'automotive_design' ) ;
#220 = SURFACE_STYLE_FILL_AREA ( #337 ) ;
#221 = ADVANCED_FACE ( 'NONE', ( #263 ), #11, .T. ) ;
#222 = PRODUCT_DEFINITION_SHAPE ( 'NONE', 'NONE',  #120 ) ;
#223 = FILL_AREA_STYLE ('',( #102 ) ) ;
#224 = PRESENTATION_STYLE_ASSIGNMENT (( #282 ) ) ;
#225 = CARTESIAN_POINT ( 'NONE',  ( 0.3124999999999997224, 3.000000000000000444, 3.827021247335473996E-17 ) ) ;
#226 = CIRCLE ( 'NONE', #358, 0.3124999999999994449 ) ;
#227 = ORIENTED_EDGE ( 'NONE', *, *, #154, .F. ) ;
#228 = FACE_OUTER_BOUND ( 'NONE', #163, .T. ) ;
#229 = MANIFOLD_SOLID_BREP ( 'Revolve - Cutting Edge', #5 ) ;
#230 = ADVANCED_FACE ( 'NONE', ( #195 ), #246, .F. ) ;
#231 = LINE ( 'NONE', #135, #272 ) ;
#232 = EDGE_LOOP ( 'NONE', ( #238, #320 ) ) ;
#233 =( NAMED_UNIT ( * ) PLANE_ANGLE_UNIT ( ) SI_UNIT ( $, .RADIAN. ) );
#234 = MANIFOLD_SOLID_BREP ( 'Revolve - Tool Body (Straight Shanked)', #12 ) ;
#235 = DIRECTION ( 'NONE',  ( 1.000000000000000000, 0.000000000000000000, 0.000000000000000000 ) ) ;
#236 =( CONVERSION_BASED_UNIT ( 'INCH', #349 ) LENGTH_UNIT ( ) NAMED_UNIT ( #20 ) );
#237 = DIRECTION ( 'NONE',  ( -1.000000000000000000, 0.000000000000000000, 0.000000000000000000 ) ) ;
#238 = ORIENTED_EDGE ( 'NONE', *, *, #307, .T. ) ;
#239 = AXIS2_PLACEMENT_3D ( 'NONE', #161, #49, #248 ) ;
#240 = CIRCLE ( 'NONE', #72, 0.3124999999999997224 ) ;
#241 =( NAMED_UNIT ( * ) SI_UNIT ( $, .STERADIAN. ) SOLID_ANGLE_UNIT ( ) );
#242 = CARTESIAN_POINT ( 'NONE',  ( 1.224646799147352714E-16, 3.000000000000000444, 0.000000000000000000 ) ) ;
#243 = CARTESIAN_POINT ( 'NONE',  ( 0.000000000000000000, 0.3125000000000000555, 0.000000000000000000 ) ) ;
#244 = DIRECTION ( 'NONE',  ( -1.227249464703778560E-16, 1.000000000000000000, -0.000000000000000000 ) ) ;
#245 = CIRCLE ( 'NONE', #40, 0.3124999999999997224 ) ;
#246 = PLANE ( 'NONE',  #106 ) ;
#247 = CIRCLE ( 'NONE', #24, 0.3125000000000000000 ) ;
#248 = DIRECTION ( 'NONE',  ( 0.000000000000000000, 0.000000000000000000, -1.000000000000000000 ) ) ;
#249 = DIRECTION ( 'NONE',  ( 1.227249464703778560E-16, -1.000000000000000000, 0.000000000000000000 ) ) ;
#250 = ORIENTED_EDGE ( 'NONE', *, *, #362, .F. ) ;
#251 = SURFACE_STYLE_USAGE ( .BOTH. , #45 ) ;
#252 =( GEOMETRIC_REPRESENTATION_CONTEXT ( 3 ) GLOBAL_UNCERTAINTY_ASSIGNED_CONTEXT ( ( #108 ) ) GLOBAL_UNIT_ASSIGNED_CONTEXT ( ( #236, #13, #171 ) ) REPRESENTATION_CONTEXT ( 'NONE', 'WORKASPACE' ) );
#253 = VERTEX_POINT ( 'NONE', #136 ) ;
#254 = DIRECTION ( 'NONE',  ( -1.000000000000000000, 0.000000000000000000, 0.000000000000000000 ) ) ;
#255 = ADVANCED_FACE ( 'NONE', ( #228 ), #373, .T. ) ;
#256 = SURFACE_SIDE_STYLE ('',( #86 ) ) ;
#257 = ADVANCED_FACE ( 'NONE', ( #143 ), #28, .T. ) ;
#258 = PRESENTATION_LAYER_ASSIGNMENT (  '', '', ( #365 ) ) ;
#259 = ORIENTED_EDGE ( 'NONE', *, *, #302, .F. ) ;
#260 = PRESENTATION_STYLE_ASSIGNMENT (( #355 ) ) ;
#261 = EDGE_LOOP ( 'NONE', ( #169, #288 ) ) ;
#262 = DIRECTION ( 'NONE',  ( -0.000000000000000000, -1.000000000000000000, -0.000000000000000000 ) ) ;
#263 = FACE_OUTER_BOUND ( 'NONE', #34, .T. ) ;
#264 = CARTESIAN_POINT ( 'NONE',  ( 3.985958094730854598E-16, 0.7499999999999998890, 0.000000000000000000 ) ) ;
#265 = CIRCLE ( 'NONE', #239, 0.3124999999999999445 ) ;
#266 = DIRECTION ( 'NONE',  ( -0.000000000000000000, -1.000000000000000000, -0.000000000000000000 ) ) ;
#267 = ORIENTED_EDGE ( 'NONE', *, *, #114, .T. ) ;
#268 =( NAMED_UNIT ( * ) PLANE_ANGLE_UNIT ( ) SI_UNIT ( $, .RADIAN. ) );
#269 = EDGE_CURVE ( 'NONE', #340, #311, #203, .T. ) ;
#270 = EDGE_CURVE ( 'NONE', #372, #164, #245, .T. ) ;
#271 = CIRCLE ( 'NONE', #370, 0.3124999999999998890 ) ;
#272 = VECTOR ( 'NONE', #313, 39.37007874015748143 ) ;
#273 = COLOUR_RGB ( '',1.000000000000000000, 0.000000000000000000, 0.000000000000000000 ) ;
#274 = ORIENTED_EDGE ( 'NONE', *, *, #84, .F. ) ;
#275 = CARTESIAN_POINT ( 'NONE',  ( 0.000000000000000000, 0.000000000000000000, 0.000000000000000000 ) ) ;
#276 = LENGTH_MEASURE_WITH_UNIT ( LENGTH_MEASURE( 0.02539999999999999897 ), #71 );
#277 =( GEOMETRIC_REPRESENTATION_CONTEXT ( 3 ) GLOBAL_UNCERTAINTY_ASSIGNED_CONTEXT ( ( #338 ) ) GLOBAL_UNIT_ASSIGNED_CONTEXT ( ( #138, #279, #369 ) ) REPRESENTATION_CONTEXT ( 'NONE', 'WORKASPACE' ) );
#278 = FILL_AREA_STYLE ('',( #105 ) ) ;
#279 =( NAMED_UNIT ( * ) PLANE_ANGLE_UNIT ( ) SI_UNIT ( $, .RADIAN. ) );
#280 = ORIENTED_EDGE ( 'NONE', *, *, #67, .F. ) ;
#281 = ORIENTED_EDGE ( 'NONE', *, *, #114, .F. ) ;
#282 = SURFACE_STYLE_USAGE ( .BOTH. , #142 ) ;
#283 = ORIENTED_EDGE ( 'NONE', *, *, #312, .F. ) ;
#284 = COLOUR_RGB ( '',1.000000000000000000, 0.000000000000000000, 0.000000000000000000 ) ;
#285 = AXIS2_PLACEMENT_3D ( 'NONE', #243, #7, #60 ) ;
#286 = PRESENTATION_STYLE_ASSIGNMENT (( #251 ) ) ;
#287 = PRESENTATION_STYLE_ASSIGNMENT (( #85 ) ) ;
#288 = ORIENTED_EDGE ( 'NONE', *, *, #188, .F. ) ;
#289 = DIRECTION ( 'NONE',  ( -1.227249464703778560E-16, 1.000000000000000000, -0.000000000000000000 ) ) ;
#290 = CARTESIAN_POINT ( 'NONE',  ( 3.985958094730854598E-16, 0.7499999999999998890, 0.000000000000000000 ) ) ;
#291 = CIRCLE ( 'NONE', #339, 0.3124999999999999445 ) ;
#292 = ADVANCED_BREP_SHAPE_REPRESENTATION ( '49331', ( #229, #234, #82 ), #319 ) ;
#293 = FACE_OUTER_BOUND ( 'NONE', #48, .T. ) ;
#294 = ORIENTED_EDGE ( 'NONE', *, *, #3, .F. ) ;
#295 = DIMENSIONAL_EXPONENTS ( 1.000000000000000000, 0.000000000000000000, 0.000000000000000000, 0.000000000000000000, 0.000000000000000000, 0.000000000000000000, 0.000000000000000000 ) ;
#296 = CARTESIAN_POINT ( 'NONE',  ( 1.224646799147352714E-16, 3.000000000000000444, 0.000000000000000000 ) ) ;
#297 = DIRECTION ( 'NONE',  ( -0.000000000000000000, -1.000000000000000000, -0.000000000000000000 ) ) ;
#298 = AXIS2_PLACEMENT_3D ( 'NONE', #344, #289, #123 ) ;
#299 = STYLED_ITEM ( 'NONE', ( #361 ), #229 ) ;
#300 =( NAMED_UNIT ( * ) PLANE_ANGLE_UNIT ( ) SI_UNIT ( $, .RADIAN. ) );
#301 = ORIENTED_EDGE ( 'NONE', *, *, #307, .F. ) ;
#302 = EDGE_CURVE ( 'NONE', #110, #113, #247, .T. ) ;
#303 = DIRECTION ( 'NONE',  ( -0.000000000000000000, -1.000000000000000000, -0.000000000000000000 ) ) ;
#304 = UNCERTAINTY_MEASURE_WITH_UNIT (LENGTH_MEASURE( 1.000000000000000082E-05 ), #342, 'distance_accuracy_value', 'NONE');
#305 = AXIS2_PLACEMENT_3D ( 'NONE', #56, #346, #237 ) ;
#306 =( NAMED_UNIT ( * ) SI_UNIT ( $, .STERADIAN. ) SOLID_ANGLE_UNIT ( ) );
#307 = EDGE_CURVE ( 'NONE', #164, #372, #240, .T. ) ;
#308 =( NAMED_UNIT ( * ) PLANE_ANGLE_UNIT ( ) SI_UNIT ( $, .RADIAN. ) );
#309 = UNCERTAINTY_MEASURE_WITH_UNIT (LENGTH_MEASURE( 1.000000000000000082E-05 ), #332, 'distance_accuracy_value', 'NONE');
#310 = PRESENTATION_LAYER_ASSIGNMENT (  '', '', ( #32 ) ) ;
#311 = VERTEX_POINT ( 'NONE', #325 ) ;
#312 = EDGE_CURVE ( 'NONE', #57, #104, #291, .T. ) ;
#313 = DIRECTION ( 'NONE',  ( -0.000000000000000000, -1.000000000000000000, -0.000000000000000000 ) ) ;
#314 = EDGE_LOOP ( 'NONE', ( #281, #27, #29, #76 ) ) ;
#315 = FILL_AREA_STYLE ('',( #2 ) ) ;
#316 =( NAMED_UNIT ( * ) PLANE_ANGLE_UNIT ( ) SI_UNIT ( $, .RADIAN. ) );
#317 = CARTESIAN_POINT ( 'NONE',  ( 0.000000000000000000, 0.7499999999999998890, 0.000000000000000000 ) ) ;
#318 = AXIS2_PLACEMENT_3D ( 'NONE', #73, #215, #334 ) ;
#319 =( GEOMETRIC_REPRESENTATION_CONTEXT ( 3 ) GLOBAL_UNCERTAINTY_ASSIGNED_CONTEXT ( ( #309 ) ) GLOBAL_UNIT_ASSIGNED_CONTEXT ( ( #332, #300, #306 ) ) REPRESENTATION_CONTEXT ( 'NONE', 'WORKASPACE' ) );
#320 = ORIENTED_EDGE ( 'NONE', *, *, #270, .T. ) ;
#321 = CARTESIAN_POINT ( 'NONE',  ( -3.827021247335478926E-17, 0.3125000000000000000, 0.000000000000000000 ) ) ;
#322 = SURFACE_SIDE_STYLE ('',( #146 ) ) ;
#323 = MECHANICAL_DESIGN_GEOMETRIC_PRESENTATION_REPRESENTATION (  '', ( #299 ), #173 ) ;
#324 = VERTEX_POINT ( 'NONE', #63 ) ;
#325 = CARTESIAN_POINT ( 'NONE',  ( 3.827021247335477078E-17, 0.7499999999999998890, 0.3124999999999998890 ) ) ;
#326 = ORIENTED_EDGE ( 'NONE', *, *, #269, .F. ) ;
#327 = LENGTH_MEASURE_WITH_UNIT ( LENGTH_MEASURE( 0.02539999999999999897 ), #38 );
#328 = SURFACE_STYLE_FILL_AREA ( #125 ) ;
#329 = DIRECTION ( 'NONE',  ( 0.000000000000000000, 0.000000000000000000, 1.000000000000000000 ) ) ;
#330 = ORIENTED_EDGE ( 'NONE', *, *, #341, .F. ) ;
#331 = EDGE_CURVE ( 'NONE', #311, #253, #175, .T. ) ;
#332 =( CONVERSION_BASED_UNIT ( 'INCH', #180 ) LENGTH_UNIT ( ) NAMED_UNIT ( #157 ) );
#333 = LINE ( 'NONE', #225, #39 ) ;
#334 = DIRECTION ( 'NONE',  ( 0.000000000000000000, 0.000000000000000000, -1.000000000000000000 ) ) ;
#335 = PRESENTATION_LAYER_ASSIGNMENT (  '', '', ( #43 ) ) ;
#336 = CIRCLE ( 'NONE', #285, 0.3124999999999999445 ) ;
#337 = FILL_AREA_STYLE ('',( #360 ) ) ;
#338 = UNCERTAINTY_MEASURE_WITH_UNIT (LENGTH_MEASURE( 1.000000000000000082E-05 ), #138, 'distance_accuracy_value', 'NONE');
#339 = AXIS2_PLACEMENT_3D ( 'NONE', #124, #297, #31 ) ;
#340 = VERTEX_POINT ( 'NONE', #6 ) ;
#341 = EDGE_CURVE ( 'NONE', #110, #253, #336, .T. ) ;
#342 =( CONVERSION_BASED_UNIT ( 'INCH', #53 ) LENGTH_UNIT ( ) NAMED_UNIT ( #130 ) );
#343 = CARTESIAN_POINT ( 'NONE',  ( 0.3124999999999998890, 3.000000000000000444, 0.000000000000000000 ) ) ;
#344 = CARTESIAN_POINT ( 'NONE',  ( 1.224646799147352714E-16, 3.000000000000000444, 0.000000000000000000 ) ) ;
#345 = LENGTH_MEASURE_WITH_UNIT ( LENGTH_MEASURE( 0.02539999999999999897 ), #367 );
#346 = DIRECTION ( 'NONE',  ( -1.227249464703778560E-16, 1.000000000000000000, -0.000000000000000000 ) ) ;
#347 = DIRECTION ( 'NONE',  ( 1.000000000000000000, 0.000000000000000000, -1.224646799147353207E-16 ) ) ;
#348 = DIRECTION ( 'NONE',  ( 0.000000000000000000, 0.000000000000000000, 1.000000000000000000 ) ) ;
#349 = LENGTH_MEASURE_WITH_UNIT ( LENGTH_MEASURE( 0.02539999999999999897 ), #147 );
#350 =( GEOMETRIC_REPRESENTATION_CONTEXT ( 3 ) GLOBAL_UNCERTAINTY_ASSIGNED_CONTEXT ( ( #131 ) ) GLOBAL_UNIT_ASSIGNED_CONTEXT ( ( #79, #233, #198 ) ) REPRESENTATION_CONTEXT ( 'NONE', 'WORKASPACE' ) );
#351 = FILL_AREA_STYLE_COLOUR ( '', #284 ) ;
#352 = CIRCLE ( 'NONE', #90, 0.3124999999999999445 ) ;
#353 = ORIENTED_EDGE ( 'NONE', *, *, #302, .T. ) ;
#354 = FILL_AREA_STYLE ('',( #16 ) ) ;
#355 = SURFACE_STYLE_USAGE ( .BOTH. , #256 ) ;
#356 = PLANE ( 'NONE',  #357 ) ;
#357 = AXIS2_PLACEMENT_3D ( 'NONE', #264, #119, #177 ) ;
#358 = AXIS2_PLACEMENT_3D ( 'NONE', #290, #66, #36 ) ;
#359 = CARTESIAN_POINT ( 'NONE',  ( 0.3124999999999999445, 0.3125000000000000555, 0.000000000000000000 ) ) ;
#360 = FILL_AREA_STYLE_COLOUR ( '', #217 ) ;
#361 = PRESENTATION_STYLE_ASSIGNMENT (( #158 ) ) ;
#362 = EDGE_CURVE ( 'NONE', #253, #57, #352, .T. ) ;
#363 = APPLICATION_PROTOCOL_DEFINITION ( 'draft international standard', 'automotive_design', 1998, #109 ) ;
#364 =( GEOMETRIC_REPRESENTATION_CONTEXT ( 3 ) GLOBAL_UNCERTAINTY_ASSIGNED_CONTEXT ( ( #304 ) ) GLOBAL_UNIT_ASSIGNED_CONTEXT ( ( #342, #316, #241 ) ) REPRESENTATION_CONTEXT ( 'NONE', 'WORKASPACE' ) );
#365 = STYLED_ITEM ( 'NONE', ( #287 ), #257 ) ;
#366 = DIRECTION ( 'NONE',  ( 0.000000000000000000, 0.000000000000000000, -1.000000000000000000 ) ) ;
#367 =( LENGTH_UNIT ( ) NAMED_UNIT ( * ) SI_UNIT ( $, .METRE. ) );
#368 = ADVANCED_FACE ( 'NONE', ( #293 ), #116, .T. ) ;
#369 =( NAMED_UNIT ( * ) SI_UNIT ( $, .STERADIAN. ) SOLID_ANGLE_UNIT ( ) );
#370 = AXIS2_PLACEMENT_3D ( 'NONE', #165, #50, #366 ) ;
#371 = MECHANICAL_DESIGN_GEOMETRIC_PRESENTATION_REPRESENTATION (  '', ( #32 ), #350 ) ;
#372 = VERTEX_POINT ( 'NONE', #35 ) ;
#373 = PLANE ( 'NONE',  #185 ) ;
ENDSEC;
END-ISO-10303-21;
