ISO-10303-21;
HEADER;
FILE_DESCRIPTION (( 'STEP AP214' ),
    '1' );
FILE_NAME ('Micro_EMHM-120-6.STEP',
    '2021-09-01T17:26:16',
    ( '' ),
    ( '' ),
    'SwSTEP 2.0',
    'SolidWorks 2020',
    '' );
FILE_SCHEMA (( 'AUTOMOTIVE_DESIGN' ));
ENDSEC;

DATA;
#1 = CARTESIAN_POINT ( 'NONE',  ( 1.207001687638887227E-16, 0.0000000000000000000, 0.9855916730270707360 ) ) ;
#2 = ORIENTED_EDGE ( 'NONE', *, *, #168, .F. ) ;
#3 = DIRECTION ( 'NONE',  ( 1.000000000000000000, 0.0000000000000000000, 0.0000000000000000000 ) ) ;
#4 = PRESENTATION_STYLE_ASSIGNMENT (( #245 ) ) ;
#5 = DIRECTION ( 'NONE',  ( 1.000000000000000000, 0.0000000000000000000, -0.0000000000000000000 ) ) ;
#6 = EDGE_LOOP ( 'NONE', ( #9, #86, #68, #75 ) ) ;
#7 = CIRCLE ( 'NONE', #49, 0.2359842795000000049 ) ;
#8 = CARTESIAN_POINT ( 'NONE',  ( -0.2359842795000000049, 0.0000000000000000000, 5.779947850775388659E-17 ) ) ;
#9 = ORIENTED_EDGE ( 'NONE', *, *, #224, .F. ) ;
#10 = EDGE_CURVE ( 'NONE', #33, #173, #214, .T. ) ;
#11 = SURFACE_SIDE_STYLE ('',( #218 ) ) ;
#12 = CARTESIAN_POINT ( 'NONE',  ( 0.0000000000000000000, 0.0000000000000000000, 0.0000000000000000000 ) ) ;
#13 = EDGE_CURVE ( 'NONE', #172, #149, #258, .T. ) ;
#14 = SHAPE_DEFINITION_REPRESENTATION ( #254, #48 ) ;
#15 = VECTOR ( 'NONE', #247, 39.37007874015747433 ) ;
#16 = CARTESIAN_POINT ( 'NONE',  ( 0.0000000000000000000, 0.0000000000000000000, 3.267717000000000649 ) ) ;
#17 = CARTESIAN_POINT ( 'NONE',  ( 0.0000000000000000000, 0.0000000000000000000, 0.0000000000000000000 ) ) ;
#18 = CYLINDRICAL_SURFACE ( 'NONE', #266, 0.2359842795000000326 ) ;
#19 = AXIS2_PLACEMENT_3D ( 'NONE', #295, #159, #26 ) ;
#20 = AXIS2_PLACEMENT_3D ( 'NONE', #205, #128, #104 ) ;
#21 = ORIENTED_EDGE ( 'NONE', *, *, #146, .T. ) ;
#22 = AXIS2_PLACEMENT_3D ( 'NONE', #174, #217, #222 ) ;
#23 = APPLICATION_PROTOCOL_DEFINITION ( 'draft international standard', 'automotive_design', 1998, #138 ) ;
#24 = CARTESIAN_POINT ( 'NONE',  ( 1.207001687638887227E-16, 0.0000000000000000000, 0.9855916730270707360 ) ) ;
#25 = DIRECTION ( 'NONE',  ( -1.224646799147353454E-16, -0.0000000000000000000, -1.000000000000000000 ) ) ;
#26 = DIRECTION ( 'NONE',  ( -1.000000000000000000, 0.0000000000000000000, 0.0000000000000000000 ) ) ;
#27 = CARTESIAN_POINT ( 'NONE',  ( 0.2359842795000000049, 2.889973925387693713E-17, -3.791200677927629740E-33 ) ) ;
#28 = VERTEX_POINT ( 'NONE', #44 ) ;
#29 = PLANE ( 'NONE',  #196 ) ;
#30 = CARTESIAN_POINT ( 'NONE',  ( 0.0000000000000000000, 0.0000000000000000000, 3.252717000000002301 ) ) ;
#31 = ORIENTED_EDGE ( 'NONE', *, *, #154, .T. ) ;
#32 = CARTESIAN_POINT ( 'NONE',  ( 1.205361061354380875E-16, 0.0000000000000000000, 0.9842519999999999047 ) ) ;
#33 = VERTEX_POINT ( 'NONE', #160 ) ;
#34 = EDGE_LOOP ( 'NONE', ( #139, #287 ) ) ;
#35 = LENGTH_MEASURE_WITH_UNIT ( LENGTH_MEASURE( 0.02539999999999999897 ), #265 );
#36 = ORIENTED_EDGE ( 'NONE', *, *, #212, .F. ) ;
#37 = FILL_AREA_STYLE ('',( #248 ) ) ;
#38 = DIRECTION ( 'NONE',  ( 1.000000000000000000, 0.0000000000000000000, 0.0000000000000000000 ) ) ;
#39 = CIRCLE ( 'NONE', #42, 0.2359842795000000326 ) ;
#40 = DIMENSIONAL_EXPONENTS ( 1.000000000000000000, 0.0000000000000000000, 0.0000000000000000000, 0.0000000000000000000, 0.0000000000000000000, 0.0000000000000000000, 0.0000000000000000000 ) ;
#41 = LINE ( 'NONE', #64, #112 ) ;
#42 = AXIS2_PLACEMENT_3D ( 'NONE', #32, #283, #263 ) ;
#43 = CARTESIAN_POINT ( 'NONE',  ( 0.2362205000000001665, 2.892866792179874496E-17, 0.9855916730270707360 ) ) ;
#44 = CARTESIAN_POINT ( 'NONE',  ( -0.2212205000000019295, 0.0000000000000000000, 3.267717000000000649 ) ) ;
#45 = ORIENTED_EDGE ( 'NONE', *, *, #224, .T. ) ;
#46 = EDGE_CURVE ( 'NONE', #264, #53, #41, .T. ) ;
#47 = FACE_OUTER_BOUND ( 'NONE', #249, .T. ) ;
#48 = ADVANCED_BREP_SHAPE_REPRESENTATION ( 'Micro_EMHM-120-6', ( #179, #209 ), #63 ) ;
#49 = AXIS2_PLACEMENT_3D ( 'NONE', #230, #25, #110 ) ;
#50 = EDGE_CURVE ( 'NONE', #149, #238, #93, .T. ) ;
#51 = CARTESIAN_POINT ( 'NONE',  ( 0.2362204999999999999, 2.892866792179872647E-17, 3.267717000000000649 ) ) ;
#52 = DIRECTION ( 'NONE',  ( 1.224646799147353454E-16, 0.0000000000000000000, 1.000000000000000000 ) ) ;
#53 = VERTEX_POINT ( 'NONE', #27 ) ;
#54 = CARTESIAN_POINT ( 'NONE',  ( 1.205361061354380875E-16, 0.0000000000000000000, 0.9842519999999999047 ) ) ;
#55 = ORIENTED_EDGE ( 'NONE', *, *, #176, .F. ) ;
#56 = LINE ( 'NONE', #195, #158 ) ;
#57 = DIRECTION ( 'NONE',  ( 1.000000000000000000, 0.0000000000000000000, 0.0000000000000000000 ) ) ;
#58 = ORIENTED_EDGE ( 'NONE', *, *, #99, .T. ) ;
#59 = CONICAL_SURFACE ( 'NONE', #268, 0.2212205000000019295, 0.7853981633974482790 ) ;
#60 = AXIS2_PLACEMENT_3D ( 'NONE', #54, #143, #199 ) ;
#61 = DIRECTION ( 'NONE',  ( -1.224646799147353454E-16, -0.0000000000000000000, -1.000000000000000000 ) ) ;
#62 = DIRECTION ( 'NONE',  ( -1.000000000000000000, 0.0000000000000000000, 1.224646799147353454E-16 ) ) ;
#63 =( GEOMETRIC_REPRESENTATION_CONTEXT ( 3 ) GLOBAL_UNCERTAINTY_ASSIGNED_CONTEXT ( ( #292 ) ) GLOBAL_UNIT_ASSIGNED_CONTEXT ( ( #102, #152, #288 ) ) REPRESENTATION_CONTEXT ( 'NONE', 'WORKASPACE' ) );
#64 = CARTESIAN_POINT ( 'NONE',  ( 0.2359842795000000326, 2.889973925387694330E-17, -2.889973925387694330E-17 ) ) ;
#65 = DIRECTION ( 'NONE',  ( -0.7071067811865474617, 0.0000000000000000000, -0.7071067811865474617 ) ) ;
#66 = PLANE ( 'NONE',  #144 ) ;
#67 = CARTESIAN_POINT ( 'NONE',  ( 1.205361061354380875E-16, 0.0000000000000000000, 0.9842519999999999047 ) ) ;
#68 = ORIENTED_EDGE ( 'NONE', *, *, #200, .T. ) ;
#69 = PRODUCT_RELATED_PRODUCT_CATEGORY ( 'part', '', ( #184 ) ) ;
#70 = FACE_OUTER_BOUND ( 'NONE', #220, .T. ) ;
#71 = VECTOR ( 'NONE', #101, 39.37007874015748854 ) ;
#72 = ORIENTED_EDGE ( 'NONE', *, *, #99, .F. ) ;
#73 = FACE_OUTER_BOUND ( 'NONE', #117, .T. ) ;
#74 = DIRECTION ( 'NONE',  ( 0.0000000000000000000, 0.0000000000000000000, 1.000000000000000000 ) ) ;
#75 = ORIENTED_EDGE ( 'NONE', *, *, #50, .T. ) ;
#76 = FACE_OUTER_BOUND ( 'NONE', #262, .T. ) ;
#77 = CARTESIAN_POINT ( 'NONE',  ( 1.205361061354380875E-16, 0.0000000000000000000, 0.9842519999999999047 ) ) ;
#78 = CONICAL_SURFACE ( 'NONE', #120, 0.2359842795000000326, 0.1745329251994339192 ) ;
#79 = ADVANCED_FACE ( 'NONE', ( #166 ), #294, .T. ) ;
#80 = ORIENTED_EDGE ( 'NONE', *, *, #129, .T. ) ;
#81 = LENGTH_MEASURE_WITH_UNIT ( LENGTH_MEASURE( 0.02539999999999999897 ), #131 );
#82 = MECHANICAL_DESIGN_GEOMETRIC_PRESENTATION_REPRESENTATION (  '', ( #100 ), #299 ) ;
#83 = ADVANCED_FACE ( 'NONE', ( #163 ), #66, .T. ) ;
#84 = CARTESIAN_POINT ( 'NONE',  ( -0.2359842795000000326, 0.0000000000000000000, 2.889973925387694330E-17 ) ) ;
#85 = LINE ( 'NONE', #273, #282 ) ;
#86 = ORIENTED_EDGE ( 'NONE', *, *, #257, .F. ) ;
#87 = CLOSED_SHELL ( 'NONE', ( #135, #215, #231, #103, #277, #83, #111, #79, #290, #206 ) ) ;
#88 = DIRECTION ( 'NONE',  ( 0.0000000000000000000, 0.0000000000000000000, -1.000000000000000000 ) ) ;
#89 = CARTESIAN_POINT ( 'NONE',  ( 0.0000000000000000000, 0.0000000000000000000, 3.267717000000000649 ) ) ;
#90 = ORIENTED_EDGE ( 'NONE', *, *, #212, .T. ) ;
#91 = DIRECTION ( 'NONE',  ( 0.0000000000000000000, 0.0000000000000000000, -1.000000000000000000 ) ) ;
#92 = LINE ( 'NONE', #148, #15 ) ;
#93 = CIRCLE ( 'NONE', #227, 0.2362204999999999999 ) ;
#94 = FILL_AREA_STYLE ('',( #198 ) ) ;
#95 = LENGTH_MEASURE_WITH_UNIT ( LENGTH_MEASURE( 0.02539999999999999897 ), #201 );
#96 = ORIENTED_EDGE ( 'NONE', *, *, #200, .F. ) ;
#97 = PRESENTATION_STYLE_ASSIGNMENT (( #122 ) ) ;
#98 =( NAMED_UNIT ( * ) SI_UNIT ( $, .STERADIAN. ) SOLID_ANGLE_UNIT ( ) );
#99 = EDGE_CURVE ( 'NONE', #238, #149, #106, .T. ) ;
#100 = STYLED_ITEM ( 'NONE', ( #4 ), #48 ) ;
#101 = DIRECTION ( 'NONE',  ( 0.7071067811865474617, 8.659560562354932858E-17, -0.7071067811865474617 ) ) ;
#102 =( CONVERSION_BASED_UNIT ( 'INCH', #81 ) LENGTH_UNIT ( ) NAMED_UNIT ( #279 ) );
#103 = ADVANCED_FACE ( 'NONE', ( #186 ), #216, .T. ) ;
#104 = DIRECTION ( 'NONE',  ( -1.000000000000000000, 0.0000000000000000000, 0.0000000000000000000 ) ) ;
#105 = CYLINDRICAL_SURFACE ( 'NONE', #20, 0.2362204999999999999 ) ;
#106 = CIRCLE ( 'NONE', #153, 0.2362204999999999999 ) ;
#107 = DIRECTION ( 'NONE',  ( 1.224646799147353454E-16, 0.0000000000000000000, 1.000000000000000000 ) ) ;
#108 = ORIENTED_EDGE ( 'NONE', *, *, #168, .T. ) ;
#109 = EDGE_LOOP ( 'NONE', ( #161, #31 ) ) ;
#110 = DIRECTION ( 'NONE',  ( -1.000000000000000000, 0.0000000000000000000, 1.224646799147353454E-16 ) ) ;
#111 = ADVANCED_FACE ( 'NONE', ( #47 ), #59, .T. ) ;
#112 = VECTOR ( 'NONE', #137, 39.37007874015748143 ) ;
#113 = CARTESIAN_POINT ( 'NONE',  ( 0.0000000000000000000, 0.0000000000000000000, 3.267717000000000649 ) ) ;
#114 = STYLED_ITEM ( 'NONE', ( #97 ), #179 ) ;
#115 = ORIENTED_EDGE ( 'NONE', *, *, #10, .F. ) ;
#116 = DIRECTION ( 'NONE',  ( 1.000000000000000000, 0.0000000000000000000, 0.0000000000000000000 ) ) ;
#117 = EDGE_LOOP ( 'NONE', ( #203, #272, #36, #237 ) ) ;
#118 = VECTOR ( 'NONE', #235, 39.37007874015748143 ) ;
#119 = ORIENTED_EDGE ( 'NONE', *, *, #10, .T. ) ;
#120 = AXIS2_PLACEMENT_3D ( 'NONE', #77, #52, #57 ) ;
#121 = EDGE_CURVE ( 'NONE', #164, #28, #194, .T. ) ;
#122 = SURFACE_STYLE_USAGE ( .BOTH. , #11 ) ;
#123 =( CONVERSION_BASED_UNIT ( 'INCH', #35 ) LENGTH_UNIT ( ) NAMED_UNIT ( #40 ) );
#124 = DIRECTION ( 'NONE',  ( 0.0000000000000000000, 0.0000000000000000000, 1.000000000000000000 ) ) ;
#125 = ORIENTED_EDGE ( 'NONE', *, *, #50, .F. ) ;
#126 = PRODUCT_DEFINITION ( 'UNKNOWN', '', #219, #193 ) ;
#127 = VECTOR ( 'NONE', #185, 39.37007874015748143 ) ;
#128 = DIRECTION ( 'NONE',  ( -0.0000000000000000000, -0.0000000000000000000, -1.000000000000000000 ) ) ;
#129 = EDGE_CURVE ( 'NONE', #243, #238, #140, .T. ) ;
#130 = CIRCLE ( 'NONE', #208, 0.2212205000000019295 ) ;
#131 =( LENGTH_UNIT ( ) NAMED_UNIT ( * ) SI_UNIT ( $, .METRE. ) );
#132 = EDGE_LOOP ( 'NONE', ( #274, #45, #58, #96 ) ) ;
#133 = AXIS2_PLACEMENT_3D ( 'NONE', #89, #192, #189 ) ;
#134 = DIRECTION ( 'NONE',  ( -0.0000000000000000000, -0.0000000000000000000, -1.000000000000000000 ) ) ;
#135 = ADVANCED_FACE ( 'NONE', ( #70 ), #260, .T. ) ;
#136 = CARTESIAN_POINT ( 'NONE',  ( 0.0000000000000000000, 0.0000000000000000000, 0.0000000000000000000 ) ) ;
#137 = DIRECTION ( 'NONE',  ( -1.224646799147353454E-16, -0.0000000000000000000, -1.000000000000000000 ) ) ;
#138 = APPLICATION_CONTEXT ( 'automotive_design' ) ;
#139 = ORIENTED_EDGE ( 'NONE', *, *, #176, .T. ) ;
#140 = LINE ( 'NONE', #278, #157 ) ;
#141 = DIRECTION ( 'NONE',  ( 1.000000000000000000, 0.0000000000000000000, 0.0000000000000000000 ) ) ;
#142 = DIRECTION ( 'NONE',  ( 1.000000000000000000, 0.0000000000000000000, 0.0000000000000000000 ) ) ;
#143 = DIRECTION ( 'NONE',  ( -1.224646799147353454E-16, -0.0000000000000000000, -1.000000000000000000 ) ) ;
#144 = AXIS2_PLACEMENT_3D ( 'NONE', #113, #210, #253 ) ;
#145 = CIRCLE ( 'NONE', #60, 0.2359842795000000326 ) ;
#146 = EDGE_CURVE ( 'NONE', #28, #243, #85, .T. ) ;
#147 = FACE_OUTER_BOUND ( 'NONE', #109, .T. ) ;
#148 = CARTESIAN_POINT ( 'NONE',  ( -0.2359842794999998938, 2.889973925387694330E-17, 0.9842519999999999047 ) ) ;
#149 = VERTEX_POINT ( 'NONE', #43 ) ;
#150 =( NAMED_UNIT ( * ) SI_UNIT ( $, .STERADIAN. ) SOLID_ANGLE_UNIT ( ) );
#151 = PRESENTATION_LAYER_ASSIGNMENT (  '', '', ( #114 ) ) ;
#152 =( NAMED_UNIT ( * ) PLANE_ANGLE_UNIT ( ) SI_UNIT ( $, .RADIAN. ) );
#153 = AXIS2_PLACEMENT_3D ( 'NONE', #1, #232, #116 ) ;
#154 = EDGE_CURVE ( 'NONE', #53, #173, #7, .T. ) ;
#155 = ORIENTED_EDGE ( 'NONE', *, *, #46, .F. ) ;
#156 = DIRECTION ( 'NONE',  ( -1.224646799147353454E-16, -0.0000000000000000000, -1.000000000000000000 ) ) ;
#157 = VECTOR ( 'NONE', #134, 39.37007874015748143 ) ;
#158 = VECTOR ( 'NONE', #289, 39.37007874015748143 ) ;
#159 = DIRECTION ( 'NONE',  ( -0.0000000000000000000, -0.0000000000000000000, -1.000000000000000000 ) ) ;
#160 = CARTESIAN_POINT ( 'NONE',  ( -0.2359842794999998938, 2.891420358783783796E-17, 0.9842519999999999047 ) ) ;
#161 = ORIENTED_EDGE ( 'NONE', *, *, #191, .T. ) ;
#162 = DIMENSIONAL_EXPONENTS ( 1.000000000000000000, 0.0000000000000000000, 0.0000000000000000000, 0.0000000000000000000, 0.0000000000000000000, 0.0000000000000000000, 0.0000000000000000000 ) ;
#163 = FACE_OUTER_BOUND ( 'NONE', #34, .T. ) ;
#164 = VERTEX_POINT ( 'NONE', #213 ) ;
#165 = AXIS2_PLACEMENT_3D ( 'NONE', #67, #107, #3 ) ;
#166 = FACE_OUTER_BOUND ( 'NONE', #6, .T. ) ;
#167 = CIRCLE ( 'NONE', #255, 0.2362204999999999999 ) ;
#168 = EDGE_CURVE ( 'NONE', #172, #243, #167, .T. ) ;
#169 =( NAMED_UNIT ( * ) PLANE_ANGLE_UNIT ( ) SI_UNIT ( $, .RADIAN. ) );
#170 = SURFACE_SIDE_STYLE ('',( #285 ) ) ;
#171 = DIRECTION ( 'NONE',  ( 0.0000000000000000000, 0.0000000000000000000, -1.000000000000000000 ) ) ;
#172 = VERTEX_POINT ( 'NONE', #276 ) ;
#173 = VERTEX_POINT ( 'NONE', #8 ) ;
#174 = CARTESIAN_POINT ( 'NONE',  ( 3.539197317345352573E-33, 0.0000000000000000000, 2.889973925387694330E-17 ) ) ;
#175 = MECHANICAL_DESIGN_GEOMETRIC_PRESENTATION_REPRESENTATION (  '', ( #114 ), #181 ) ;
#176 = EDGE_CURVE ( 'NONE', #28, #164, #130, .T. ) ;
#177 = DIRECTION ( 'NONE',  ( 1.000000000000000000, 0.0000000000000000000, 0.0000000000000000000 ) ) ;
#178 = CARTESIAN_POINT ( 'NONE',  ( -0.2362204999999999999, 0.0000000000000000000, 3.252717000000002301 ) ) ;
#179 = MANIFOLD_SOLID_BREP ( 'Cut-Revolve1', #87 ) ;
#180 = APPLICATION_PROTOCOL_DEFINITION ( 'draft international standard', 'automotive_design', 1998, #204 ) ;
#181 =( GEOMETRIC_REPRESENTATION_CONTEXT ( 3 ) GLOBAL_UNCERTAINTY_ASSIGNED_CONTEXT ( ( #207 ) ) GLOBAL_UNIT_ASSIGNED_CONTEXT ( ( #239, #169, #150 ) ) REPRESENTATION_CONTEXT ( 'NONE', 'WORKASPACE' ) );
#182 = EDGE_CURVE ( 'NONE', #164, #172, #223, .T. ) ;
#183 = PRESENTATION_LAYER_ASSIGNMENT (  '', '', ( #100 ) ) ;
#184 = PRODUCT ( 'Micro_EMHM-120-6', 'Micro_EMHM-120-6', '', ( #269 ) ) ;
#185 = DIRECTION ( 'NONE',  ( -1.224646799147353454E-16, -0.0000000000000000000, -1.000000000000000000 ) ) ;
#186 = FACE_OUTER_BOUND ( 'NONE', #252, .T. ) ;
#187 = ORIENTED_EDGE ( 'NONE', *, *, #129, .F. ) ;
#188 = DIRECTION ( 'NONE',  ( 1.000000000000000000, 0.0000000000000000000, 0.0000000000000000000 ) ) ;
#189 = DIRECTION ( 'NONE',  ( 1.000000000000000000, 0.0000000000000000000, 0.0000000000000000000 ) ) ;
#190 = ORIENTED_EDGE ( 'NONE', *, *, #246, .T. ) ;
#191 = EDGE_CURVE ( 'NONE', #173, #53, #225, .T. ) ;
#192 = DIRECTION ( 'NONE',  ( 0.0000000000000000000, 0.0000000000000000000, 1.000000000000000000 ) ) ;
#193 = PRODUCT_DEFINITION_CONTEXT ( 'detailed design', #204, 'design' ) ;
#194 = CIRCLE ( 'NONE', #133, 0.2212205000000019295 ) ;
#195 = CARTESIAN_POINT ( 'NONE',  ( 0.2359842795000001714, 0.0000000000000000000, 0.9842519999999999047 ) ) ;
#196 = AXIS2_PLACEMENT_3D ( 'NONE', #12, #74, #5 ) ;
#197 = ORIENTED_EDGE ( 'NONE', *, *, #13, .F. ) ;
#198 = FILL_AREA_STYLE_COLOUR ( '', #234 ) ;
#199 = DIRECTION ( 'NONE',  ( -1.000000000000000000, 0.0000000000000000000, 0.0000000000000000000 ) ) ;
#200 = EDGE_CURVE ( 'NONE', #264, #149, #56, .T. ) ;
#201 =( LENGTH_UNIT ( ) NAMED_UNIT ( * ) SI_UNIT ( $, .METRE. ) );
#202 = DIRECTION ( 'NONE',  ( -1.000000000000000000, 0.0000000000000000000, 0.0000000000000000000 ) ) ;
#203 = ORIENTED_EDGE ( 'NONE', *, *, #121, .F. ) ;
#204 = APPLICATION_CONTEXT ( 'automotive_design' ) ;
#205 = CARTESIAN_POINT ( 'NONE',  ( 0.0000000000000000000, 0.0000000000000000000, 3.267717000000000649 ) ) ;
#206 = ADVANCED_FACE ( 'NONE', ( #147 ), #29, .F. ) ;
#207 = UNCERTAINTY_MEASURE_WITH_UNIT (LENGTH_MEASURE( 1.000000000000000082E-05 ), #239, 'distance_accuracy_value', 'NONE');
#208 = AXIS2_PLACEMENT_3D ( 'NONE', #16, #124, #142 ) ;
#209 = AXIS2_PLACEMENT_3D ( 'NONE', #17, #250, #38 ) ;
#210 = DIRECTION ( 'NONE',  ( 0.0000000000000000000, 0.0000000000000000000, 1.000000000000000000 ) ) ;
#211 = DIRECTION ( 'NONE',  ( -1.000000000000000000, 0.0000000000000000000, 0.0000000000000000000 ) ) ;
#212 = EDGE_CURVE ( 'NONE', #243, #172, #242, .T. ) ;
#213 = CARTESIAN_POINT ( 'NONE',  ( 0.2212205000000019295, 2.801018282243833685E-17, 3.267717000000000649 ) ) ;
#214 = LINE ( 'NONE', #84, #127 ) ;
#215 = ADVANCED_FACE ( 'NONE', ( #267 ), #78, .T. ) ;
#216 = CYLINDRICAL_SURFACE ( 'NONE', #19, 0.2362204999999999999 ) ;
#217 = DIRECTION ( 'NONE',  ( -1.224646799147353454E-16, -0.0000000000000000000, -1.000000000000000000 ) ) ;
#218 = SURFACE_STYLE_FILL_AREA ( #37 ) ;
#219 = PRODUCT_DEFINITION_FORMATION_WITH_SPECIFIED_SOURCE ( 'ANY', '', #184, .NOT_KNOWN. ) ;
#220 = EDGE_LOOP ( 'NONE', ( #190, #297, #244, #115 ) ) ;
#221 = CARTESIAN_POINT ( 'NONE',  ( 0.0000000000000000000, 0.0000000000000000000, 3.267717000000000649 ) ) ;
#222 = DIRECTION ( 'NONE',  ( -1.000000000000000000, 0.0000000000000000000, 1.224646799147353454E-16 ) ) ;
#223 = LINE ( 'NONE', #241, #71 ) ;
#224 = EDGE_CURVE ( 'NONE', #33, #238, #92, .T. ) ;
#225 = CIRCLE ( 'NONE', #22, 0.2359842795000000049 ) ;
#226 = CARTESIAN_POINT ( 'NONE',  ( 0.0000000000000000000, 0.0000000000000000000, 0.0000000000000000000 ) ) ;
#227 = AXIS2_PLACEMENT_3D ( 'NONE', #24, #156, #141 ) ;
#228 = AXIS2_PLACEMENT_3D ( 'NONE', #136, #296, #229 ) ;
#229 = DIRECTION ( 'NONE',  ( -1.000000000000000000, 0.0000000000000000000, 1.224646799147353454E-16 ) ) ;
#230 = CARTESIAN_POINT ( 'NONE',  ( 3.539197317345352573E-33, 0.0000000000000000000, 2.889973925387694330E-17 ) ) ;
#231 = ADVANCED_FACE ( 'NONE', ( #73 ), #275, .T. ) ;
#232 = DIRECTION ( 'NONE',  ( -1.224646799147353454E-16, -0.0000000000000000000, -1.000000000000000000 ) ) ;
#233 = ORIENTED_EDGE ( 'NONE', *, *, #182, .F. ) ;
#234 = COLOUR_RGB ( '',0.7921568627450980005, 0.8196078431372548767, 0.9333333333333333481 ) ;
#235 = DIRECTION ( 'NONE',  ( -0.0000000000000000000, -0.0000000000000000000, -1.000000000000000000 ) ) ;
#236 = UNCERTAINTY_MEASURE_WITH_UNIT (LENGTH_MEASURE( 1.000000000000000082E-05 ), #123, 'distance_accuracy_value', 'NONE');
#237 = ORIENTED_EDGE ( 'NONE', *, *, #146, .F. ) ;
#238 = VERTEX_POINT ( 'NONE', #291 ) ;
#239 =( CONVERSION_BASED_UNIT ( 'INCH', #95 ) LENGTH_UNIT ( ) NAMED_UNIT ( #162 ) );
#240 = AXIS2_PLACEMENT_3D ( 'NONE', #221, #171, #202 ) ;
#241 = CARTESIAN_POINT ( 'NONE',  ( 0.2212205000000019295, 2.709169772307794108E-17, 3.267717000000000649 ) ) ;
#242 = CIRCLE ( 'NONE', #293, 0.2362204999999999999 ) ;
#243 = VERTEX_POINT ( 'NONE', #178 ) ;
#244 = ORIENTED_EDGE ( 'NONE', *, *, #191, .F. ) ;
#245 = SURFACE_STYLE_USAGE ( .BOTH. , #170 ) ;
#246 = EDGE_CURVE ( 'NONE', #33, #264, #39, .T. ) ;
#247 = DIRECTION ( 'NONE',  ( -0.1736481776669312194, 2.126576849575783625E-17, 0.9848077530122080203 ) ) ;
#248 = FILL_AREA_STYLE_COLOUR ( '', #251 ) ;
#249 = EDGE_LOOP ( 'NONE', ( #233, #55, #21, #2 ) ) ;
#250 = DIRECTION ( 'NONE',  ( 0.0000000000000000000, 0.0000000000000000000, 1.000000000000000000 ) ) ;
#251 = COLOUR_RGB ( '',0.7921568627450980005, 0.8196078431372548767, 0.9333333333333333481 ) ;
#252 = EDGE_LOOP ( 'NONE', ( #90, #256, #72, #187 ) ) ;
#253 = DIRECTION ( 'NONE',  ( 1.000000000000000000, 0.0000000000000000000, -0.0000000000000000000 ) ) ;
#254 = PRODUCT_DEFINITION_SHAPE ( 'NONE', 'NONE',  #126 ) ;
#255 = AXIS2_PLACEMENT_3D ( 'NONE', #298, #88, #188 ) ;
#256 = ORIENTED_EDGE ( 'NONE', *, *, #13, .T. ) ;
#257 = EDGE_CURVE ( 'NONE', #264, #33, #145, .T. ) ;
#258 = LINE ( 'NONE', #51, #118 ) ;
#259 = ORIENTED_EDGE ( 'NONE', *, *, #154, .F. ) ;
#260 = CYLINDRICAL_SURFACE ( 'NONE', #228, 0.2359842795000000326 ) ;
#261 = DIRECTION ( 'NONE',  ( 0.0000000000000000000, 0.0000000000000000000, -1.000000000000000000 ) ) ;
#262 = EDGE_LOOP ( 'NONE', ( #197, #108, #80, #125 ) ) ;
#263 = DIRECTION ( 'NONE',  ( -1.000000000000000000, 0.0000000000000000000, 0.0000000000000000000 ) ) ;
#264 = VERTEX_POINT ( 'NONE', #286 ) ;
#265 =( LENGTH_UNIT ( ) NAMED_UNIT ( * ) SI_UNIT ( $, .METRE. ) );
#266 = AXIS2_PLACEMENT_3D ( 'NONE', #226, #61, #62 ) ;
#267 = FACE_OUTER_BOUND ( 'NONE', #132, .T. ) ;
#268 = AXIS2_PLACEMENT_3D ( 'NONE', #281, #91, #211 ) ;
#269 = PRODUCT_CONTEXT ( 'NONE', #138, 'mechanical' ) ;
#270 = FACE_OUTER_BOUND ( 'NONE', #284, .T. ) ;
#271 = ORIENTED_EDGE ( 'NONE', *, *, #257, .T. ) ;
#272 = ORIENTED_EDGE ( 'NONE', *, *, #182, .T. ) ;
#273 = CARTESIAN_POINT ( 'NONE',  ( -0.2212205000000019295, 0.0000000000000000000, 3.267717000000000649 ) ) ;
#274 = ORIENTED_EDGE ( 'NONE', *, *, #246, .F. ) ;
#275 = CONICAL_SURFACE ( 'NONE', #240, 0.2212205000000019295, 0.7853981633974482790 ) ;
#276 = CARTESIAN_POINT ( 'NONE',  ( 0.2362204999999999999, 2.892866792179872647E-17, 3.252717000000002301 ) ) ;
#277 = ADVANCED_FACE ( 'NONE', ( #76 ), #105, .T. ) ;
#278 = CARTESIAN_POINT ( 'NONE',  ( -0.2362204999999999999, 0.0000000000000000000, 3.267717000000000649 ) ) ;
#279 = DIMENSIONAL_EXPONENTS ( 1.000000000000000000, 0.0000000000000000000, 0.0000000000000000000, 0.0000000000000000000, 0.0000000000000000000, 0.0000000000000000000, 0.0000000000000000000 ) ;
#280 =( NAMED_UNIT ( * ) PLANE_ANGLE_UNIT ( ) SI_UNIT ( $, .RADIAN. ) );
#281 = CARTESIAN_POINT ( 'NONE',  ( 0.0000000000000000000, 0.0000000000000000000, 3.267717000000000649 ) ) ;
#282 = VECTOR ( 'NONE', #65, 39.37007874015748854 ) ;
#283 = DIRECTION ( 'NONE',  ( -1.224646799147353454E-16, -0.0000000000000000000, -1.000000000000000000 ) ) ;
#284 = EDGE_LOOP ( 'NONE', ( #155, #271, #119, #259 ) ) ;
#285 = SURFACE_STYLE_FILL_AREA ( #94 ) ;
#286 = CARTESIAN_POINT ( 'NONE',  ( 0.2359842795000001714, 0.0000000000000000000, 0.9842519999999999047 ) ) ;
#287 = ORIENTED_EDGE ( 'NONE', *, *, #121, .T. ) ;
#288 =( NAMED_UNIT ( * ) SI_UNIT ( $, .STERADIAN. ) SOLID_ANGLE_UNIT ( ) );
#289 = DIRECTION ( 'NONE',  ( 0.1736481776669314137, 0.0000000000000000000, 0.9848077530122077983 ) ) ;
#290 = ADVANCED_FACE ( 'NONE', ( #270 ), #18, .T. ) ;
#291 = CARTESIAN_POINT ( 'NONE',  ( -0.2362204999999998611, 0.0000000000000000000, 0.9855916730270707360 ) ) ;
#292 = UNCERTAINTY_MEASURE_WITH_UNIT (LENGTH_MEASURE( 1.000000000000000082E-05 ), #102, 'distance_accuracy_value', 'NONE');
#293 = AXIS2_PLACEMENT_3D ( 'NONE', #30, #261, #177 ) ;
#294 = CONICAL_SURFACE ( 'NONE', #165, 0.2359842795000000326, 0.1745329251994339192 ) ;
#295 = CARTESIAN_POINT ( 'NONE',  ( 0.0000000000000000000, 0.0000000000000000000, 3.267717000000000649 ) ) ;
#296 = DIRECTION ( 'NONE',  ( -1.224646799147353454E-16, -0.0000000000000000000, -1.000000000000000000 ) ) ;
#297 = ORIENTED_EDGE ( 'NONE', *, *, #46, .T. ) ;
#298 = CARTESIAN_POINT ( 'NONE',  ( 0.0000000000000000000, 0.0000000000000000000, 3.252717000000002301 ) ) ;
#299 =( GEOMETRIC_REPRESENTATION_CONTEXT ( 3 ) GLOBAL_UNCERTAINTY_ASSIGNED_CONTEXT ( ( #236 ) ) GLOBAL_UNIT_ASSIGNED_CONTEXT ( ( #123, #280, #98 ) ) REPRESENTATION_CONTEXT ( 'NONE', 'WORKASPACE' ) );
ENDSEC;
END-ISO-10303-21;
