ISO-10303-21;
HEADER;
FILE_DESCRIPTION (( 'STEP AP214' ),
    '1' );
FILE_NAME ('Micro_SME-007-2X.STEP',
    '2021-09-02T09:44:02',
    ( '' ),
    ( '' ),
    'SwSTEP 2.0',
    'SolidWorks 2020',
    '' );
FILE_SCHEMA (( 'AUTOMOTIVE_DESIGN' ));
ENDSEC;

DATA;
#1 = DIRECTION ( 'NONE',  ( -0.1736481776669311916, 2.126576849575783316E-17, 0.9848077530122080203 ) ) ;
#2 = AXIS2_PLACEMENT_3D ( 'NONE', #129, #152, #243 ) ;
#3 = DIRECTION ( 'NONE',  ( -0.7071067811865462405, 0.0000000000000000000, -0.7071067811865486830 ) ) ;
#4 = DIRECTION ( 'NONE',  ( -1.224646799147353700E-16, -0.0000000000000000000, -1.000000000000000000 ) ) ;
#5 = CIRCLE ( 'NONE', #197, 0.003496499999999999175 ) ;
#6 = CIRCLE ( 'NONE', #130, 0.003496500000000003511 ) ;
#7 = DIRECTION ( 'NONE',  ( 0.0000000000000000000, 0.0000000000000000000, 1.000000000000000000 ) ) ;
#8 = UNCERTAINTY_MEASURE_WITH_UNIT (LENGTH_MEASURE( 1.000000000000000082E-05 ), #208, 'distance_accuracy_value', 'NONE');
#9 =( CONVERSION_BASED_UNIT ( 'INCH', #235 ) LENGTH_UNIT ( ) NAMED_UNIT ( #180 ) );
#10 = VERTEX_POINT ( 'NONE', #186 ) ;
#11 = AXIS2_PLACEMENT_3D ( 'NONE', #223, #124, #256 ) ;
#12 = EDGE_CURVE ( 'NONE', #165, #37, #132, .T. ) ;
#13 = AXIS2_PLACEMENT_3D ( 'NONE', #299, #27, #193 ) ;
#14 = EDGE_LOOP ( 'NONE', ( #136, #113 ) ) ;
#15 = ORIENTED_EDGE ( 'NONE', *, *, #175, .F. ) ;
#16 = ORIENTED_EDGE ( 'NONE', *, *, #149, .T. ) ;
#17 = EDGE_CURVE ( 'NONE', #85, #211, #94, .T. ) ;
#18 = CONICAL_SURFACE ( 'NONE', #114, 0.003496499999999999175, 0.1745329251994338915 ) ;
#19 = ORIENTED_EDGE ( 'NONE', *, *, #158, .F. ) ;
#20 = FACE_OUTER_BOUND ( 'NONE', #185, .T. ) ;
#21 = SURFACE_STYLE_USAGE ( .BOTH. , #239 ) ;
#22 = CARTESIAN_POINT ( 'NONE',  ( -0.06249999999999997918, 0.0000000000000000000, 0.3446254768438118399 ) ) ;
#23 = ADVANCED_FACE ( 'NONE', ( #236 ), #121, .T. ) ;
#24 = EDGE_CURVE ( 'NONE', #254, #60, #46, .T. ) ;
#25 = CARTESIAN_POINT ( 'NONE',  ( 0.06250000000000002776, 7.654042494670959086E-18, 1.485000000000000764 ) ) ;
#26 = CARTESIAN_POINT ( 'NONE',  ( -0.04750000000000064587, 0.0000000000000000000, 1.500000000000000222 ) ) ;
#27 = DIRECTION ( 'NONE',  ( -1.224646799147353700E-16, -0.0000000000000000000, -1.000000000000000000 ) ) ;
#28 = APPLICATION_PROTOCOL_DEFINITION ( 'draft international standard', 'automotive_design', 1998, #273 ) ;
#29 = STYLED_ITEM ( 'NONE', ( #52 ), #93 ) ;
#30 = DIRECTION ( 'NONE',  ( -1.224646799147353700E-16, -0.0000000000000000000, -1.000000000000000000 ) ) ;
#31 = FACE_OUTER_BOUND ( 'NONE', #157, .T. ) ;
#32 = APPLICATION_CONTEXT ( 'automotive_design' ) ;
#33 = SURFACE_SIDE_STYLE ('',( #76 ) ) ;
#34 = ADVANCED_FACE ( 'NONE', ( #20 ), #61, .T. ) ;
#35 = CIRCLE ( 'NONE', #221, 0.04750000000000064587 ) ;
#36 =( NAMED_UNIT ( * ) PLANE_ANGLE_UNIT ( ) SI_UNIT ( $, .RADIAN. ) );
#37 = VERTEX_POINT ( 'NONE', #26 ) ;
#38 = ADVANCED_FACE ( 'NONE', ( #48 ), #18, .T. ) ;
#39 = ORIENTED_EDGE ( 'NONE', *, *, #17, .T. ) ;
#40 = PRODUCT_DEFINITION_CONTEXT ( 'detailed design', #32, 'design' ) ;
#41 = ORIENTED_EDGE ( 'NONE', *, *, #291, .F. ) ;
#42 = DIRECTION ( 'NONE',  ( -1.000000000000000000, 0.0000000000000000000, 0.0000000000000000000 ) ) ;
#43 = EDGE_LOOP ( 'NONE', ( #266, #250, #183, #15 ) ) ;
#44 = FACE_OUTER_BOUND ( 'NONE', #294, .T. ) ;
#45 = EDGE_CURVE ( 'NONE', #254, #108, #260, .T. ) ;
#46 = LINE ( 'NONE', #117, #144 ) ;
#47 = FACE_OUTER_BOUND ( 'NONE', #86, .T. ) ;
#48 = FACE_OUTER_BOUND ( 'NONE', #232, .T. ) ;
#49 = LINE ( 'NONE', #275, #119 ) ;
#50 = VECTOR ( 'NONE', #3, 39.37007874015748854 ) ;
#51 = CARTESIAN_POINT ( 'NONE',  ( 0.06250000000000002776, 7.654042494670959086E-18, 1.500000000000000222 ) ) ;
#52 = PRESENTATION_STYLE_ASSIGNMENT (( #179 ) ) ;
#53 = EDGE_CURVE ( 'NONE', #211, #60, #238, .T. ) ;
#54 = CARTESIAN_POINT ( 'NONE',  ( 5.243910080077195101E-35, 0.0000000000000000000, 4.281977533218726669E-19 ) ) ;
#55 = DIRECTION ( 'NONE',  ( 0.0000000000000000000, 0.0000000000000000000, 1.000000000000000000 ) ) ;
#56 = AXIS2_PLACEMENT_3D ( 'NONE', #284, #30, #148 ) ;
#57 =( NAMED_UNIT ( * ) SI_UNIT ( $, .STERADIAN. ) SOLID_ANGLE_UNIT ( ) );
#58 = ORIENTED_EDGE ( 'NONE', *, *, #268, .F. ) ;
#59 = APPLICATION_PROTOCOL_DEFINITION ( 'draft international standard', 'automotive_design', 1998, #32 ) ;
#60 = VERTEX_POINT ( 'NONE', #22 ) ;
#61 = CONICAL_SURFACE ( 'NONE', #151, 0.003496499999999999175, 0.1745329251994338915 ) ;
#62 = ORIENTED_EDGE ( 'NONE', *, *, #87, .F. ) ;
#63 = ORIENTED_EDGE ( 'NONE', *, *, #170, .T. ) ;
#64 = ORIENTED_EDGE ( 'NONE', *, *, #291, .T. ) ;
#65 = DIRECTION ( 'NONE',  ( -1.224646799147353700E-16, -0.0000000000000000000, -1.000000000000000000 ) ) ;
#66 =( GEOMETRIC_REPRESENTATION_CONTEXT ( 3 ) GLOBAL_UNCERTAINTY_ASSIGNED_CONTEXT ( ( #8 ) ) GLOBAL_UNIT_ASSIGNED_CONTEXT ( ( #208, #36, #71 ) ) REPRESENTATION_CONTEXT ( 'NONE', 'WORKASPACE' ) );
#67 = ADVANCED_FACE ( 'NONE', ( #44 ), #297, .F. ) ;
#68 = FILL_AREA_STYLE ('',( #255 ) ) ;
#69 = DIRECTION ( 'NONE',  ( -1.000000000000000000, 0.0000000000000000000, 0.0000000000000000000 ) ) ;
#70 = CARTESIAN_POINT ( 'NONE',  ( 0.0000000000000000000, 0.0000000000000000000, 1.500000000000000222 ) ) ;
#71 =( NAMED_UNIT ( * ) SI_UNIT ( $, .STERADIAN. ) SOLID_ANGLE_UNIT ( ) );
#72 = LENGTH_MEASURE_WITH_UNIT ( LENGTH_MEASURE( 0.02539999999999999897 ), #246 );
#73 = DIRECTION ( 'NONE',  ( -1.000000000000000000, 0.0000000000000000000, 1.224646799147353700E-16 ) ) ;
#74 = VECTOR ( 'NONE', #259, 39.37007874015748854 ) ;
#75 = CONICAL_SURFACE ( 'NONE', #231, 0.04750000000000064587, 0.7853981633974466137 ) ;
#76 = SURFACE_STYLE_FILL_AREA ( #226 ) ;
#77 = DIMENSIONAL_EXPONENTS ( 1.000000000000000000, 0.0000000000000000000, 0.0000000000000000000, 0.0000000000000000000, 0.0000000000000000000, 0.0000000000000000000, 0.0000000000000000000 ) ;
#78 = CARTESIAN_POINT ( 'NONE',  ( -0.06250000000000002776, 0.0000000000000000000, 1.485000000000000764 ) ) ;
#79 = DIRECTION ( 'NONE',  ( 0.0000000000000000000, 0.0000000000000000000, -1.000000000000000000 ) ) ;
#80 = LINE ( 'NONE', #51, #120 ) ;
#81 = PRESENTATION_LAYER_ASSIGNMENT (  '', '', ( #225 ) ) ;
#82 = COLOUR_RGB ( '',0.7921568627450980005, 0.8196078431372548767, 0.9333333333333333481 ) ;
#83 = ORIENTED_EDGE ( 'NONE', *, *, #198, .F. ) ;
#84 = DIRECTION ( 'NONE',  ( 1.000000000000000000, 0.0000000000000000000, 0.0000000000000000000 ) ) ;
#85 = VERTEX_POINT ( 'NONE', #99 ) ;
#86 = EDGE_LOOP ( 'NONE', ( #164, #248, #265, #213 ) ) ;
#87 = EDGE_CURVE ( 'NONE', #211, #85, #5, .T. ) ;
#88 = ORIENTED_EDGE ( 'NONE', *, *, #220, .T. ) ;
#89 =( LENGTH_UNIT ( ) NAMED_UNIT ( * ) SI_UNIT ( $, .METRE. ) );
#90 = ORIENTED_EDGE ( 'NONE', *, *, #298, .T. ) ;
#91 = CARTESIAN_POINT ( 'NONE',  ( 0.003496500000000000476, 0.0000000000000000000, 0.01000000000000000021 ) ) ;
#92 = PRODUCT_DEFINITION ( 'UNKNOWN', '', #247, #40 ) ;
#93 = ADVANCED_BREP_SHAPE_REPRESENTATION ( 'Micro_SME-007-2X', ( #150, #216 ), #66 ) ;
#94 = CIRCLE ( 'NONE', #206, 0.003496499999999999175 ) ;
#95 = DIRECTION ( 'NONE',  ( 1.224646799147353700E-16, 0.0000000000000000000, 1.000000000000000000 ) ) ;
#96 = AXIS2_PLACEMENT_3D ( 'NONE', #142, #107, #210 ) ;
#97 = DIRECTION ( 'NONE',  ( 0.0000000000000000000, 0.0000000000000000000, 1.000000000000000000 ) ) ;
#98 = LENGTH_MEASURE_WITH_UNIT ( LENGTH_MEASURE( 0.02539999999999999897 ), #122 );
#99 = CARTESIAN_POINT ( 'NONE',  ( 0.003496500000000000476, 0.0000000000000000000, 0.01000000000000000021 ) ) ;
#100 = CARTESIAN_POINT ( 'NONE',  ( -0.003496499999999998307, 4.041120123996416021E-18, 0.01000000000000000021 ) ) ;
#101 = DIRECTION ( 'NONE',  ( -0.0000000000000000000, -0.0000000000000000000, -1.000000000000000000 ) ) ;
#102 = FACE_OUTER_BOUND ( 'NONE', #163, .T. ) ;
#103 = PLANE ( 'NONE',  #167 ) ;
#104 = DIMENSIONAL_EXPONENTS ( 1.000000000000000000, 0.0000000000000000000, 0.0000000000000000000, 0.0000000000000000000, 0.0000000000000000000, 0.0000000000000000000, 0.0000000000000000000 ) ;
#105 = AXIS2_PLACEMENT_3D ( 'NONE', #215, #292, #187 ) ;
#106 =( GEOMETRIC_REPRESENTATION_CONTEXT ( 3 ) GLOBAL_UNCERTAINTY_ASSIGNED_CONTEXT ( ( #269 ) ) GLOBAL_UNIT_ASSIGNED_CONTEXT ( ( #9, #272, #57 ) ) REPRESENTATION_CONTEXT ( 'NONE', 'WORKASPACE' ) );
#107 = DIRECTION ( 'NONE',  ( 0.0000000000000000000, 0.0000000000000000000, -1.000000000000000000 ) ) ;
#108 = VERTEX_POINT ( 'NONE', #25 ) ;
#109 = CIRCLE ( 'NONE', #96, 0.06250000000000002776 ) ;
#110 = ORIENTED_EDGE ( 'NONE', *, *, #53, .F. ) ;
#111 = CARTESIAN_POINT ( 'NONE',  ( 0.0000000000000000000, 0.0000000000000000000, 0.0000000000000000000 ) ) ;
#112 = ORIENTED_EDGE ( 'NONE', *, *, #166, .T. ) ;
#113 = ORIENTED_EDGE ( 'NONE', *, *, #12, .T. ) ;
#114 = AXIS2_PLACEMENT_3D ( 'NONE', #222, #95, #194 ) ;
#115 = LINE ( 'NONE', #126, #293 ) ;
#116 = ORIENTED_EDGE ( 'NONE', *, *, #87, .T. ) ;
#117 = CARTESIAN_POINT ( 'NONE',  ( -0.06250000000000002776, 0.0000000000000000000, 1.500000000000000222 ) ) ;
#118 = CARTESIAN_POINT ( 'NONE',  ( 0.0000000000000000000, 0.0000000000000000000, 0.0000000000000000000 ) ) ;
#119 = VECTOR ( 'NONE', #65, 39.37007874015748143 ) ;
#120 = VECTOR ( 'NONE', #101, 39.37007874015748143 ) ;
#121 = CYLINDRICAL_SURFACE ( 'NONE', #177, 0.06250000000000002776 ) ;
#122 =( LENGTH_UNIT ( ) NAMED_UNIT ( * ) SI_UNIT ( $, .METRE. ) );
#123 = EDGE_CURVE ( 'NONE', #85, #10, #169, .T. ) ;
#124 = DIRECTION ( 'NONE',  ( 0.0000000000000000000, 0.0000000000000000000, -1.000000000000000000 ) ) ;
#125 = CARTESIAN_POINT ( 'NONE',  ( 0.04750000000000064587, 6.735557395310483192E-18, 1.500000000000000222 ) ) ;
#126 = CARTESIAN_POINT ( 'NONE',  ( -0.003496500000000001343, 0.0000000000000000000, 4.281977533218723780E-19 ) ) ;
#127 = CIRCLE ( 'NONE', #2, 0.06250000000000002776 ) ;
#128 = LINE ( 'NONE', #245, #50 ) ;
#129 = CARTESIAN_POINT ( 'NONE',  ( 4.220444871214045189E-17, 0.0000000000000000000, 0.3446254768438118399 ) ) ;
#130 = AXIS2_PLACEMENT_3D ( 'NONE', #54, #4, #155 ) ;
#131 = FACE_OUTER_BOUND ( 'NONE', #43, .T. ) ;
#132 = CIRCLE ( 'NONE', #105, 0.04750000000000064587 ) ;
#133 = VERTEX_POINT ( 'NONE', #172 ) ;
#134 = VECTOR ( 'NONE', #257, 39.37007874015748143 ) ;
#135 =( GEOMETRIC_REPRESENTATION_CONTEXT ( 3 ) GLOBAL_UNCERTAINTY_ASSIGNED_CONTEXT ( ( #162 ) ) GLOBAL_UNIT_ASSIGNED_CONTEXT ( ( #196, #258, #261 ) ) REPRESENTATION_CONTEXT ( 'NONE', 'WORKASPACE' ) );
#136 = ORIENTED_EDGE ( 'NONE', *, *, #268, .T. ) ;
#137 = ORIENTED_EDGE ( 'NONE', *, *, #17, .F. ) ;
#138 = ORIENTED_EDGE ( 'NONE', *, *, #198, .T. ) ;
#139 = ADVANCED_FACE ( 'NONE', ( #47 ), #264, .T. ) ;
#140 = AXIS2_PLACEMENT_3D ( 'NONE', #176, #153, #244 ) ;
#141 = ORIENTED_EDGE ( 'NONE', *, *, #123, .F. ) ;
#142 = CARTESIAN_POINT ( 'NONE',  ( 0.0000000000000000000, 0.0000000000000000000, 1.485000000000000764 ) ) ;
#143 = DIRECTION ( 'NONE',  ( -0.0000000000000000000, -0.0000000000000000000, -1.000000000000000000 ) ) ;
#144 = VECTOR ( 'NONE', #143, 39.37007874015748143 ) ;
#145 = DIRECTION ( 'NONE',  ( 0.0000000000000000000, 0.0000000000000000000, -1.000000000000000000 ) ) ;
#146 = EDGE_CURVE ( 'NONE', #165, #108, #279, .T. ) ;
#147 = CARTESIAN_POINT ( 'NONE',  ( 0.0000000000000000000, 0.0000000000000000000, 1.500000000000000222 ) ) ;
#148 = DIRECTION ( 'NONE',  ( -1.000000000000000000, 0.0000000000000000000, 1.224646799147353700E-16 ) ) ;
#149 = EDGE_CURVE ( 'NONE', #85, #159, #49, .T. ) ;
#150 = MANIFOLD_SOLID_BREP ( 'Cut-Revolve1', #253 ) ;
#151 = AXIS2_PLACEMENT_3D ( 'NONE', #218, #295, #241 ) ;
#152 = DIRECTION ( 'NONE',  ( -1.224646799147353700E-16, -0.0000000000000000000, -1.000000000000000000 ) ) ;
#153 = DIRECTION ( 'NONE',  ( -1.224646799147353700E-16, -0.0000000000000000000, -1.000000000000000000 ) ) ;
#154 = PRODUCT_DEFINITION_SHAPE ( 'NONE', 'NONE',  #92 ) ;
#155 = DIRECTION ( 'NONE',  ( -1.000000000000000000, 0.0000000000000000000, 1.224646799147353700E-16 ) ) ;
#156 = CYLINDRICAL_SURFACE ( 'NONE', #56, 0.003496500000000001343 ) ;
#157 = EDGE_LOOP ( 'NONE', ( #270, #39, #138, #233 ) ) ;
#158 = EDGE_CURVE ( 'NONE', #108, #254, #109, .T. ) ;
#159 = VERTEX_POINT ( 'NONE', #285 ) ;
#160 = MECHANICAL_DESIGN_GEOMETRIC_PRESENTATION_REPRESENTATION (  '', ( #225 ), #135 ) ;
#161 = PRESENTATION_LAYER_ASSIGNMENT (  '', '', ( #29 ) ) ;
#162 = UNCERTAINTY_MEASURE_WITH_UNIT (LENGTH_MEASURE( 1.000000000000000082E-05 ), #196, 'distance_accuracy_value', 'NONE');
#163 = EDGE_LOOP ( 'NONE', ( #116, #16, #41, #83 ) ) ;
#164 = ORIENTED_EDGE ( 'NONE', *, *, #12, .F. ) ;
#165 = VERTEX_POINT ( 'NONE', #125 ) ;
#166 = EDGE_CURVE ( 'NONE', #108, #10, #80, .T. ) ;
#167 = AXIS2_PLACEMENT_3D ( 'NONE', #202, #55, #242 ) ;
#168 = CARTESIAN_POINT ( 'NONE',  ( 0.04750000000000064587, 5.817072295950006528E-18, 1.500000000000000222 ) ) ;
#169 = LINE ( 'NONE', #91, #134 ) ;
#170 = EDGE_CURVE ( 'NONE', #159, #133, #199, .T. ) ;
#171 = DIRECTION ( 'NONE',  ( 1.000000000000000000, 0.0000000000000000000, -0.0000000000000000000 ) ) ;
#172 = CARTESIAN_POINT ( 'NONE',  ( -0.003496500000000003511, 0.0000000000000000000, 8.563955066437453338E-19 ) ) ;
#173 = CARTESIAN_POINT ( 'NONE',  ( 1.224646799147353770E-18, 0.0000000000000000000, 0.01000000000000000021 ) ) ;
#174 = FACE_OUTER_BOUND ( 'NONE', #230, .T. ) ;
#175 = EDGE_CURVE ( 'NONE', #10, #60, #178, .T. ) ;
#176 = CARTESIAN_POINT ( 'NONE',  ( 4.220444871214045189E-17, 0.0000000000000000000, 0.3446254768438118399 ) ) ;
#177 = AXIS2_PLACEMENT_3D ( 'NONE', #70, #276, #69 ) ;
#178 = CIRCLE ( 'NONE', #140, 0.06250000000000002776 ) ;
#179 = SURFACE_STYLE_USAGE ( .BOTH. , #33 ) ;
#180 = DIMENSIONAL_EXPONENTS ( 1.000000000000000000, 0.0000000000000000000, 0.0000000000000000000, 0.0000000000000000000, 0.0000000000000000000, 0.0000000000000000000, 0.0000000000000000000 ) ;
#181 = DIRECTION ( 'NONE',  ( -1.000000000000000000, 0.0000000000000000000, 0.0000000000000000000 ) ) ;
#182 = DIRECTION ( 'NONE',  ( -1.000000000000000000, 0.0000000000000000000, 0.0000000000000000000 ) ) ;
#183 = ORIENTED_EDGE ( 'NONE', *, *, #24, .T. ) ;
#184 = ADVANCED_FACE ( 'NONE', ( #31 ), #214, .T. ) ;
#185 = EDGE_LOOP ( 'NONE', ( #62, #217, #88, #141 ) ) ;
#186 = CARTESIAN_POINT ( 'NONE',  ( 0.06250000000000006939, 7.654042494670963708E-18, 0.3446254768438118399 ) ) ;
#187 = DIRECTION ( 'NONE',  ( 1.000000000000000000, 0.0000000000000000000, 0.0000000000000000000 ) ) ;
#188 = SHAPE_DEFINITION_REPRESENTATION ( #154, #93 ) ;
#189 = ORIENTED_EDGE ( 'NONE', *, *, #146, .F. ) ;
#190 = DIRECTION ( 'NONE',  ( -1.000000000000000000, 0.0000000000000000000, 0.0000000000000000000 ) ) ;
#191 = VECTOR ( 'NONE', #1, 39.37007874015747433 ) ;
#192 = AXIS2_PLACEMENT_3D ( 'NONE', #229, #205, #181 ) ;
#193 = DIRECTION ( 'NONE',  ( -1.000000000000000000, 0.0000000000000000000, 1.224646799147353700E-16 ) ) ;
#194 = DIRECTION ( 'NONE',  ( 1.000000000000000000, 0.0000000000000000000, 0.0000000000000000000 ) ) ;
#195 = SURFACE_STYLE_FILL_AREA ( #68 ) ;
#196 =( CONVERSION_BASED_UNIT ( 'INCH', #98 ) LENGTH_UNIT ( ) NAMED_UNIT ( #77 ) );
#197 = AXIS2_PLACEMENT_3D ( 'NONE', #173, #200, #296 ) ;
#198 = EDGE_CURVE ( 'NONE', #211, #133, #115, .T. ) ;
#199 = CIRCLE ( 'NONE', #282, 0.003496500000000003511 ) ;
#200 = DIRECTION ( 'NONE',  ( -1.224646799147353700E-16, -0.0000000000000000000, -1.000000000000000000 ) ) ;
#201 = PRODUCT ( 'Micro_SME-007-2X', 'Micro_SME-007-2X', '', ( #252 ) ) ;
#202 = CARTESIAN_POINT ( 'NONE',  ( 0.0000000000000000000, 0.0000000000000000000, 1.500000000000000222 ) ) ;
#203 = CARTESIAN_POINT ( 'NONE',  ( 5.243910080077195101E-35, 0.0000000000000000000, 4.281977533218726669E-19 ) ) ;
#204 = FACE_OUTER_BOUND ( 'NONE', #14, .T. ) ;
#205 = DIRECTION ( 'NONE',  ( -0.0000000000000000000, -0.0000000000000000000, -1.000000000000000000 ) ) ;
#206 = AXIS2_PLACEMENT_3D ( 'NONE', #271, #251, #42 ) ;
#207 = MECHANICAL_DESIGN_GEOMETRIC_PRESENTATION_REPRESENTATION (  '', ( #29 ), #106 ) ;
#208 =( CONVERSION_BASED_UNIT ( 'INCH', #72 ) LENGTH_UNIT ( ) NAMED_UNIT ( #104 ) );
#209 = DIRECTION ( 'NONE',  ( 1.000000000000000000, 0.0000000000000000000, 0.0000000000000000000 ) ) ;
#210 = DIRECTION ( 'NONE',  ( 1.000000000000000000, 0.0000000000000000000, 0.0000000000000000000 ) ) ;
#211 = VERTEX_POINT ( 'NONE', #100 ) ;
#212 = ORIENTED_EDGE ( 'NONE', *, *, #24, .F. ) ;
#213 = ORIENTED_EDGE ( 'NONE', *, *, #298, .F. ) ;
#214 = CYLINDRICAL_SURFACE ( 'NONE', #13, 0.003496500000000001343 ) ;
#215 = CARTESIAN_POINT ( 'NONE',  ( 0.0000000000000000000, 0.0000000000000000000, 1.500000000000000222 ) ) ;
#216 = AXIS2_PLACEMENT_3D ( 'NONE', #111, #288, #84 ) ;
#217 = ORIENTED_EDGE ( 'NONE', *, *, #53, .T. ) ;
#218 = CARTESIAN_POINT ( 'NONE',  ( 1.224646799147353770E-18, 0.0000000000000000000, 0.01000000000000000021 ) ) ;
#219 = PRESENTATION_STYLE_ASSIGNMENT (( #21 ) ) ;
#220 = EDGE_CURVE ( 'NONE', #60, #10, #127, .T. ) ;
#221 = AXIS2_PLACEMENT_3D ( 'NONE', #228, #7, #209 ) ;
#222 = CARTESIAN_POINT ( 'NONE',  ( 1.224646799147353770E-18, 0.0000000000000000000, 0.01000000000000000021 ) ) ;
#223 = CARTESIAN_POINT ( 'NONE',  ( 0.0000000000000000000, 0.0000000000000000000, 1.485000000000000764 ) ) ;
#224 = CARTESIAN_POINT ( 'NONE',  ( 0.0000000000000000000, 0.0000000000000000000, 1.500000000000000222 ) ) ;
#225 = STYLED_ITEM ( 'NONE', ( #219 ), #150 ) ;
#226 = FILL_AREA_STYLE ('',( #280 ) ) ;
#227 = DIRECTION ( 'NONE',  ( -1.224646799147353700E-16, -0.0000000000000000000, -1.000000000000000000 ) ) ;
#228 = CARTESIAN_POINT ( 'NONE',  ( 0.0000000000000000000, 0.0000000000000000000, 1.500000000000000222 ) ) ;
#229 = CARTESIAN_POINT ( 'NONE',  ( 0.0000000000000000000, 0.0000000000000000000, 1.500000000000000222 ) ) ;
#230 = EDGE_LOOP ( 'NONE', ( #189, #58, #90, #19 ) ) ;
#231 = AXIS2_PLACEMENT_3D ( 'NONE', #224, #79, #182 ) ;
#232 = EDGE_LOOP ( 'NONE', ( #110, #137, #249, #287 ) ) ;
#233 = ORIENTED_EDGE ( 'NONE', *, *, #170, .F. ) ;
#234 = PRODUCT_RELATED_PRODUCT_CATEGORY ( 'part', '', ( #201 ) ) ;
#235 = LENGTH_MEASURE_WITH_UNIT ( LENGTH_MEASURE( 0.02539999999999999897 ), #89 );
#236 = FACE_OUTER_BOUND ( 'NONE', #274, .T. ) ;
#237 = AXIS2_PLACEMENT_3D ( 'NONE', #147, #145, #190 ) ;
#238 = LINE ( 'NONE', #240, #191 ) ;
#239 = SURFACE_SIDE_STYLE ('',( #195 ) ) ;
#240 = CARTESIAN_POINT ( 'NONE',  ( -0.003496499999999998307, 4.281977533218719928E-19, 0.01000000000000000021 ) ) ;
#241 = DIRECTION ( 'NONE',  ( 1.000000000000000000, 0.0000000000000000000, 0.0000000000000000000 ) ) ;
#242 = DIRECTION ( 'NONE',  ( 1.000000000000000000, 0.0000000000000000000, -0.0000000000000000000 ) ) ;
#243 = DIRECTION ( 'NONE',  ( 1.000000000000000000, 0.0000000000000000000, 0.0000000000000000000 ) ) ;
#244 = DIRECTION ( 'NONE',  ( 1.000000000000000000, 0.0000000000000000000, 0.0000000000000000000 ) ) ;
#245 = CARTESIAN_POINT ( 'NONE',  ( -0.04750000000000064587, 0.0000000000000000000, 1.500000000000000222 ) ) ;
#246 =( LENGTH_UNIT ( ) NAMED_UNIT ( * ) SI_UNIT ( $, .METRE. ) );
#247 = PRODUCT_DEFINITION_FORMATION_WITH_SPECIFIED_SOURCE ( 'ANY', '', #201, .NOT_KNOWN. ) ;
#248 = ORIENTED_EDGE ( 'NONE', *, *, #146, .T. ) ;
#249 = ORIENTED_EDGE ( 'NONE', *, *, #123, .T. ) ;
#250 = ORIENTED_EDGE ( 'NONE', *, *, #158, .T. ) ;
#251 = DIRECTION ( 'NONE',  ( -1.224646799147353700E-16, -0.0000000000000000000, -1.000000000000000000 ) ) ;
#252 = PRODUCT_CONTEXT ( 'NONE', #273, 'mechanical' ) ;
#253 = CLOSED_SHELL ( 'NONE', ( #277, #34, #139, #23, #267, #263, #278, #38, #184, #67 ) ) ;
#254 = VERTEX_POINT ( 'NONE', #78 ) ;
#255 = FILL_AREA_STYLE_COLOUR ( '', #281 ) ;
#256 = DIRECTION ( 'NONE',  ( 1.000000000000000000, 0.0000000000000000000, 0.0000000000000000000 ) ) ;
#257 = DIRECTION ( 'NONE',  ( 0.1736481776669313859, 0.0000000000000000000, 0.9848077530122077983 ) ) ;
#258 =( NAMED_UNIT ( * ) PLANE_ANGLE_UNIT ( ) SI_UNIT ( $, .RADIAN. ) );
#259 = DIRECTION ( 'NONE',  ( 0.7071067811865462405, 8.659560562354916834E-17, -0.7071067811865486830 ) ) ;
#260 = CIRCLE ( 'NONE', #11, 0.06250000000000002776 ) ;
#261 =( NAMED_UNIT ( * ) SI_UNIT ( $, .STERADIAN. ) SOLID_ANGLE_UNIT ( ) );
#262 = CYLINDRICAL_SURFACE ( 'NONE', #192, 0.06250000000000002776 ) ;
#263 = ADVANCED_FACE ( 'NONE', ( #204 ), #103, .T. ) ;
#264 = CONICAL_SURFACE ( 'NONE', #237, 0.04750000000000064587, 0.7853981633974466137 ) ;
#265 = ORIENTED_EDGE ( 'NONE', *, *, #45, .F. ) ;
#266 = ORIENTED_EDGE ( 'NONE', *, *, #166, .F. ) ;
#267 = ADVANCED_FACE ( 'NONE', ( #131 ), #262, .T. ) ;
#268 = EDGE_CURVE ( 'NONE', #37, #165, #35, .T. ) ;
#269 = UNCERTAINTY_MEASURE_WITH_UNIT (LENGTH_MEASURE( 1.000000000000000082E-05 ), #9, 'distance_accuracy_value', 'NONE');
#270 = ORIENTED_EDGE ( 'NONE', *, *, #149, .F. ) ;
#271 = CARTESIAN_POINT ( 'NONE',  ( 1.224646799147353770E-18, 0.0000000000000000000, 0.01000000000000000021 ) ) ;
#272 =( NAMED_UNIT ( * ) PLANE_ANGLE_UNIT ( ) SI_UNIT ( $, .RADIAN. ) );
#273 = APPLICATION_CONTEXT ( 'automotive_design' ) ;
#274 = EDGE_LOOP ( 'NONE', ( #290, #112, #289, #212 ) ) ;
#275 = CARTESIAN_POINT ( 'NONE',  ( 0.003496500000000001343, 4.281977533218722336E-19, -4.281977533218723780E-19 ) ) ;
#276 = DIRECTION ( 'NONE',  ( -0.0000000000000000000, -0.0000000000000000000, -1.000000000000000000 ) ) ;
#277 = ADVANCED_FACE ( 'NONE', ( #102 ), #156, .T. ) ;
#278 = ADVANCED_FACE ( 'NONE', ( #174 ), #75, .T. ) ;
#279 = LINE ( 'NONE', #168, #74 ) ;
#280 = FILL_AREA_STYLE_COLOUR ( '', #82 ) ;
#281 = COLOUR_RGB ( '',0.7921568627450980005, 0.8196078431372548767, 0.9333333333333333481 ) ;
#282 = AXIS2_PLACEMENT_3D ( 'NONE', #203, #227, #73 ) ;
#283 = DIRECTION ( 'NONE',  ( -1.224646799147353700E-16, -0.0000000000000000000, -1.000000000000000000 ) ) ;
#284 = CARTESIAN_POINT ( 'NONE',  ( 0.0000000000000000000, 0.0000000000000000000, 0.0000000000000000000 ) ) ;
#285 = CARTESIAN_POINT ( 'NONE',  ( 0.003496500000000003511, 4.281977533218723780E-19, 5.923751059261921468E-35 ) ) ;
#286 = AXIS2_PLACEMENT_3D ( 'NONE', #118, #97, #171 ) ;
#287 = ORIENTED_EDGE ( 'NONE', *, *, #175, .T. ) ;
#288 = DIRECTION ( 'NONE',  ( 0.0000000000000000000, 0.0000000000000000000, 1.000000000000000000 ) ) ;
#289 = ORIENTED_EDGE ( 'NONE', *, *, #220, .F. ) ;
#290 = ORIENTED_EDGE ( 'NONE', *, *, #45, .T. ) ;
#291 = EDGE_CURVE ( 'NONE', #133, #159, #6, .T. ) ;
#292 = DIRECTION ( 'NONE',  ( 0.0000000000000000000, 0.0000000000000000000, 1.000000000000000000 ) ) ;
#293 = VECTOR ( 'NONE', #283, 39.37007874015748143 ) ;
#294 = EDGE_LOOP ( 'NONE', ( #64, #63 ) ) ;
#295 = DIRECTION ( 'NONE',  ( 1.224646799147353700E-16, 0.0000000000000000000, 1.000000000000000000 ) ) ;
#296 = DIRECTION ( 'NONE',  ( -1.000000000000000000, 0.0000000000000000000, 0.0000000000000000000 ) ) ;
#297 = PLANE ( 'NONE',  #286 ) ;
#298 = EDGE_CURVE ( 'NONE', #37, #254, #128, .T. ) ;
#299 = CARTESIAN_POINT ( 'NONE',  ( 0.0000000000000000000, 0.0000000000000000000, 0.0000000000000000000 ) ) ;
ENDSEC;
END-ISO-10303-21;
