ISO-10303-21;
HEADER;
FILE_DESCRIPTION (( 'STEP AP214' ),
    '1' );
FILE_NAME ('81364.STEP',
    '2023-06-23T00:40:23',
    ( '' ),
    ( '' ),
    'SwSTEP 2.0',
    'SolidWorks 2023',
    '' );
FILE_SCHEMA (( 'AUTOMOTIVE_DESIGN' ));
ENDSEC;

DATA;
#1 = PRESENTATION_STYLE_ASSIGNMENT (( #76 ) ) ;
#2 = AXIS2_PLACEMENT_3D ( 'NONE', #275, #255, #37 ) ;
#3 = DIRECTION ( 'NONE',  ( -0.000000000000000000, -1.000000000000000000, -0.000000000000000000 ) ) ;
#4 = LINE ( 'NONE', #225, #75 ) ;
#5 = APPLICATION_CONTEXT ( 'automotive_design' ) ;
#6 = DIRECTION ( 'NONE',  ( 1.749495427353361372E-16, 1.000000000000000000, -0.000000000000000000 ) ) ;
#7 = AXIS2_PLACEMENT_3D ( 'NONE', #25, #94, #173 ) ;
#8 = STYLED_ITEM ( 'NONE', ( #1 ), #50 ) ;
#9 =( GEOMETRIC_REPRESENTATION_CONTEXT ( 3 ) GLOBAL_UNCERTAINTY_ASSIGNED_CONTEXT ( ( #246 ) ) GLOBAL_UNIT_ASSIGNED_CONTEXT ( ( #135, #163, #175 ) ) REPRESENTATION_CONTEXT ( 'NONE', 'WORKASPACE' ) );
#10 = ORIENTED_EDGE ( 'NONE', *, *, #200, .T. ) ;
#11 = DIRECTION ( 'NONE',  ( 0.000000000000000000, 0.000000000000000000, -1.000000000000000000 ) ) ;
#12 = EDGE_LOOP ( 'NONE', ( #278, #132, #105, #235 ) ) ;
#13 = EDGE_LOOP ( 'NONE', ( #17, #159, #258, #184 ) ) ;
#14 = PRESENTATION_STYLE_ASSIGNMENT (( #137 ) ) ;
#15 = CIRCLE ( 'NONE', #247, 0.09374999999999998612 ) ;
#16 = APPLICATION_PROTOCOL_DEFINITION ( 'draft international standard', 'automotive_design', 1998, #5 ) ;
#17 = ORIENTED_EDGE ( 'NONE', *, *, #146, .F. ) ;
#18 = EDGE_LOOP ( 'NONE', ( #10, #212 ) ) ;
#19 = ORIENTED_EDGE ( 'NONE', *, *, #146, .T. ) ;
#20 = PLANE ( 'NONE',  #95 ) ;
#21 = APPLICATION_CONTEXT ( 'automotive_design' ) ;
#22 =( LENGTH_UNIT ( ) NAMED_UNIT ( * ) SI_UNIT ( $, .METRE. ) );
#23 = CIRCLE ( 'NONE', #237, 0.09375000000000001388 ) ;
#24 = DIRECTION ( 'NONE',  ( 1.749495427353361372E-16, 1.000000000000000000, -0.000000000000000000 ) ) ;
#25 = CARTESIAN_POINT ( 'NONE',  ( 3.061616997868383141E-16, 2.500000000000000000, 0.000000000000000000 ) ) ;
#26 = AXIS2_PLACEMENT_3D ( 'NONE', #193, #6, #70 ) ;
#27 = SURFACE_STYLE_USAGE ( .BOTH. , #171 ) ;
#28 =( NAMED_UNIT ( * ) SI_UNIT ( $, .STERADIAN. ) SOLID_ANGLE_UNIT ( ) );
#29 = FACE_OUTER_BOUND ( 'NONE', #134, .T. ) ;
#30 = DIRECTION ( 'NONE',  ( 0.000000000000000000, 0.000000000000000000, -1.000000000000000000 ) ) ;
#31 = CARTESIAN_POINT ( 'NONE',  ( 0.000000000000000000, 0.000000000000000000, 0.000000000000000000 ) ) ;
#32 = DIMENSIONAL_EXPONENTS ( 1.000000000000000000, 0.000000000000000000, 0.000000000000000000, 0.000000000000000000, 0.000000000000000000, 0.000000000000000000, 0.000000000000000000 ) ;
#33 = ORIENTED_EDGE ( 'NONE', *, *, #157, .F. ) ;
#34 = ADVANCED_FACE ( 'NONE', ( #229 ), #101, .T. ) ;
#35 =( NAMED_UNIT ( * ) PLANE_ANGLE_UNIT ( ) SI_UNIT ( $, .RADIAN. ) );
#36 = PRODUCT_DEFINITION_SHAPE ( 'NONE', 'NONE',  #102 ) ;
#37 = DIRECTION ( 'NONE',  ( -1.000000000000000000, 0.000000000000000000, 0.000000000000000000 ) ) ;
#38 = ORIENTED_EDGE ( 'NONE', *, *, #215, .T. ) ;
#39 = DIRECTION ( 'NONE',  ( -0.000000000000000000, -1.000000000000000000, -0.000000000000000000 ) ) ;
#40 = EDGE_LOOP ( 'NONE', ( #104, #106 ) ) ;
#41 = AXIS2_PLACEMENT_3D ( 'NONE', #31, #81, #30 ) ;
#42 = CYLINDRICAL_SURFACE ( 'NONE', #26, 0.09374999999999983347 ) ;
#43 = CARTESIAN_POINT ( 'NONE',  ( 0.000000000000000000, 0.000000000000000000, 0.000000000000000000 ) ) ;
#44 = FILL_AREA_STYLE ('',( #207 ) ) ;
#45 = CARTESIAN_POINT ( 'NONE',  ( 0.000000000000000000, 0.000000000000000000, -0.09375000000000001388 ) ) ;
#46 = SURFACE_SIDE_STYLE ('',( #264 ) ) ;
#47 = PRESENTATION_LAYER_ASSIGNMENT (  '', '', ( #60 ) ) ;
#48 = SURFACE_SIDE_STYLE ('',( #243 ) ) ;
#49 = LENGTH_MEASURE_WITH_UNIT ( LENGTH_MEASURE( 0.02539999999999999897 ), #189 );
#50 = ADVANCED_FACE ( 'NONE', ( #245 ), #96, .T. ) ;
#51 =( CONVERSION_BASED_UNIT ( 'INCH', #268 ) LENGTH_UNIT ( ) NAMED_UNIT ( #62 ) );
#52 = DIRECTION ( 'NONE',  ( 0.000000000000000000, 0.000000000000000000, -1.000000000000000000 ) ) ;
#53 = VECTOR ( 'NONE', #233, 39.37007874015748143 ) ;
#54 = CARTESIAN_POINT ( 'NONE',  ( 3.061616997868383141E-16, 2.500000000000000000, 0.000000000000000000 ) ) ;
#55 = DIMENSIONAL_EXPONENTS ( 1.000000000000000000, 0.000000000000000000, 0.000000000000000000, 0.000000000000000000, 0.000000000000000000, 0.000000000000000000, 0.000000000000000000 ) ;
#56 =( LENGTH_UNIT ( ) NAMED_UNIT ( * ) SI_UNIT ( $, .METRE. ) );
#57 = STYLED_ITEM ( 'NONE', ( #14 ), #121 ) ;
#58 = EDGE_CURVE ( 'NONE', #103, #236, #4, .T. ) ;
#59 = DIRECTION ( 'NONE',  ( 1.000000000000000000, -1.749495427353361372E-16, 0.000000000000000000 ) ) ;
#60 = STYLED_ITEM ( 'NONE', ( #266 ), #211 ) ;
#61 =( NAMED_UNIT ( * ) SI_UNIT ( $, .STERADIAN. ) SOLID_ANGLE_UNIT ( ) );
#62 = DIMENSIONAL_EXPONENTS ( 1.000000000000000000, 0.000000000000000000, 0.000000000000000000, 0.000000000000000000, 0.000000000000000000, 0.000000000000000000, 0.000000000000000000 ) ;
#63 = DIRECTION ( 'NONE',  ( 1.749495427353361372E-16, 1.000000000000000000, -0.000000000000000000 ) ) ;
#64 = CARTESIAN_POINT ( 'NONE',  ( 0.000000000000000000, 0.000000000000000000, 0.000000000000000000 ) ) ;
#65 = APPLICATION_PROTOCOL_DEFINITION ( 'draft international standard', 'automotive_design', 1998, #21 ) ;
#66 = ORIENTED_EDGE ( 'NONE', *, *, #177, .T. ) ;
#67 = UNCERTAINTY_MEASURE_WITH_UNIT (LENGTH_MEASURE( 1.000000000000000082E-05 ), #298, 'distance_accuracy_value', 'NONE');
#68 = DIRECTION ( 'NONE',  ( -0.000000000000000000, -1.000000000000000000, -0.000000000000000000 ) ) ;
#69 = CARTESIAN_POINT ( 'NONE',  ( 0.000000000000000000, 0.000000000000000000, 0.000000000000000000 ) ) ;
#70 = DIRECTION ( 'NONE',  ( -1.000000000000000000, 0.000000000000000000, 0.000000000000000000 ) ) ;
#71 = DIRECTION ( 'NONE',  ( 0.000000000000000000, 0.000000000000000000, -1.000000000000000000 ) ) ;
#72 = DIRECTION ( 'NONE',  ( -1.000000000000000000, 0.000000000000000000, 0.000000000000000000 ) ) ;
#73 = EDGE_LOOP ( 'NONE', ( #66, #38 ) ) ;
#74 = DIRECTION ( 'NONE',  ( 1.749495427353361372E-16, 1.000000000000000000, -0.000000000000000000 ) ) ;
#75 = VECTOR ( 'NONE', #195, 39.37007874015748143 ) ;
#76 = SURFACE_STYLE_USAGE ( .BOTH. , #46 ) ;
#77 = ORIENTED_EDGE ( 'NONE', *, *, #82, .T. ) ;
#78 = CIRCLE ( 'NONE', #7, 0.09374999999999968081 ) ;
#79 = PRODUCT_DEFINITION_FORMATION_WITH_SPECIFIED_SOURCE ( 'ANY', '', #231, .NOT_KNOWN. ) ;
#80 = ORIENTED_EDGE ( 'NONE', *, *, #299, .T. ) ;
#81 = DIRECTION ( 'NONE',  ( -0.000000000000000000, -1.000000000000000000, -0.000000000000000000 ) ) ;
#82 = EDGE_CURVE ( 'NONE', #87, #168, #110, .T. ) ;
#83 =( GEOMETRIC_REPRESENTATION_CONTEXT ( 3 ) GLOBAL_UNCERTAINTY_ASSIGNED_CONTEXT ( ( #222 ) ) GLOBAL_UNIT_ASSIGNED_CONTEXT ( ( #155, #35, #61 ) ) REPRESENTATION_CONTEXT ( 'NONE', 'WORKASPACE' ) );
#84 = FACE_OUTER_BOUND ( 'NONE', #73, .T. ) ;
#85 = FILL_AREA_STYLE ('',( #297 ) ) ;
#86 = AXIS2_PLACEMENT_3D ( 'NONE', #151, #128, #296 ) ;
#87 = VERTEX_POINT ( 'NONE', #92 ) ;
#88 = VERTEX_POINT ( 'NONE', #174 ) ;
#89 =( LENGTH_UNIT ( ) NAMED_UNIT ( * ) SI_UNIT ( $, .METRE. ) );
#90 = MECHANICAL_DESIGN_GEOMETRIC_PRESENTATION_REPRESENTATION (  '', ( #109 ), #83 ) ;
#91 = SURFACE_SIDE_STYLE ('',( #240 ) ) ;
#92 = CARTESIAN_POINT ( 'NONE',  ( -0.09374999999999998612, 0.7499999999999998890, 0.000000000000000000 ) ) ;
#93 = EDGE_CURVE ( 'NONE', #87, #303, #120, .T. ) ;
#94 = DIRECTION ( 'NONE',  ( 1.749495427353361372E-16, 1.000000000000000000, -0.000000000000000000 ) ) ;
#95 = AXIS2_PLACEMENT_3D ( 'NONE', #217, #63, #180 ) ;
#96 = PLANE ( 'NONE',  #221 ) ;
#97 = MECHANICAL_DESIGN_GEOMETRIC_PRESENTATION_REPRESENTATION (  '', ( #8 ), #279 ) ;
#98 = PRESENTATION_STYLE_ASSIGNMENT (( #141 ) ) ;
#99 = CARTESIAN_POINT ( 'NONE',  ( 0.09374999999999998612, 0.7499999999999998890, 1.148106374200642322E-17 ) ) ;
#100 = AXIS2_PLACEMENT_3D ( 'NONE', #285, #68, #167 ) ;
#101 = PLANE ( 'NONE',  #130 ) ;
#102 = PRODUCT_DEFINITION ( 'UNKNOWN', '', #79, #218 ) ;
#103 = VERTEX_POINT ( 'NONE', #286 ) ;
#104 = ORIENTED_EDGE ( 'NONE', *, *, #82, .F. ) ;
#105 = ORIENTED_EDGE ( 'NONE', *, *, #262, .T. ) ;
#106 = ORIENTED_EDGE ( 'NONE', *, *, #154, .F. ) ;
#107 = UNCERTAINTY_MEASURE_WITH_UNIT (LENGTH_MEASURE( 1.000000000000000082E-05 ), #158, 'distance_accuracy_value', 'NONE');
#108 =( NAMED_UNIT ( * ) PLANE_ANGLE_UNIT ( ) SI_UNIT ( $, .RADIAN. ) );
#109 = STYLED_ITEM ( 'NONE', ( #201 ), #34 ) ;
#110 = CIRCLE ( 'NONE', #289, 0.09374999999999998612 ) ;
#111 = VECTOR ( 'NONE', #187, 39.37007874015748143 ) ;
#112 = ADVANCED_FACE ( 'NONE', ( #178 ), #42, .T. ) ;
#113 = FILL_AREA_STYLE_COLOUR ( '', #274 ) ;
#114 = CARTESIAN_POINT ( 'NONE',  ( 1.148106374200643555E-17, 0.000000000000000000, 0.09375000000000001388 ) ) ;
#115 = FILL_AREA_STYLE ('',( #139 ) ) ;
#116 =( GEOMETRIC_REPRESENTATION_CONTEXT ( 3 ) GLOBAL_UNCERTAINTY_ASSIGNED_CONTEXT ( ( #107 ) ) GLOBAL_UNIT_ASSIGNED_CONTEXT ( ( #158, #108, #257 ) ) REPRESENTATION_CONTEXT ( 'NONE', 'WORKASPACE' ) );
#117 = UNCERTAINTY_MEASURE_WITH_UNIT (LENGTH_MEASURE( 1.000000000000000082E-05 ), #142, 'distance_accuracy_value', 'NONE');
#118 = CARTESIAN_POINT ( 'NONE',  ( 3.061616997868383141E-16, 2.500000000000000000, 0.000000000000000000 ) ) ;
#119 = SHAPE_DEFINITION_REPRESENTATION ( #36, #170 ) ;
#120 = LINE ( 'NONE', #227, #111 ) ;
#121 = ADVANCED_FACE ( 'NONE', ( #29 ), #136, .T. ) ;
#122 =( NAMED_UNIT ( * ) PLANE_ANGLE_UNIT ( ) SI_UNIT ( $, .RADIAN. ) );
#123 = AXIS2_PLACEMENT_3D ( 'NONE', #64, #256, #283 ) ;
#124 = ADVANCED_FACE ( 'NONE', ( #181 ), #20, .F. ) ;
#125 = DIMENSIONAL_EXPONENTS ( 1.000000000000000000, 0.000000000000000000, 0.000000000000000000, 0.000000000000000000, 0.000000000000000000, 0.000000000000000000, 0.000000000000000000 ) ;
#126 = CLOSED_SHELL ( 'NONE', ( #112, #124, #165, #284 ) ) ;
#127 = DIMENSIONAL_EXPONENTS ( 1.000000000000000000, 0.000000000000000000, 0.000000000000000000, 0.000000000000000000, 0.000000000000000000, 0.000000000000000000, 0.000000000000000000 ) ;
#128 = DIRECTION ( 'NONE',  ( -0.000000000000000000, -1.000000000000000000, -0.000000000000000000 ) ) ;
#129 = MECHANICAL_DESIGN_GEOMETRIC_PRESENTATION_REPRESENTATION (  '', ( #263 ), #116 ) ;
#130 = AXIS2_PLACEMENT_3D ( 'NONE', #307, #144, #213 ) ;
#131 =( NAMED_UNIT ( * ) SI_UNIT ( $, .STERADIAN. ) SOLID_ANGLE_UNIT ( ) );
#132 = ORIENTED_EDGE ( 'NONE', *, *, #157, .T. ) ;
#133 = COLOUR_RGB ( '',1.000000000000000000, 0.000000000000000000, 0.000000000000000000 ) ;
#134 = EDGE_LOOP ( 'NONE', ( #80, #182, #309, #281 ) ) ;
#135 =( CONVERSION_BASED_UNIT ( 'INCH', #276 ) LENGTH_UNIT ( ) NAMED_UNIT ( #55 ) );
#136 = CYLINDRICAL_SURFACE ( 'NONE', #271, 0.09374999999999998612 ) ;
#137 = SURFACE_STYLE_USAGE ( .BOTH. , #261 ) ;
#138 = UNCERTAINTY_MEASURE_WITH_UNIT (LENGTH_MEASURE( 1.000000000000000082E-05 ), #234, 'distance_accuracy_value', 'NONE');
#139 = FILL_AREA_STYLE_COLOUR ( '', #191 ) ;
#140 = AXIS2_PLACEMENT_3D ( 'NONE', #294, #270, #59 ) ;
#141 = SURFACE_STYLE_USAGE ( .BOTH. , #48 ) ;
#142 =( CONVERSION_BASED_UNIT ( 'INCH', #49 ) LENGTH_UNIT ( ) NAMED_UNIT ( #198 ) );
#143 = CARTESIAN_POINT ( 'NONE',  ( 0.000000000000000000, 0.7500000000000001110, 0.000000000000000000 ) ) ;
#144 = DIRECTION ( 'NONE',  ( 0.000000000000000000, 1.000000000000000000, 0.000000000000000000 ) ) ;
#145 = COLOUR_RGB ( '',1.000000000000000000, 0.000000000000000000, 0.000000000000000000 ) ;
#146 = EDGE_CURVE ( 'NONE', #168, #88, #185, .T. ) ;
#147 =( LENGTH_UNIT ( ) NAMED_UNIT ( * ) SI_UNIT ( $, .METRE. ) );
#148 =( GEOMETRIC_REPRESENTATION_CONTEXT ( 3 ) GLOBAL_UNCERTAINTY_ASSIGNED_CONTEXT ( ( #164 ) ) GLOBAL_UNIT_ASSIGNED_CONTEXT ( ( #51, #190, #219 ) ) REPRESENTATION_CONTEXT ( 'NONE', 'WORKASPACE' ) );
#149 = CARTESIAN_POINT ( 'NONE',  ( 0.000000000000000000, 0.000000000000000000, 0.000000000000000000 ) ) ;
#150 = ADVANCED_FACE ( 'NONE', ( #161 ), #166, .T. ) ;
#151 = CARTESIAN_POINT ( 'NONE',  ( 0.000000000000000000, 0.7500000000000001110, 0.000000000000000000 ) ) ;
#152 = CIRCLE ( 'NONE', #2, 0.09374999999999998612 ) ;
#153 = LENGTH_MEASURE_WITH_UNIT ( LENGTH_MEASURE( 0.02539999999999999897 ), #56 );
#154 = EDGE_CURVE ( 'NONE', #168, #87, #152, .T. ) ;
#155 =( CONVERSION_BASED_UNIT ( 'INCH', #156 ) LENGTH_UNIT ( ) NAMED_UNIT ( #125 ) );
#156 = LENGTH_MEASURE_WITH_UNIT ( LENGTH_MEASURE( 0.02539999999999999897 ), #300 );
#157 = EDGE_CURVE ( 'NONE', #103, #205, #15, .T. ) ;
#158 =( CONVERSION_BASED_UNIT ( 'INCH', #204 ) LENGTH_UNIT ( ) NAMED_UNIT ( #250 ) );
#159 = ORIENTED_EDGE ( 'NONE', *, *, #154, .T. ) ;
#160 =( GEOMETRIC_REPRESENTATION_CONTEXT ( 3 ) GLOBAL_UNCERTAINTY_ASSIGNED_CONTEXT ( ( #138 ) ) GLOBAL_UNIT_ASSIGNED_CONTEXT ( ( #234, #260, #131 ) ) REPRESENTATION_CONTEXT ( 'NONE', 'WORKASPACE' ) );
#161 = FACE_OUTER_BOUND ( 'NONE', #12, .T. ) ;
#162 = PRODUCT_CONTEXT ( 'NONE', #21, 'mechanical' ) ;
#163 =( NAMED_UNIT ( * ) PLANE_ANGLE_UNIT ( ) SI_UNIT ( $, .RADIAN. ) );
#164 = UNCERTAINTY_MEASURE_WITH_UNIT (LENGTH_MEASURE( 1.000000000000000082E-05 ), #51, 'distance_accuracy_value', 'NONE');
#165 = ADVANCED_FACE ( 'NONE', ( #288 ), #290, .T. ) ;
#166 = CYLINDRICAL_SURFACE ( 'NONE', #100, 0.09374999999999998612 ) ;
#167 = DIRECTION ( 'NONE',  ( 0.000000000000000000, 0.000000000000000000, -1.000000000000000000 ) ) ;
#168 = VERTEX_POINT ( 'NONE', #99 ) ;
#169 = CIRCLE ( 'NONE', #273, 0.09374999999999968081 ) ;
#170 = ADVANCED_BREP_SHAPE_REPRESENTATION ( '81364', ( #209, #211, #123 ), #206 ) ;
#171 = SURFACE_SIDE_STYLE ('',( #192 ) ) ;
#172 = DIRECTION ( 'NONE',  ( 0.000000000000000000, -1.000000000000000000, -0.000000000000000000 ) ) ;
#173 = DIRECTION ( 'NONE',  ( -1.000000000000000000, 0.000000000000000000, 0.000000000000000000 ) ) ;
#174 = CARTESIAN_POINT ( 'NONE',  ( 0.09374999999999998612, 2.500000000000000000, 1.148106374200642322E-17 ) ) ;
#175 =( NAMED_UNIT ( * ) SI_UNIT ( $, .STERADIAN. ) SOLID_ANGLE_UNIT ( ) );
#176 = COLOUR_RGB ( '',0.7921568627450980005, 0.8196078431372548767, 0.9333333333333333481 ) ;
#177 = EDGE_CURVE ( 'NONE', #303, #88, #78, .T. ) ;
#178 = FACE_OUTER_BOUND ( 'NONE', #203, .T. ) ;
#179 = AXIS2_PLACEMENT_3D ( 'NONE', #54, #24, #188 ) ;
#180 = DIRECTION ( 'NONE',  ( -1.000000000000000000, 1.749495427353361372E-16, 0.000000000000000000 ) ) ;
#181 = FACE_OUTER_BOUND ( 'NONE', #40, .T. ) ;
#182 = ORIENTED_EDGE ( 'NONE', *, *, #58, .T. ) ;
#183 = VERTEX_POINT ( 'NONE', #45 ) ;
#184 = ORIENTED_EDGE ( 'NONE', *, *, #215, .F. ) ;
#185 = LINE ( 'NONE', #302, #295 ) ;
#186 = SURFACE_STYLE_USAGE ( .BOTH. , #305 ) ;
#187 = DIRECTION ( 'NONE',  ( 1.749495427353361372E-16, 1.000000000000000000, -0.000000000000000000 ) ) ;
#188 = DIRECTION ( 'NONE',  ( -1.000000000000000000, 0.000000000000000000, 0.000000000000000000 ) ) ;
#189 =( LENGTH_UNIT ( ) NAMED_UNIT ( * ) SI_UNIT ( $, .METRE. ) );
#190 =( NAMED_UNIT ( * ) PLANE_ANGLE_UNIT ( ) SI_UNIT ( $, .RADIAN. ) );
#191 = COLOUR_RGB ( '',0.7921568627450980005, 0.8196078431372548767, 0.9333333333333333481 ) ;
#192 = SURFACE_STYLE_FILL_AREA ( #287 ) ;
#193 = CARTESIAN_POINT ( 'NONE',  ( 3.061616997868383141E-16, 2.500000000000000000, 0.000000000000000000 ) ) ;
#194 = CLOSED_SHELL ( 'NONE', ( #121, #34, #150, #50 ) ) ;
#195 = DIRECTION ( 'NONE',  ( -0.000000000000000000, -1.000000000000000000, -0.000000000000000000 ) ) ;
#196 = DIRECTION ( 'NONE',  ( -1.000000000000000000, 0.000000000000000000, 0.000000000000000000 ) ) ;
#197 = PRESENTATION_LAYER_ASSIGNMENT (  '', '', ( #216 ) ) ;
#198 = DIMENSIONAL_EXPONENTS ( 1.000000000000000000, 0.000000000000000000, 0.000000000000000000, 0.000000000000000000, 0.000000000000000000, 0.000000000000000000, 0.000000000000000000 ) ;
#199 = MECHANICAL_DESIGN_GEOMETRIC_PRESENTATION_REPRESENTATION (  '', ( #57 ), #160 ) ;
#200 = EDGE_CURVE ( 'NONE', #183, #236, #23, .T. ) ;
#201 = PRESENTATION_STYLE_ASSIGNMENT (( #186 ) ) ;
#202 = CARTESIAN_POINT ( 'NONE',  ( 0.000000000000000000, 0.000000000000000000, -0.09374999999999998612 ) ) ;
#203 = EDGE_LOOP ( 'NONE', ( #77, #19, #249, #208 ) ) ;
#204 = LENGTH_MEASURE_WITH_UNIT ( LENGTH_MEASURE( 0.02539999999999999897 ), #22 );
#205 = VERTEX_POINT ( 'NONE', #244 ) ;
#206 =( GEOMETRIC_REPRESENTATION_CONTEXT ( 3 ) GLOBAL_UNCERTAINTY_ASSIGNED_CONTEXT ( ( #67 ) ) GLOBAL_UNIT_ASSIGNED_CONTEXT ( ( #298, #122, #253 ) ) REPRESENTATION_CONTEXT ( 'NONE', 'WORKASPACE' ) );
#207 = FILL_AREA_STYLE_COLOUR ( '', #251 ) ;
#208 = ORIENTED_EDGE ( 'NONE', *, *, #93, .F. ) ;
#209 = MANIFOLD_SOLID_BREP ( 'Revolve - Cutting Edge', #194 ) ;
#210 = SURFACE_STYLE_FILL_AREA ( #85 ) ;
#211 = MANIFOLD_SOLID_BREP ( 'Revolve - Tool Body (Straight Shanked)', #126 ) ;
#212 = ORIENTED_EDGE ( 'NONE', *, *, #293, .T. ) ;
#213 = DIRECTION ( 'NONE',  ( 0.000000000000000000, -0.000000000000000000, 1.000000000000000000 ) ) ;
#214 = FILL_AREA_STYLE_COLOUR ( '', #133 ) ;
#215 = EDGE_CURVE ( 'NONE', #88, #303, #169, .T. ) ;
#216 = STYLED_ITEM ( 'NONE', ( #98 ), #209 ) ;
#217 = CARTESIAN_POINT ( 'NONE',  ( 1.434719179842337383E-33, 0.7500000000000001110, 0.000000000000000000 ) ) ;
#218 = PRODUCT_DEFINITION_CONTEXT ( 'detailed design', #5, 'design' ) ;
#219 =( NAMED_UNIT ( * ) SI_UNIT ( $, .STERADIAN. ) SOLID_ANGLE_UNIT ( ) );
#220 = FILL_AREA_STYLE ('',( #113 ) ) ;
#221 = AXIS2_PLACEMENT_3D ( 'NONE', #69, #172, #52 ) ;
#222 = UNCERTAINTY_MEASURE_WITH_UNIT (LENGTH_MEASURE( 1.000000000000000082E-05 ), #155, 'distance_accuracy_value', 'NONE');
#223 = CIRCLE ( 'NONE', #86, 0.09374999999999998612 ) ;
#224 = DIRECTION ( 'NONE',  ( 0.000000000000000000, 0.000000000000000000, -1.000000000000000000 ) ) ;
#225 = CARTESIAN_POINT ( 'NONE',  ( 1.148106374200643401E-17, 0.000000000000000000, 0.09374999999999998612 ) ) ;
#226 =( LENGTH_UNIT ( ) NAMED_UNIT ( * ) SI_UNIT ( $, .METRE. ) );
#227 = CARTESIAN_POINT ( 'NONE',  ( -0.09374999999999952816, 2.500000000000000000, 0.000000000000000000 ) ) ;
#228 = CARTESIAN_POINT ( 'NONE',  ( -0.09374999999999937550, 2.500000000000000000, 0.000000000000000000 ) ) ;
#229 = FACE_OUTER_BOUND ( 'NONE', #232, .T. ) ;
#230 = PRESENTATION_LAYER_ASSIGNMENT (  '', '', ( #57 ) ) ;
#231 = PRODUCT ( '81364', '81364', '', ( #162 ) ) ;
#232 = EDGE_LOOP ( 'NONE', ( #259, #33 ) ) ;
#233 = DIRECTION ( 'NONE',  ( -0.000000000000000000, -1.000000000000000000, -0.000000000000000000 ) ) ;
#234 =( CONVERSION_BASED_UNIT ( 'INCH', #304 ) LENGTH_UNIT ( ) NAMED_UNIT ( #32 ) );
#235 = ORIENTED_EDGE ( 'NONE', *, *, #293, .F. ) ;
#236 = VERTEX_POINT ( 'NONE', #114 ) ;
#237 = AXIS2_PLACEMENT_3D ( 'NONE', #149, #265, #71 ) ;
#238 = PRESENTATION_STYLE_ASSIGNMENT (( #277 ) ) ;
#239 = SURFACE_STYLE_FILL_AREA ( #44 ) ;
#240 = SURFACE_STYLE_FILL_AREA ( #306 ) ;
#241 = PRESENTATION_LAYER_ASSIGNMENT (  '', '', ( #109 ) ) ;
#242 = MECHANICAL_DESIGN_GEOMETRIC_PRESENTATION_REPRESENTATION (  '', ( #60 ), #9 ) ;
#243 = SURFACE_STYLE_FILL_AREA ( #115 ) ;
#244 = CARTESIAN_POINT ( 'NONE',  ( 0.000000000000000000, 0.7500000000000001110, -0.09374999999999998612 ) ) ;
#245 = FACE_OUTER_BOUND ( 'NONE', #18, .T. ) ;
#246 = UNCERTAINTY_MEASURE_WITH_UNIT (LENGTH_MEASURE( 1.000000000000000082E-05 ), #135, 'distance_accuracy_value', 'NONE');
#247 = AXIS2_PLACEMENT_3D ( 'NONE', #143, #3, #224 ) ;
#248 =( NAMED_UNIT ( * ) PLANE_ANGLE_UNIT ( ) SI_UNIT ( $, .RADIAN. ) );
#249 = ORIENTED_EDGE ( 'NONE', *, *, #177, .F. ) ;
#250 = DIMENSIONAL_EXPONENTS ( 1.000000000000000000, 0.000000000000000000, 0.000000000000000000, 0.000000000000000000, 0.000000000000000000, 0.000000000000000000, 0.000000000000000000 ) ;
#251 = COLOUR_RGB ( '',1.000000000000000000, 0.000000000000000000, 0.000000000000000000 ) ;
#252 = PRODUCT_RELATED_PRODUCT_CATEGORY ( 'part', '', ( #231 ) ) ;
#253 =( NAMED_UNIT ( * ) SI_UNIT ( $, .STERADIAN. ) SOLID_ANGLE_UNIT ( ) );
#254 = MECHANICAL_DESIGN_GEOMETRIC_PRESENTATION_REPRESENTATION (  '', ( #216 ), #148 ) ;
#255 = DIRECTION ( 'NONE',  ( 1.749495427353361372E-16, 1.000000000000000000, -0.000000000000000000 ) ) ;
#256 = DIRECTION ( 'NONE',  ( 0.000000000000000000, 0.000000000000000000, 1.000000000000000000 ) ) ;
#257 =( NAMED_UNIT ( * ) SI_UNIT ( $, .STERADIAN. ) SOLID_ANGLE_UNIT ( ) );
#258 = ORIENTED_EDGE ( 'NONE', *, *, #93, .T. ) ;
#259 = ORIENTED_EDGE ( 'NONE', *, *, #299, .F. ) ;
#260 =( NAMED_UNIT ( * ) PLANE_ANGLE_UNIT ( ) SI_UNIT ( $, .RADIAN. ) );
#261 = SURFACE_SIDE_STYLE ('',( #239 ) ) ;
#262 = EDGE_CURVE ( 'NONE', #205, #183, #292, .T. ) ;
#263 = STYLED_ITEM ( 'NONE', ( #238 ), #150 ) ;
#264 = SURFACE_STYLE_FILL_AREA ( #220 ) ;
#265 = DIRECTION ( 'NONE',  ( -0.000000000000000000, -1.000000000000000000, -0.000000000000000000 ) ) ;
#266 = PRESENTATION_STYLE_ASSIGNMENT (( #27 ) ) ;
#267 = PRESENTATION_LAYER_ASSIGNMENT (  '', '', ( #263 ) ) ;
#268 = LENGTH_MEASURE_WITH_UNIT ( LENGTH_MEASURE( 0.02539999999999999897 ), #226 );
#269 = DIRECTION ( 'NONE',  ( 1.749495427353361372E-16, 1.000000000000000000, -0.000000000000000000 ) ) ;
#270 = DIRECTION ( 'NONE',  ( -1.749495427353361372E-16, -1.000000000000000000, 0.000000000000000000 ) ) ;
#271 = AXIS2_PLACEMENT_3D ( 'NONE', #43, #39, #11 ) ;
#272 = PLANE ( 'NONE',  #140 ) ;
#273 = AXIS2_PLACEMENT_3D ( 'NONE', #118, #74, #196 ) ;
#274 = COLOUR_RGB ( '',1.000000000000000000, 0.000000000000000000, 0.000000000000000000 ) ;
#275 = CARTESIAN_POINT ( 'NONE',  ( 0.000000000000000000, 0.7499999999999998890, 0.000000000000000000 ) ) ;
#276 = LENGTH_MEASURE_WITH_UNIT ( LENGTH_MEASURE( 0.02539999999999999897 ), #147 );
#277 = SURFACE_STYLE_USAGE ( .BOTH. , #91 ) ;
#278 = ORIENTED_EDGE ( 'NONE', *, *, #58, .F. ) ;
#279 =( GEOMETRIC_REPRESENTATION_CONTEXT ( 3 ) GLOBAL_UNCERTAINTY_ASSIGNED_CONTEXT ( ( #117 ) ) GLOBAL_UNIT_ASSIGNED_CONTEXT ( ( #142, #248, #28 ) ) REPRESENTATION_CONTEXT ( 'NONE', 'WORKASPACE' ) );
#280 = DIRECTION ( 'NONE',  ( 1.749495427353361372E-16, 1.000000000000000000, -0.000000000000000000 ) ) ;
#281 = ORIENTED_EDGE ( 'NONE', *, *, #262, .F. ) ;
#282 = CIRCLE ( 'NONE', #41, 0.09375000000000001388 ) ;
#283 = DIRECTION ( 'NONE',  ( 1.000000000000000000, 0.000000000000000000, 0.000000000000000000 ) ) ;
#284 = ADVANCED_FACE ( 'NONE', ( #84 ), #272, .F. ) ;
#285 = CARTESIAN_POINT ( 'NONE',  ( 0.000000000000000000, 0.000000000000000000, 0.000000000000000000 ) ) ;
#286 = CARTESIAN_POINT ( 'NONE',  ( 1.148106374200643401E-17, 0.7500000000000001110, 0.09374999999999998612 ) ) ;
#287 = FILL_AREA_STYLE ('',( #308 ) ) ;
#288 = FACE_OUTER_BOUND ( 'NONE', #13, .T. ) ;
#289 = AXIS2_PLACEMENT_3D ( 'NONE', #291, #269, #72 ) ;
#290 = CYLINDRICAL_SURFACE ( 'NONE', #179, 0.09374999999999983347 ) ;
#291 = CARTESIAN_POINT ( 'NONE',  ( 0.000000000000000000, 0.7499999999999998890, 0.000000000000000000 ) ) ;
#292 = LINE ( 'NONE', #202, #53 ) ;
#293 = EDGE_CURVE ( 'NONE', #236, #183, #282, .T. ) ;
#294 = CARTESIAN_POINT ( 'NONE',  ( 0.09374999999999998612, 2.500000000000000000, 0.000000000000000000 ) ) ;
#295 = VECTOR ( 'NONE', #280, 39.37007874015748143 ) ;
#296 = DIRECTION ( 'NONE',  ( 0.000000000000000000, 0.000000000000000000, -1.000000000000000000 ) ) ;
#297 = FILL_AREA_STYLE_COLOUR ( '', #145 ) ;
#298 =( CONVERSION_BASED_UNIT ( 'INCH', #153 ) LENGTH_UNIT ( ) NAMED_UNIT ( #127 ) );
#299 = EDGE_CURVE ( 'NONE', #205, #103, #223, .T. ) ;
#300 =( LENGTH_UNIT ( ) NAMED_UNIT ( * ) SI_UNIT ( $, .METRE. ) );
#301 = PRESENTATION_LAYER_ASSIGNMENT (  '', '', ( #8 ) ) ;
#302 = CARTESIAN_POINT ( 'NONE',  ( 0.09375000000000013878, 2.500000000000000000, 1.148106374200641552E-17 ) ) ;
#303 = VERTEX_POINT ( 'NONE', #228 ) ;
#304 = LENGTH_MEASURE_WITH_UNIT ( LENGTH_MEASURE( 0.02539999999999999897 ), #89 );
#305 = SURFACE_SIDE_STYLE ('',( #210 ) ) ;
#306 = FILL_AREA_STYLE ('',( #214 ) ) ;
#307 = CARTESIAN_POINT ( 'NONE',  ( 0.000000000000000000, 0.7500000000000001110, 0.000000000000000000 ) ) ;
#308 = FILL_AREA_STYLE_COLOUR ( '', #176 ) ;
#309 = ORIENTED_EDGE ( 'NONE', *, *, #200, .F. ) ;
ENDSEC;
END-ISO-10303-21;
