ISO-10303-21;
HEADER;
FILE_DESCRIPTION (( 'STEP AP214' ),
    '1' );
FILE_NAME ('83309.STEP',
    '2023-06-23T09:13:18',
    ( '' ),
    ( '' ),
    'SwSTEP 2.0',
    'SolidWorks 2023',
    '' );
FILE_SCHEMA (( 'AUTOMOTIVE_DESIGN' ));
ENDSEC;

DATA;
#1 = EDGE_CURVE ( 'NONE', #117, #118, #129, .T. ) ;
#2 = AXIS2_PLACEMENT_3D ( 'NONE', #119, #250, #172 ) ;
#3 = CARTESIAN_POINT ( 'NONE',  ( 0.000000000000000000, 0.000000000000000000, 0.000000000000000000 ) ) ;
#4 = DIRECTION ( 'NONE',  ( 0.000000000000000000, 0.000000000000000000, -1.000000000000000000 ) ) ;
#5 =( CONVERSION_BASED_UNIT ( 'INCH', #143 ) LENGTH_UNIT ( ) NAMED_UNIT ( #178 ) );
#6 =( NAMED_UNIT ( * ) SI_UNIT ( $, .STERADIAN. ) SOLID_ANGLE_UNIT ( ) );
#7 = PRESENTATION_STYLE_ASSIGNMENT (( #242 ) ) ;
#8 = UNCERTAINTY_MEASURE_WITH_UNIT (LENGTH_MEASURE( 1.000000000000000082E-05 ), #159, 'distance_accuracy_value', 'NONE');
#9 = DIRECTION ( 'NONE',  ( -1.000000000000000000, 0.000000000000000000, 0.000000000000000000 ) ) ;
#10 = CARTESIAN_POINT ( 'NONE',  ( 0.000000000000000000, 0.000000000000000000, 0.000000000000000000 ) ) ;
#11 = VERTEX_POINT ( 'NONE', #165 ) ;
#12 = DIMENSIONAL_EXPONENTS ( 1.000000000000000000, 0.000000000000000000, 0.000000000000000000, 0.000000000000000000, 0.000000000000000000, 0.000000000000000000, 0.000000000000000000 ) ;
#13 = LINE ( 'NONE', #85, #74 ) ;
#14 = VERTEX_POINT ( 'NONE', #254 ) ;
#15 = CLOSED_SHELL ( 'NONE', ( #21, #285, #45, #167 ) ) ;
#16 = DIRECTION ( 'NONE',  ( 0.000000000000000000, 0.000000000000000000, -1.000000000000000000 ) ) ;
#17 = ORIENTED_EDGE ( 'NONE', *, *, #230, .F. ) ;
#18 = AXIS2_PLACEMENT_3D ( 'NONE', #116, #114, #16 ) ;
#19 = SURFACE_STYLE_FILL_AREA ( #91 ) ;
#20 = ORIENTED_EDGE ( 'NONE', *, *, #1, .F. ) ;
#21 = ADVANCED_FACE ( 'NONE', ( #52 ), #212, .T. ) ;
#22 =( NAMED_UNIT ( * ) SI_UNIT ( $, .STERADIAN. ) SOLID_ANGLE_UNIT ( ) );
#23 = FACE_OUTER_BOUND ( 'NONE', #205, .T. ) ;
#24 = AXIS2_PLACEMENT_3D ( 'NONE', #206, #71, #47 ) ;
#25 = STYLED_ITEM ( 'NONE', ( #7 ), #285 ) ;
#26 =( CONVERSION_BASED_UNIT ( 'INCH', #234 ) LENGTH_UNIT ( ) NAMED_UNIT ( #12 ) );
#27 = DIRECTION ( 'NONE',  ( -9.184850993605148438E-17, 1.000000000000000000, -0.000000000000000000 ) ) ;
#28 = DIRECTION ( 'NONE',  ( -1.000000000000000000, 0.000000000000000000, 0.000000000000000000 ) ) ;
#29 = CARTESIAN_POINT ( 'NONE',  ( 0.1875000000000000278, 4.000000000000000000, 2.296212748401289266E-17 ) ) ;
#30 = CIRCLE ( 'NONE', #228, 0.1875000000000000278 ) ;
#31 = DIRECTION ( 'NONE',  ( -9.184850993605148438E-17, 1.000000000000000000, -0.000000000000000000 ) ) ;
#32 = CIRCLE ( 'NONE', #308, 0.1875000000000001943 ) ;
#33 = ADVANCED_FACE ( 'NONE', ( #121 ), #302, .F. ) ;
#34 = DIRECTION ( 'NONE',  ( -0.000000000000000000, -1.000000000000000000, -0.000000000000000000 ) ) ;
#35 = FILL_AREA_STYLE ('',( #110 ) ) ;
#36 = DIRECTION ( 'NONE',  ( -0.000000000000000000, -1.000000000000000000, -0.000000000000000000 ) ) ;
#37 = AXIS2_PLACEMENT_3D ( 'NONE', #201, #175, #180 ) ;
#38 = CARTESIAN_POINT ( 'NONE',  ( 7.908889478880890156E-34, 2.000000000000000000, 0.000000000000000000 ) ) ;
#39 = VERTEX_POINT ( 'NONE', #286 ) ;
#40 =( NAMED_UNIT ( * ) PLANE_ANGLE_UNIT ( ) SI_UNIT ( $, .RADIAN. ) );
#41 = EDGE_LOOP ( 'NONE', ( #46, #246 ) ) ;
#42 = COLOUR_RGB ( '',1.000000000000000000, 0.000000000000000000, 0.000000000000000000 ) ;
#43 = CARTESIAN_POINT ( 'NONE',  ( 0.000000000000000000, 2.000000000000000000, 0.000000000000000000 ) ) ;
#44 = AXIS2_PLACEMENT_3D ( 'NONE', #147, #218, #257 ) ;
#45 = ADVANCED_FACE ( 'NONE', ( #70 ), #256, .T. ) ;
#46 = ORIENTED_EDGE ( 'NONE', *, *, #1, .T. ) ;
#47 = DIRECTION ( 'NONE',  ( 0.000000000000000000, 0.000000000000000000, -1.000000000000000000 ) ) ;
#48 = APPLICATION_CONTEXT ( 'automotive_design' ) ;
#49 = SURFACE_SIDE_STYLE ('',( #19 ) ) ;
#50 = PRESENTATION_LAYER_ASSIGNMENT (  '', '', ( #270 ) ) ;
#51 =( GEOMETRIC_REPRESENTATION_CONTEXT ( 3 ) GLOBAL_UNCERTAINTY_ASSIGNED_CONTEXT ( ( #199 ) ) GLOBAL_UNIT_ASSIGNED_CONTEXT ( ( #249, #278, #22 ) ) REPRESENTATION_CONTEXT ( 'NONE', 'WORKASPACE' ) );
#52 = FACE_OUTER_BOUND ( 'NONE', #207, .T. ) ;
#53 = CARTESIAN_POINT ( 'NONE',  ( 2.296212748401287726E-17, 0.000000000000000000, 0.1875000000000000278 ) ) ;
#54 = ORIENTED_EDGE ( 'NONE', *, *, #123, .T. ) ;
#55 = COLOUR_RGB ( '',0.7921568627450980005, 0.8196078431372548767, 0.9333333333333333481 ) ;
#56 = EDGE_CURVE ( 'NONE', #118, #117, #30, .T. ) ;
#57 = COLOUR_RGB ( '',0.7921568627450980005, 0.8196078431372548767, 0.9333333333333333481 ) ;
#58 = UNCERTAINTY_MEASURE_WITH_UNIT (LENGTH_MEASURE( 1.000000000000000082E-05 ), #5, 'distance_accuracy_value', 'NONE');
#59 = FILL_AREA_STYLE ('',( #289 ) ) ;
#60 = MANIFOLD_SOLID_BREP ( 'Revolve - Tool Body (Straight Shanked)', #190 ) ;
#61 =( CONVERSION_BASED_UNIT ( 'INCH', #174 ) LENGTH_UNIT ( ) NAMED_UNIT ( #185 ) );
#62 = MANIFOLD_SOLID_BREP ( 'Revolve - Cutting Edge', #15 ) ;
#63 = PRESENTATION_STYLE_ASSIGNMENT (( #108 ) ) ;
#64 = DIRECTION ( 'NONE',  ( -1.000000000000000000, 0.000000000000000000, 0.000000000000000000 ) ) ;
#65 = SURFACE_STYLE_FILL_AREA ( #77 ) ;
#66 = DIRECTION ( 'NONE',  ( -9.184850993605148438E-17, 1.000000000000000000, -0.000000000000000000 ) ) ;
#67 = AXIS2_PLACEMENT_3D ( 'NONE', #43, #140, #137 ) ;
#68 = EDGE_CURVE ( 'NONE', #127, #118, #169, .T. ) ;
#69 = DIMENSIONAL_EXPONENTS ( 1.000000000000000000, 0.000000000000000000, 0.000000000000000000, 0.000000000000000000, 0.000000000000000000, 0.000000000000000000, 0.000000000000000000 ) ;
#70 = FACE_OUTER_BOUND ( 'NONE', #295, .T. ) ;
#71 = DIRECTION ( 'NONE',  ( -0.000000000000000000, -1.000000000000000000, -0.000000000000000000 ) ) ;
#72 = FILL_AREA_STYLE ('',( #135 ) ) ;
#73 = ORIENTED_EDGE ( 'NONE', *, *, #154, .F. ) ;
#74 = VECTOR ( 'NONE', #36, 39.37007874015748143 ) ;
#75 = DIRECTION ( 'NONE',  ( 0.000000000000000000, 0.000000000000000000, -1.000000000000000000 ) ) ;
#76 = MECHANICAL_DESIGN_GEOMETRIC_PRESENTATION_REPRESENTATION (  '', ( #264 ), #171 ) ;
#77 = FILL_AREA_STYLE ('',( #239 ) ) ;
#78 = UNCERTAINTY_MEASURE_WITH_UNIT (LENGTH_MEASURE( 1.000000000000000082E-05 ), #26, 'distance_accuracy_value', 'NONE');
#79 = DIRECTION ( 'NONE',  ( 0.000000000000000000, 0.000000000000000000, -1.000000000000000000 ) ) ;
#80 = SURFACE_SIDE_STYLE ('',( #197 ) ) ;
#81 = DIRECTION ( 'NONE',  ( -9.184850993605148438E-17, 1.000000000000000000, -0.000000000000000000 ) ) ;
#82 =( NAMED_UNIT ( * ) PLANE_ANGLE_UNIT ( ) SI_UNIT ( $, .RADIAN. ) );
#83 = EDGE_CURVE ( 'NONE', #11, #117, #13, .T. ) ;
#84 = PLANE ( 'NONE',  #252 ) ;
#85 = CARTESIAN_POINT ( 'NONE',  ( 0.000000000000000000, 0.000000000000000000, -0.1875000000000000278 ) ) ;
#86 = MECHANICAL_DESIGN_GEOMETRIC_PRESENTATION_REPRESENTATION (  '', ( #275 ), #126 ) ;
#87 = AXIS2_PLACEMENT_3D ( 'NONE', #38, #298, #273 ) ;
#88 = ADVANCED_BREP_SHAPE_REPRESENTATION ( '83309', ( #62, #60, #44 ), #163 ) ;
#89 = VERTEX_POINT ( 'NONE', #276 ) ;
#90 = PRESENTATION_STYLE_ASSIGNMENT (( #258 ) ) ;
#91 = FILL_AREA_STYLE ('',( #290 ) ) ;
#92 = LENGTH_MEASURE_WITH_UNIT ( LENGTH_MEASURE( 0.02539999999999999897 ), #294 );
#93 = ORIENTED_EDGE ( 'NONE', *, *, #68, .T. ) ;
#94 =( NAMED_UNIT ( * ) PLANE_ANGLE_UNIT ( ) SI_UNIT ( $, .RADIAN. ) );
#95 = LENGTH_MEASURE_WITH_UNIT ( LENGTH_MEASURE( 0.02539999999999999897 ), #277 );
#96 = CYLINDRICAL_SURFACE ( 'NONE', #122, 0.1875000000000001110 ) ;
#97 =( NAMED_UNIT ( * ) PLANE_ANGLE_UNIT ( ) SI_UNIT ( $, .RADIAN. ) );
#98 = CARTESIAN_POINT ( 'NONE',  ( -0.1875000000000002776, 4.000000000000000000, 0.000000000000000000 ) ) ;
#99 = APPLICATION_PROTOCOL_DEFINITION ( 'draft international standard', 'automotive_design', 1998, #48 ) ;
#100 = ORIENTED_EDGE ( 'NONE', *, *, #230, .T. ) ;
#101 = APPLICATION_PROTOCOL_DEFINITION ( 'draft international standard', 'automotive_design', 1998, #168 ) ;
#102 = MECHANICAL_DESIGN_GEOMETRIC_PRESENTATION_REPRESENTATION (  '', ( #251 ), #149 ) ;
#103 = CIRCLE ( 'NONE', #153, 0.1875000000000000278 ) ;
#104 = DIRECTION ( 'NONE',  ( -0.000000000000000000, -1.000000000000000000, -0.000000000000000000 ) ) ;
#105 = UNCERTAINTY_MEASURE_WITH_UNIT (LENGTH_MEASURE( 1.000000000000000082E-05 ), #188, 'distance_accuracy_value', 'NONE');
#106 = FACE_OUTER_BOUND ( 'NONE', #41, .T. ) ;
#107 =( NAMED_UNIT ( * ) PLANE_ANGLE_UNIT ( ) SI_UNIT ( $, .RADIAN. ) );
#108 = SURFACE_STYLE_USAGE ( .BOTH. , #155 ) ;
#109 = STYLED_ITEM ( 'NONE', ( #307 ), #21 ) ;
#110 = FILL_AREA_STYLE_COLOUR ( '', #57 ) ;
#111 = ADVANCED_FACE ( 'NONE', ( #23 ), #192, .T. ) ;
#112 = SURFACE_STYLE_USAGE ( .BOTH. , #128 ) ;
#113 = ORIENTED_EDGE ( 'NONE', *, *, #173, .F. ) ;
#114 = DIRECTION ( 'NONE',  ( 0.000000000000000000, -1.000000000000000000, -0.000000000000000000 ) ) ;
#115 = CIRCLE ( 'NONE', #301, 0.1875000000000000278 ) ;
#116 = CARTESIAN_POINT ( 'NONE',  ( 0.000000000000000000, 0.000000000000000000, 0.000000000000000000 ) ) ;
#117 = VERTEX_POINT ( 'NONE', #209 ) ;
#118 = VERTEX_POINT ( 'NONE', #53 ) ;
#119 = CARTESIAN_POINT ( 'NONE',  ( 0.1875000000000000278, 4.000000000000000000, 0.000000000000000000 ) ) ;
#120 = CARTESIAN_POINT ( 'NONE',  ( -1.836970198721029688E-16, 4.000000000000000000, 0.000000000000000000 ) ) ;
#121 = FACE_OUTER_BOUND ( 'NONE', #274, .T. ) ;
#122 = AXIS2_PLACEMENT_3D ( 'NONE', #279, #27, #214 ) ;
#123 = EDGE_CURVE ( 'NONE', #89, #141, #148, .T. ) ;
#124 = SURFACE_STYLE_USAGE ( .BOTH. , #49 ) ;
#125 = PRODUCT_DEFINITION ( 'UNKNOWN', '', #150, #213 ) ;
#126 =( GEOMETRIC_REPRESENTATION_CONTEXT ( 3 ) GLOBAL_UNCERTAINTY_ASSIGNED_CONTEXT ( ( #288 ) ) GLOBAL_UNIT_ASSIGNED_CONTEXT ( ( #217, #94, #224 ) ) REPRESENTATION_CONTEXT ( 'NONE', 'WORKASPACE' ) );
#127 = VERTEX_POINT ( 'NONE', #164 ) ;
#128 = SURFACE_SIDE_STYLE ('',( #132 ) ) ;
#129 = CIRCLE ( 'NONE', #170, 0.1875000000000000278 ) ;
#130 = COLOUR_RGB ( '',1.000000000000000000, 0.000000000000000000, 0.000000000000000000 ) ;
#131 =( NAMED_UNIT ( * ) SI_UNIT ( $, .STERADIAN. ) SOLID_ANGLE_UNIT ( ) );
#132 = SURFACE_STYLE_FILL_AREA ( #35 ) ;
#133 = EDGE_LOOP ( 'NONE', ( #181, #280 ) ) ;
#134 =( LENGTH_UNIT ( ) NAMED_UNIT ( * ) SI_UNIT ( $, .METRE. ) );
#135 = FILL_AREA_STYLE_COLOUR ( '', #241 ) ;
#136 = ORIENTED_EDGE ( 'NONE', *, *, #173, .T. ) ;
#137 = DIRECTION ( 'NONE',  ( 0.000000000000000000, 0.000000000000000000, -1.000000000000000000 ) ) ;
#138 = DIMENSIONAL_EXPONENTS ( 1.000000000000000000, 0.000000000000000000, 0.000000000000000000, 0.000000000000000000, 0.000000000000000000, 0.000000000000000000, 0.000000000000000000 ) ;
#139 = VECTOR ( 'NONE', #31, 39.37007874015748143 ) ;
#140 = DIRECTION ( 'NONE',  ( -0.000000000000000000, -1.000000000000000000, -0.000000000000000000 ) ) ;
#141 = VERTEX_POINT ( 'NONE', #29 ) ;
#142 = ORIENTED_EDGE ( 'NONE', *, *, #154, .T. ) ;
#143 = LENGTH_MEASURE_WITH_UNIT ( LENGTH_MEASURE( 0.02539999999999999897 ), #287 );
#144 =( GEOMETRIC_REPRESENTATION_CONTEXT ( 3 ) GLOBAL_UNCERTAINTY_ASSIGNED_CONTEXT ( ( #105 ) ) GLOBAL_UNIT_ASSIGNED_CONTEXT ( ( #188, #259, #247 ) ) REPRESENTATION_CONTEXT ( 'NONE', 'WORKASPACE' ) );
#145 = PRESENTATION_LAYER_ASSIGNMENT (  '', '', ( #25 ) ) ;
#146 = DIRECTION ( 'NONE',  ( -9.184850993605148438E-17, 1.000000000000000000, -0.000000000000000000 ) ) ;
#147 = CARTESIAN_POINT ( 'NONE',  ( 0.000000000000000000, 0.000000000000000000, 0.000000000000000000 ) ) ;
#148 = LINE ( 'NONE', #215, #191 ) ;
#149 =( GEOMETRIC_REPRESENTATION_CONTEXT ( 3 ) GLOBAL_UNCERTAINTY_ASSIGNED_CONTEXT ( ( #158 ) ) GLOBAL_UNIT_ASSIGNED_CONTEXT ( ( #61, #82, #162 ) ) REPRESENTATION_CONTEXT ( 'NONE', 'WORKASPACE' ) );
#150 = PRODUCT_DEFINITION_FORMATION_WITH_SPECIFIED_SOURCE ( 'ANY', '', #309, .NOT_KNOWN. ) ;
#151 = ADVANCED_FACE ( 'NONE', ( #300 ), #96, .T. ) ;
#152 = VECTOR ( 'NONE', #243, 39.37007874015748143 ) ;
#153 = AXIS2_PLACEMENT_3D ( 'NONE', #304, #235, #28 ) ;
#154 = EDGE_CURVE ( 'NONE', #14, #39, #306, .T. ) ;
#155 = SURFACE_SIDE_STYLE ('',( #253 ) ) ;
#156 = CARTESIAN_POINT ( 'NONE',  ( 2.296212748401287726E-17, 0.000000000000000000, 0.1875000000000000278 ) ) ;
#157 = SURFACE_STYLE_FILL_AREA ( #72 ) ;
#158 = UNCERTAINTY_MEASURE_WITH_UNIT (LENGTH_MEASURE( 1.000000000000000082E-05 ), #61, 'distance_accuracy_value', 'NONE');
#159 =( CONVERSION_BASED_UNIT ( 'INCH', #263 ) LENGTH_UNIT ( ) NAMED_UNIT ( #138 ) );
#160 = ORIENTED_EDGE ( 'NONE', *, *, #83, .F. ) ;
#161 = ORIENTED_EDGE ( 'NONE', *, *, #123, .F. ) ;
#162 =( NAMED_UNIT ( * ) SI_UNIT ( $, .STERADIAN. ) SOLID_ANGLE_UNIT ( ) );
#163 =( GEOMETRIC_REPRESENTATION_CONTEXT ( 3 ) GLOBAL_UNCERTAINTY_ASSIGNED_CONTEXT ( ( #78 ) ) GLOBAL_UNIT_ASSIGNED_CONTEXT ( ( #26, #97, #267 ) ) REPRESENTATION_CONTEXT ( 'NONE', 'WORKASPACE' ) );
#164 = CARTESIAN_POINT ( 'NONE',  ( 2.296212748401287726E-17, 2.000000000000000000, 0.1875000000000000278 ) ) ;
#165 = CARTESIAN_POINT ( 'NONE',  ( 0.000000000000000000, 2.000000000000000000, -0.1875000000000000278 ) ) ;
#166 = DIRECTION ( 'NONE',  ( -1.000000000000000000, 0.000000000000000000, 0.000000000000000000 ) ) ;
#167 = ADVANCED_FACE ( 'NONE', ( #106 ), #195, .T. ) ;
#168 = APPLICATION_CONTEXT ( 'automotive_design' ) ;
#169 = LINE ( 'NONE', #156, #152 ) ;
#170 = AXIS2_PLACEMENT_3D ( 'NONE', #3, #104, #75 ) ;
#171 =( GEOMETRIC_REPRESENTATION_CONTEXT ( 3 ) GLOBAL_UNCERTAINTY_ASSIGNED_CONTEXT ( ( #58 ) ) GLOBAL_UNIT_ASSIGNED_CONTEXT ( ( #5, #107, #6 ) ) REPRESENTATION_CONTEXT ( 'NONE', 'WORKASPACE' ) );
#172 = DIRECTION ( 'NONE',  ( 1.000000000000000000, 9.184850993605148438E-17, 0.000000000000000000 ) ) ;
#173 = EDGE_CURVE ( 'NONE', #141, #39, #32, .T. ) ;
#174 = LENGTH_MEASURE_WITH_UNIT ( LENGTH_MEASURE( 0.02539999999999999897 ), #134 );
#175 = DIRECTION ( 'NONE',  ( -0.000000000000000000, -1.000000000000000000, -0.000000000000000000 ) ) ;
#176 = ORIENTED_EDGE ( 'NONE', *, *, #225, .T. ) ;
#177 = COLOUR_RGB ( '',1.000000000000000000, 0.000000000000000000, 0.000000000000000000 ) ;
#178 = DIMENSIONAL_EXPONENTS ( 1.000000000000000000, 0.000000000000000000, 0.000000000000000000, 0.000000000000000000, 0.000000000000000000, 0.000000000000000000, 0.000000000000000000 ) ;
#179 = EDGE_LOOP ( 'NONE', ( #176, #54, #223, #73 ) ) ;
#180 = DIRECTION ( 'NONE',  ( 0.000000000000000000, 0.000000000000000000, -1.000000000000000000 ) ) ;
#181 = ORIENTED_EDGE ( 'NONE', *, *, #225, .F. ) ;
#182 = PRODUCT_DEFINITION_SHAPE ( 'NONE', 'NONE',  #125 ) ;
#183 = DIRECTION ( 'NONE',  ( -9.184850993605148438E-17, 1.000000000000000000, -0.000000000000000000 ) ) ;
#184 = ORIENTED_EDGE ( 'NONE', *, *, #56, .F. ) ;
#185 = DIMENSIONAL_EXPONENTS ( 1.000000000000000000, 0.000000000000000000, 0.000000000000000000, 0.000000000000000000, 0.000000000000000000, 0.000000000000000000, 0.000000000000000000 ) ;
#186 = PRESENTATION_LAYER_ASSIGNMENT (  '', '', ( #275 ) ) ;
#187 = FILL_AREA_STYLE_COLOUR ( '', #177 ) ;
#188 =( CONVERSION_BASED_UNIT ( 'INCH', #95 ) LENGTH_UNIT ( ) NAMED_UNIT ( #297 ) );
#189 = DIRECTION ( 'NONE',  ( -9.184850993605148438E-17, 1.000000000000000000, -0.000000000000000000 ) ) ;
#190 = CLOSED_SHELL ( 'NONE', ( #151, #282, #111, #33 ) ) ;
#191 = VECTOR ( 'NONE', #189, 39.37007874015748143 ) ;
#192 = CYLINDRICAL_SURFACE ( 'NONE', #260, 0.1875000000000001110 ) ;
#193 = SHAPE_DEFINITION_REPRESENTATION ( #182, #88 ) ;
#194 = PRODUCT_RELATED_PRODUCT_CATEGORY ( 'part', '', ( #309 ) ) ;
#195 = PLANE ( 'NONE',  #18 ) ;
#196 = DIRECTION ( 'NONE',  ( -0.000000000000000000, -1.000000000000000000, -0.000000000000000000 ) ) ;
#197 = SURFACE_STYLE_FILL_AREA ( #59 ) ;
#198 = PRESENTATION_LAYER_ASSIGNMENT (  '', '', ( #251 ) ) ;
#199 = UNCERTAINTY_MEASURE_WITH_UNIT (LENGTH_MEASURE( 1.000000000000000082E-05 ), #249, 'distance_accuracy_value', 'NONE');
#200 = FACE_OUTER_BOUND ( 'NONE', #245, .T. ) ;
#201 = CARTESIAN_POINT ( 'NONE',  ( 0.000000000000000000, 2.000000000000000000, 0.000000000000000000 ) ) ;
#202 = PRESENTATION_STYLE_ASSIGNMENT (( #112 ) ) ;
#203 = PRESENTATION_LAYER_ASSIGNMENT (  '', '', ( #109 ) ) ;
#204 = CARTESIAN_POINT ( 'NONE',  ( -1.836970198721029688E-16, 4.000000000000000000, 0.000000000000000000 ) ) ;
#205 = EDGE_LOOP ( 'NONE', ( #161, #265, #142, #113 ) ) ;
#206 = CARTESIAN_POINT ( 'NONE',  ( 0.000000000000000000, 0.000000000000000000, 0.000000000000000000 ) ) ;
#207 = EDGE_LOOP ( 'NONE', ( #248, #93, #20, #160 ) ) ;
#208 = DIMENSIONAL_EXPONENTS ( 1.000000000000000000, 0.000000000000000000, 0.000000000000000000, 0.000000000000000000, 0.000000000000000000, 0.000000000000000000, 0.000000000000000000 ) ;
#209 = CARTESIAN_POINT ( 'NONE',  ( 0.000000000000000000, 0.000000000000000000, -0.1875000000000000278 ) ) ;
#210 = CIRCLE ( 'NONE', #67, 0.1875000000000000278 ) ;
#211 = DIRECTION ( 'NONE',  ( 0.000000000000000000, 1.000000000000000000, 0.000000000000000000 ) ) ;
#212 = CYLINDRICAL_SURFACE ( 'NONE', #24, 0.1875000000000000278 ) ;
#213 = PRODUCT_DEFINITION_CONTEXT ( 'detailed design', #48, 'design' ) ;
#214 = DIRECTION ( 'NONE',  ( -1.000000000000000000, 0.000000000000000000, 0.000000000000000000 ) ) ;
#215 = CARTESIAN_POINT ( 'NONE',  ( 0.1874999999999999445, 4.000000000000000000, 2.296212748401288650E-17 ) ) ;
#216 = CIRCLE ( 'NONE', #37, 0.1875000000000000278 ) ;
#217 =( CONVERSION_BASED_UNIT ( 'INCH', #262 ) LENGTH_UNIT ( ) NAMED_UNIT ( #69 ) );
#218 = DIRECTION ( 'NONE',  ( 0.000000000000000000, 0.000000000000000000, 1.000000000000000000 ) ) ;
#219 = EDGE_CURVE ( 'NONE', #39, #141, #240, .T. ) ;
#220 =( LENGTH_UNIT ( ) NAMED_UNIT ( * ) SI_UNIT ( $, .METRE. ) );
#221 = MECHANICAL_DESIGN_GEOMETRIC_PRESENTATION_REPRESENTATION (  '', ( #109 ), #144 ) ;
#222 = FACE_OUTER_BOUND ( 'NONE', #133, .T. ) ;
#223 = ORIENTED_EDGE ( 'NONE', *, *, #219, .F. ) ;
#224 =( NAMED_UNIT ( * ) SI_UNIT ( $, .STERADIAN. ) SOLID_ANGLE_UNIT ( ) );
#225 = EDGE_CURVE ( 'NONE', #14, #89, #115, .T. ) ;
#226 = PLANE ( 'NONE',  #87 ) ;
#227 = ORIENTED_EDGE ( 'NONE', *, *, #238, .F. ) ;
#228 = AXIS2_PLACEMENT_3D ( 'NONE', #244, #196, #79 ) ;
#229 = CARTESIAN_POINT ( 'NONE',  ( 0.000000000000000000, 2.000000000000000000, 0.000000000000000000 ) ) ;
#230 = EDGE_CURVE ( 'NONE', #127, #11, #216, .T. ) ;
#231 = ORIENTED_EDGE ( 'NONE', *, *, #68, .F. ) ;
#232 = PRESENTATION_LAYER_ASSIGNMENT (  '', '', ( #264 ) ) ;
#233 = MECHANICAL_DESIGN_GEOMETRIC_PRESENTATION_REPRESENTATION (  '', ( #25 ), #51 ) ;
#234 = LENGTH_MEASURE_WITH_UNIT ( LENGTH_MEASURE( 0.02539999999999999897 ), #281 );
#235 = DIRECTION ( 'NONE',  ( -9.184850993605148438E-17, 1.000000000000000000, -0.000000000000000000 ) ) ;
#236 = PRODUCT_CONTEXT ( 'NONE', #168, 'mechanical' ) ;
#237 = AXIS2_PLACEMENT_3D ( 'NONE', #204, #183, #64 ) ;
#238 = EDGE_CURVE ( 'NONE', #11, #127, #210, .T. ) ;
#239 = FILL_AREA_STYLE_COLOUR ( '', #55 ) ;
#240 = CIRCLE ( 'NONE', #237, 0.1875000000000001943 ) ;
#241 = COLOUR_RGB ( '',1.000000000000000000, 0.000000000000000000, 0.000000000000000000 ) ;
#242 = SURFACE_STYLE_USAGE ( .BOTH. , #268 ) ;
#243 = DIRECTION ( 'NONE',  ( -0.000000000000000000, -1.000000000000000000, -0.000000000000000000 ) ) ;
#244 = CARTESIAN_POINT ( 'NONE',  ( 0.000000000000000000, 0.000000000000000000, 0.000000000000000000 ) ) ;
#245 = EDGE_LOOP ( 'NONE', ( #227, #17 ) ) ;
#246 = ORIENTED_EDGE ( 'NONE', *, *, #56, .T. ) ;
#247 =( NAMED_UNIT ( * ) SI_UNIT ( $, .STERADIAN. ) SOLID_ANGLE_UNIT ( ) );
#248 = ORIENTED_EDGE ( 'NONE', *, *, #238, .T. ) ;
#249 =( CONVERSION_BASED_UNIT ( 'INCH', #92 ) LENGTH_UNIT ( ) NAMED_UNIT ( #208 ) );
#250 = DIRECTION ( 'NONE',  ( 9.184850993605148438E-17, -1.000000000000000000, 0.000000000000000000 ) ) ;
#251 = STYLED_ITEM ( 'NONE', ( #202 ), #60 ) ;
#252 = AXIS2_PLACEMENT_3D ( 'NONE', #255, #211, #305 ) ;
#253 = SURFACE_STYLE_FILL_AREA ( #272 ) ;
#254 = CARTESIAN_POINT ( 'NONE',  ( -0.1875000000000000278, 2.000000000000000000, 0.000000000000000000 ) ) ;
#255 = CARTESIAN_POINT ( 'NONE',  ( 0.000000000000000000, 2.000000000000000000, 0.000000000000000000 ) ) ;
#256 = CYLINDRICAL_SURFACE ( 'NONE', #291, 0.1875000000000000278 ) ;
#257 = DIRECTION ( 'NONE',  ( 1.000000000000000000, 0.000000000000000000, 0.000000000000000000 ) ) ;
#258 = SURFACE_STYLE_USAGE ( .BOTH. , #303 ) ;
#259 =( NAMED_UNIT ( * ) PLANE_ANGLE_UNIT ( ) SI_UNIT ( $, .RADIAN. ) );
#260 = AXIS2_PLACEMENT_3D ( 'NONE', #120, #146, #166 ) ;
#261 = PRESENTATION_STYLE_ASSIGNMENT (( #266 ) ) ;
#262 = LENGTH_MEASURE_WITH_UNIT ( LENGTH_MEASURE( 0.02539999999999999897 ), #293 );
#263 = LENGTH_MEASURE_WITH_UNIT ( LENGTH_MEASURE( 0.02539999999999999897 ), #220 );
#264 = STYLED_ITEM ( 'NONE', ( #90 ), #62 ) ;
#265 = ORIENTED_EDGE ( 'NONE', *, *, #292, .T. ) ;
#266 = SURFACE_STYLE_USAGE ( .BOTH. , #80 ) ;
#267 =( NAMED_UNIT ( * ) SI_UNIT ( $, .STERADIAN. ) SOLID_ANGLE_UNIT ( ) );
#268 = SURFACE_SIDE_STYLE ('',( #157 ) ) ;
#269 = CARTESIAN_POINT ( 'NONE',  ( -1.836970198721029688E-16, 4.000000000000000000, 0.000000000000000000 ) ) ;
#270 = STYLED_ITEM ( 'NONE', ( #261 ), #167 ) ;
#271 = DIRECTION ( 'NONE',  ( -1.000000000000000000, 0.000000000000000000, 0.000000000000000000 ) ) ;
#272 = FILL_AREA_STYLE ('',( #187 ) ) ;
#273 = DIRECTION ( 'NONE',  ( -1.000000000000000000, -9.184850993605148438E-17, 0.000000000000000000 ) ) ;
#274 = EDGE_LOOP ( 'NONE', ( #299, #136 ) ) ;
#275 = STYLED_ITEM ( 'NONE', ( #63 ), #45 ) ;
#276 = CARTESIAN_POINT ( 'NONE',  ( 0.1875000000000000278, 2.000000000000000000, 2.296212748401289266E-17 ) ) ;
#277 =( LENGTH_UNIT ( ) NAMED_UNIT ( * ) SI_UNIT ( $, .METRE. ) );
#278 =( NAMED_UNIT ( * ) PLANE_ANGLE_UNIT ( ) SI_UNIT ( $, .RADIAN. ) );
#279 = CARTESIAN_POINT ( 'NONE',  ( -1.836970198721029688E-16, 4.000000000000000000, 0.000000000000000000 ) ) ;
#280 = ORIENTED_EDGE ( 'NONE', *, *, #292, .F. ) ;
#281 =( LENGTH_UNIT ( ) NAMED_UNIT ( * ) SI_UNIT ( $, .METRE. ) );
#282 = ADVANCED_FACE ( 'NONE', ( #222 ), #226, .F. ) ;
#283 = ORIENTED_EDGE ( 'NONE', *, *, #83, .T. ) ;
#284 = MECHANICAL_DESIGN_GEOMETRIC_PRESENTATION_REPRESENTATION (  '', ( #270 ), #296 ) ;
#285 = ADVANCED_FACE ( 'NONE', ( #200 ), #84, .T. ) ;
#286 = CARTESIAN_POINT ( 'NONE',  ( -0.1875000000000003608, 4.000000000000000000, 0.000000000000000000 ) ) ;
#287 =( LENGTH_UNIT ( ) NAMED_UNIT ( * ) SI_UNIT ( $, .METRE. ) );
#288 = UNCERTAINTY_MEASURE_WITH_UNIT (LENGTH_MEASURE( 1.000000000000000082E-05 ), #217, 'distance_accuracy_value', 'NONE');
#289 = FILL_AREA_STYLE_COLOUR ( '', #130 ) ;
#290 = FILL_AREA_STYLE_COLOUR ( '', #42 ) ;
#291 = AXIS2_PLACEMENT_3D ( 'NONE', #10, #34, #4 ) ;
#292 = EDGE_CURVE ( 'NONE', #89, #14, #103, .T. ) ;
#293 =( LENGTH_UNIT ( ) NAMED_UNIT ( * ) SI_UNIT ( $, .METRE. ) );
#294 =( LENGTH_UNIT ( ) NAMED_UNIT ( * ) SI_UNIT ( $, .METRE. ) );
#295 = EDGE_LOOP ( 'NONE', ( #231, #100, #283, #184 ) ) ;
#296 =( GEOMETRIC_REPRESENTATION_CONTEXT ( 3 ) GLOBAL_UNCERTAINTY_ASSIGNED_CONTEXT ( ( #8 ) ) GLOBAL_UNIT_ASSIGNED_CONTEXT ( ( #159, #40, #131 ) ) REPRESENTATION_CONTEXT ( 'NONE', 'WORKASPACE' ) );
#297 = DIMENSIONAL_EXPONENTS ( 1.000000000000000000, 0.000000000000000000, 0.000000000000000000, 0.000000000000000000, 0.000000000000000000, 0.000000000000000000, 0.000000000000000000 ) ;
#298 = DIRECTION ( 'NONE',  ( -9.184850993605148438E-17, 1.000000000000000000, 0.000000000000000000 ) ) ;
#299 = ORIENTED_EDGE ( 'NONE', *, *, #219, .T. ) ;
#300 = FACE_OUTER_BOUND ( 'NONE', #179, .T. ) ;
#301 = AXIS2_PLACEMENT_3D ( 'NONE', #229, #81, #9 ) ;
#302 = PLANE ( 'NONE',  #2 ) ;
#303 = SURFACE_SIDE_STYLE ('',( #65 ) ) ;
#304 = CARTESIAN_POINT ( 'NONE',  ( 0.000000000000000000, 2.000000000000000000, 0.000000000000000000 ) ) ;
#305 = DIRECTION ( 'NONE',  ( 0.000000000000000000, -0.000000000000000000, 1.000000000000000000 ) ) ;
#306 = LINE ( 'NONE', #98, #139 ) ;
#307 = PRESENTATION_STYLE_ASSIGNMENT (( #124 ) ) ;
#308 = AXIS2_PLACEMENT_3D ( 'NONE', #269, #66, #271 ) ;
#309 = PRODUCT ( '83309', '83309', '', ( #236 ) ) ;
ENDSEC;
END-ISO-10303-21;
