ISO-10303-21;
HEADER;
FILE_DESCRIPTION (( 'STEP AP214' ),
    '1' );
FILE_NAME ('Micro_DM-750-490X.STEP',
    '2021-09-02T16:13:16',
    ( '' ),
    ( '' ),
    'SwSTEP 2.0',
    'SolidWorks 2020',
    '' );
FILE_SCHEMA (( 'AUTOMOTIVE_DESIGN' ));
ENDSEC;

DATA;
#1 = ADVANCED_FACE ( 'NONE', ( #44 ), #176, .F. ) ;
#2 = CARTESIAN_POINT ( 'NONE',  ( 0.3749500000000001720, 0.0000000000000000000, 1.500000000000000222 ) ) ;
#3 = UNCERTAINTY_MEASURE_WITH_UNIT (LENGTH_MEASURE( 1.000000000000000082E-05 ), #210, 'distance_accuracy_value', 'NONE');
#4 = CONICAL_SURFACE ( 'NONE', #268, 0.3599999999999994316, 0.7853981633974415066 ) ;
#5 = FACE_OUTER_BOUND ( 'NONE', #15, .T. ) ;
#6 = DIRECTION ( 'NONE',  ( -0.0000000000000000000, -0.0000000000000000000, -1.000000000000000000 ) ) ;
#7 = VERTEX_POINT ( 'NONE', #106 ) ;
#8 = CARTESIAN_POINT ( 'NONE',  ( 0.0000000000000000000, 0.0000000000000000000, 1.499999999999999778 ) ) ;
#9 = CARTESIAN_POINT ( 'NONE',  ( 0.0000000000000000000, 0.0000000000000000000, 3.984999999999998987 ) ) ;
#10 = APPLICATION_PROTOCOL_DEFINITION ( 'draft international standard', 'automotive_design', 1998, #161 ) ;
#11 = ORIENTED_EDGE ( 'NONE', *, *, #177, .T. ) ;
#12 = VECTOR ( 'NONE', #140, 39.37007874015748143 ) ;
#13 = CARTESIAN_POINT ( 'NONE',  ( 0.0000000000000000000, 0.0000000000000000000, 0.0000000000000000000 ) ) ;
#14 = AXIS2_PLACEMENT_3D ( 'NONE', #9, #206, #121 ) ;
#15 = EDGE_LOOP ( 'NONE', ( #141, #254, #86, #124 ) ) ;
#16 = CARTESIAN_POINT ( 'NONE',  ( 0.0000000000000000000, 0.0000000000000000000, 1.707404996040164512E-17 ) ) ;
#17 = ADVANCED_BREP_SHAPE_REPRESENTATION ( 'Micro_DM-750-490X', ( #113, #41 ), #96 ) ;
#18 = SURFACE_STYLE_FILL_AREA ( #321 ) ;
#19 = DIRECTION ( 'NONE',  ( 0.0000000000000000000, 0.0000000000000000000, 1.000000000000000000 ) ) ;
#20 = AXIS2_PLACEMENT_3D ( 'NONE', #93, #187, #67 ) ;
#21 = VECTOR ( 'NONE', #185, 39.37007874015748143 ) ;
#22 = VERTEX_POINT ( 'NONE', #82 ) ;
#23 = CARTESIAN_POINT ( 'NONE',  ( -0.3599999999999994316, 0.0000000000000000000, 4.000000000000000000 ) ) ;
#24 = DIRECTION ( 'NONE',  ( -0.0000000000000000000, -0.0000000000000000000, -1.000000000000000000 ) ) ;
#25 =( NAMED_UNIT ( * ) PLANE_ANGLE_UNIT ( ) SI_UNIT ( $, .RADIAN. ) );
#26 = CYLINDRICAL_SURFACE ( 'NONE', #84, 0.3749500000000001165 ) ;
#27 = AXIS2_PLACEMENT_3D ( 'NONE', #179, #85, #302 ) ;
#28 = CIRCLE ( 'NONE', #14, 0.3750000000000000555 ) ;
#29 = DIRECTION ( 'NONE',  ( -0.0000000000000000000, -0.0000000000000000000, -1.000000000000000000 ) ) ;
#30 = UNCERTAINTY_MEASURE_WITH_UNIT (LENGTH_MEASURE( 1.000000000000000082E-05 ), #129, 'distance_accuracy_value', 'NONE');
#31 =( NAMED_UNIT ( * ) SI_UNIT ( $, .STERADIAN. ) SOLID_ANGLE_UNIT ( ) );
#32 = VECTOR ( 'NONE', #115, 39.37007874015748143 ) ;
#33 = DIRECTION ( 'NONE',  ( 1.000000000000000000, 0.0000000000000000000, 0.0000000000000000000 ) ) ;
#34 = DIRECTION ( 'NONE',  ( -1.000000000000000000, 0.0000000000000000000, 0.0000000000000000000 ) ) ;
#35 = CARTESIAN_POINT ( 'NONE',  ( -0.3750000000000000555, 0.0000000000000000000, 4.000000000000000000 ) ) ;
#36 = VERTEX_POINT ( 'NONE', #196 ) ;
#37 = CYLINDRICAL_SURFACE ( 'NONE', #52, 0.3749500000000001165 ) ;
#38 = ADVANCED_FACE ( 'NONE', ( #150 ), #172, .T. ) ;
#39 = ORIENTED_EDGE ( 'NONE', *, *, #53, .F. ) ;
#40 = FACE_OUTER_BOUND ( 'NONE', #264, .T. ) ;
#41 = AXIS2_PLACEMENT_3D ( 'NONE', #297, #291, #49 ) ;
#42 = ORIENTED_EDGE ( 'NONE', *, *, #271, .F. ) ;
#43 = ORIENTED_EDGE ( 'NONE', *, *, #286, .F. ) ;
#44 = FACE_OUTER_BOUND ( 'NONE', #186, .T. ) ;
#45 = CARTESIAN_POINT ( 'NONE',  ( 0.0000000000000000000, 0.0000000000000000000, 1.500000000000000222 ) ) ;
#46 = DIRECTION ( 'NONE',  ( -0.0000000000000000000, -0.0000000000000000000, -1.000000000000000000 ) ) ;
#47 = APPLICATION_CONTEXT ( 'automotive_design' ) ;
#48 = ADVANCED_FACE ( 'NONE', ( #247 ), #26, .T. ) ;
#49 = DIRECTION ( 'NONE',  ( 1.000000000000000000, 0.0000000000000000000, 0.0000000000000000000 ) ) ;
#50 = DIRECTION ( 'NONE',  ( -1.000000000000000000, 0.0000000000000000000, 0.0000000000000000000 ) ) ;
#51 = CIRCLE ( 'NONE', #246, 0.007499999999999999722 ) ;
#52 = AXIS2_PLACEMENT_3D ( 'NONE', #13, #142, #239 ) ;
#53 = EDGE_CURVE ( 'NONE', #244, #22, #152, .T. ) ;
#54 = EDGE_CURVE ( 'NONE', #74, #295, #198, .T. ) ;
#55 = CARTESIAN_POINT ( 'NONE',  ( 0.0000000000000000000, 0.0000000000000000000, 0.3674499999999986111 ) ) ;
#56 = AXIS2_PLACEMENT_3D ( 'NONE', #163, #144, #241 ) ;
#57 = SURFACE_STYLE_FILL_AREA ( #329 ) ;
#58 = EDGE_CURVE ( 'NONE', #262, #244, #327, .T. ) ;
#59 = DIRECTION ( 'NONE',  ( -1.000000000000000000, 0.0000000000000000000, 0.0000000000000000000 ) ) ;
#60 = ORIENTED_EDGE ( 'NONE', *, *, #58, .T. ) ;
#61 = DIRECTION ( 'NONE',  ( -1.000000000000000000, 0.0000000000000000000, 0.0000000000000000000 ) ) ;
#62 = CIRCLE ( 'NONE', #245, 0.3749500000000000610 ) ;
#63 = ORIENTED_EDGE ( 'NONE', *, *, #204, .T. ) ;
#64 = CIRCLE ( 'NONE', #215, 0.3749500000000001720 ) ;
#65 = EDGE_CURVE ( 'NONE', #74, #36, #207, .T. ) ;
#66 = ORIENTED_EDGE ( 'NONE', *, *, #180, .T. ) ;
#67 = DIRECTION ( 'NONE',  ( 1.000000000000000000, 0.0000000000000000000, 0.0000000000000000000 ) ) ;
#68 = DIRECTION ( 'NONE',  ( -1.000000000000000000, 0.0000000000000000000, 0.0000000000000000000 ) ) ;
#69 = EDGE_CURVE ( 'NONE', #36, #317, #299, .T. ) ;
#70 = ORIENTED_EDGE ( 'NONE', *, *, #89, .T. ) ;
#71 = CYLINDRICAL_SURFACE ( 'NONE', #173, 0.3750000000000000555 ) ;
#72 = DIRECTION ( 'NONE',  ( -0.0000000000000000000, -0.0000000000000000000, -1.000000000000000000 ) ) ;
#73 = EDGE_CURVE ( 'NONE', #317, #295, #300, .T. ) ;
#74 = VERTEX_POINT ( 'NONE', #132 ) ;
#75 = AXIS2_PLACEMENT_3D ( 'NONE', #217, #101, #34 ) ;
#76 = CARTESIAN_POINT ( 'NONE',  ( 0.0000000000000000000, 0.0000000000000000000, 0.0000000000000000000 ) ) ;
#77 = APPLICATION_PROTOCOL_DEFINITION ( 'draft international standard', 'automotive_design', 1998, #47 ) ;
#78 = ORIENTED_EDGE ( 'NONE', *, *, #112, .T. ) ;
#79 = ORIENTED_EDGE ( 'NONE', *, *, #266, .T. ) ;
#80 = AXIS2_PLACEMENT_3D ( 'NONE', #226, #328, #183 ) ;
#81 = EDGE_CURVE ( 'NONE', #282, #162, #189, .T. ) ;
#82 = CARTESIAN_POINT ( 'NONE',  ( -0.3749500000000000610, 4.591813173403001961E-17, 0.3674499999999986111 ) ) ;
#83 = PRESENTATION_STYLE_ASSIGNMENT (( #225 ) ) ;
#84 = AXIS2_PLACEMENT_3D ( 'NONE', #127, #219, #50 ) ;
#85 = DIRECTION ( 'NONE',  ( 0.0000000000000000000, 0.0000000000000000000, 1.000000000000000000 ) ) ;
#86 = ORIENTED_EDGE ( 'NONE', *, *, #258, .F. ) ;
#87 =( NAMED_UNIT ( * ) PLANE_ANGLE_UNIT ( ) SI_UNIT ( $, .RADIAN. ) );
#88 = CARTESIAN_POINT ( 'NONE',  ( -0.3749500000000001720, 0.0000000000000000000, 1.500000000000000222 ) ) ;
#89 = EDGE_CURVE ( 'NONE', #262, #116, #227, .T. ) ;
#90 = CARTESIAN_POINT ( 'NONE',  ( 0.0000000000000000000, 0.0000000000000000000, 4.000000000000000000 ) ) ;
#91 = CARTESIAN_POINT ( 'NONE',  ( 0.3750000000000000555, 4.592425496802575451E-17, 4.000000000000000000 ) ) ;
#92 = EDGE_LOOP ( 'NONE', ( #42, #147, #199, #290 ) ) ;
#93 = CARTESIAN_POINT ( 'NONE',  ( 0.0000000000000000000, 0.0000000000000000000, 4.000000000000000000 ) ) ;
#94 = FACE_OUTER_BOUND ( 'NONE', #223, .T. ) ;
#95 = AXIS2_PLACEMENT_3D ( 'NONE', #178, #181, #156 ) ;
#96 =( GEOMETRIC_REPRESENTATION_CONTEXT ( 3 ) GLOBAL_UNCERTAINTY_ASSIGNED_CONTEXT ( ( #3 ) ) GLOBAL_UNIT_ASSIGNED_CONTEXT ( ( #210, #87, #31 ) ) REPRESENTATION_CONTEXT ( 'NONE', 'WORKASPACE' ) );
#97 = ADVANCED_FACE ( 'NONE', ( #303 ), #159, .T. ) ;
#98 = DIRECTION ( 'NONE',  ( 0.0000000000000000000, 0.0000000000000000000, 1.000000000000000000 ) ) ;
#99 =( GEOMETRIC_REPRESENTATION_CONTEXT ( 3 ) GLOBAL_UNCERTAINTY_ASSIGNED_CONTEXT ( ( #211 ) ) GLOBAL_UNIT_ASSIGNED_CONTEXT ( ( #251, #133, #324 ) ) REPRESENTATION_CONTEXT ( 'NONE', 'WORKASPACE' ) );
#100 = ORIENTED_EDGE ( 'NONE', *, *, #326, .F. ) ;
#101 = DIRECTION ( 'NONE',  ( -0.0000000000000000000, -0.0000000000000000000, -1.000000000000000000 ) ) ;
#102 =( NAMED_UNIT ( * ) SI_UNIT ( $, .STERADIAN. ) SOLID_ANGLE_UNIT ( ) );
#103 = ADVANCED_FACE ( 'NONE', ( #272 ), #190, .T. ) ;
#104 = DIRECTION ( 'NONE',  ( 0.0000000000000000000, 0.0000000000000000000, 1.000000000000000000 ) ) ;
#105 = PRESENTATION_LAYER_ASSIGNMENT (  '', '', ( #169 ) ) ;
#106 = CARTESIAN_POINT ( 'NONE',  ( 0.3750000000000000555, 4.592425496802575451E-17, 1.499999999999999778 ) ) ;
#107 = EDGE_LOOP ( 'NONE', ( #243, #79 ) ) ;
#108 = EDGE_LOOP ( 'NONE', ( #194, #294, #238, #168 ) ) ;
#109 = SURFACE_STYLE_USAGE ( .BOTH. , #220 ) ;
#110 = PRODUCT_DEFINITION_FORMATION_WITH_SPECIFIED_SOURCE ( 'ANY', '', #249, .NOT_KNOWN. ) ;
#111 = ORIENTED_EDGE ( 'NONE', *, *, #89, .F. ) ;
#112 = EDGE_CURVE ( 'NONE', #116, #22, #62, .T. ) ;
#113 = MANIFOLD_SOLID_BREP ( 'Cut-Revolve4', #174 ) ;
#114 = MECHANICAL_DESIGN_GEOMETRIC_PRESENTATION_REPRESENTATION (  '', ( #169 ), #158 ) ;
#115 = DIRECTION ( 'NONE',  ( 0.7071067811865489050, 0.0000000000000000000, 0.7071067811865461294 ) ) ;
#116 = VERTEX_POINT ( 'NONE', #167 ) ;
#117 = FACE_OUTER_BOUND ( 'NONE', #107, .T. ) ;
#118 = FILL_AREA_STYLE_COLOUR ( '', #222 ) ;
#119 = EDGE_LOOP ( 'NONE', ( #235, #221 ) ) ;
#120 = CARTESIAN_POINT ( 'NONE',  ( 0.007499999999999999722, 0.0000000000000000000, 1.707404996040164512E-17 ) ) ;
#121 = DIRECTION ( 'NONE',  ( 1.000000000000000000, 0.0000000000000000000, 0.0000000000000000000 ) ) ;
#122 = EDGE_CURVE ( 'NONE', #295, #165, #136, .T. ) ;
#123 = ADVANCED_FACE ( 'NONE', ( #275, #117 ), #309, .T. ) ;
#124 = ORIENTED_EDGE ( 'NONE', *, *, #54, .F. ) ;
#125 = ORIENTED_EDGE ( 'NONE', *, *, #258, .T. ) ;
#126 = VECTOR ( 'NONE', #131, 39.37007874015748143 ) ;
#127 = CARTESIAN_POINT ( 'NONE',  ( 0.0000000000000000000, 0.0000000000000000000, 0.0000000000000000000 ) ) ;
#128 = CARTESIAN_POINT ( 'NONE',  ( 0.0000000000000000000, 0.0000000000000000000, 4.000000000000000000 ) ) ;
#129 =( CONVERSION_BASED_UNIT ( 'INCH', #149 ) LENGTH_UNIT ( ) NAMED_UNIT ( #237 ) );
#130 = AXIS2_PLACEMENT_3D ( 'NONE', #76, #19, #319 ) ;
#131 = DIRECTION ( 'NONE',  ( 0.7071067811865426878, 8.659560562354873694E-17, -0.7071067811865523467 ) ) ;
#132 = CARTESIAN_POINT ( 'NONE',  ( -0.3599999999999994316, 0.0000000000000000000, 4.000000000000000000 ) ) ;
#133 =( NAMED_UNIT ( * ) PLANE_ANGLE_UNIT ( ) SI_UNIT ( $, .RADIAN. ) );
#134 = CIRCLE ( 'NONE', #311, 0.3749500000000000610 ) ;
#135 = VECTOR ( 'NONE', #160, 39.37007874015748143 ) ;
#136 = LINE ( 'NONE', #35, #322 ) ;
#137 = DIRECTION ( 'NONE',  ( -1.000000000000000000, 0.0000000000000000000, 0.0000000000000000000 ) ) ;
#138 = LINE ( 'NONE', #91, #21 ) ;
#139 = ORIENTED_EDGE ( 'NONE', *, *, #58, .F. ) ;
#140 = DIRECTION ( 'NONE',  ( -0.0000000000000000000, -0.0000000000000000000, -1.000000000000000000 ) ) ;
#141 = ORIENTED_EDGE ( 'NONE', *, *, #177, .F. ) ;
#142 = DIRECTION ( 'NONE',  ( -0.0000000000000000000, -0.0000000000000000000, -1.000000000000000000 ) ) ;
#143 = ORIENTED_EDGE ( 'NONE', *, *, #73, .F. ) ;
#144 = DIRECTION ( 'NONE',  ( 0.0000000000000000000, 0.0000000000000000000, -1.000000000000000000 ) ) ;
#145 = EDGE_CURVE ( 'NONE', #162, #116, #313, .T. ) ;
#146 = PRESENTATION_LAYER_ASSIGNMENT (  '', '', ( #250 ) ) ;
#147 = ORIENTED_EDGE ( 'NONE', *, *, #73, .T. ) ;
#148 = VECTOR ( 'NONE', #224, 39.37007874015748143 ) ;
#149 = LENGTH_MEASURE_WITH_UNIT ( LENGTH_MEASURE( 0.02539999999999999897 ), #171 );
#150 = FACE_OUTER_BOUND ( 'NONE', #298, .T. ) ;
#151 = CARTESIAN_POINT ( 'NONE',  ( -0.007499999999999999722, 9.184850993605147975E-19, 1.707404996040164512E-17 ) ) ;
#152 = LINE ( 'NONE', #151, #255 ) ;
#153 = ADVANCED_FACE ( 'NONE', ( #94 ), #157, .T. ) ;
#154 = AXIS2_PLACEMENT_3D ( 'NONE', #90, #274, #205 ) ;
#155 = LENGTH_MEASURE_WITH_UNIT ( LENGTH_MEASURE( 0.02539999999999999897 ), #270 );
#156 = DIRECTION ( 'NONE',  ( 1.000000000000000000, 0.0000000000000000000, 0.0000000000000000000 ) ) ;
#157 = CONICAL_SURFACE ( 'NONE', #279, 0.007499999999999999722, 0.7853981633974502774 ) ;
#158 =( GEOMETRIC_REPRESENTATION_CONTEXT ( 3 ) GLOBAL_UNCERTAINTY_ASSIGNED_CONTEXT ( ( #30 ) ) GLOBAL_UNIT_ASSIGNED_CONTEXT ( ( #129, #25, #102 ) ) REPRESENTATION_CONTEXT ( 'NONE', 'WORKASPACE' ) );
#159 = PLANE ( 'NONE',  #154 ) ;
#160 = DIRECTION ( 'NONE',  ( -0.0000000000000000000, -0.0000000000000000000, -1.000000000000000000 ) ) ;
#161 = APPLICATION_CONTEXT ( 'automotive_design' ) ;
#162 = VERTEX_POINT ( 'NONE', #208 ) ;
#163 = CARTESIAN_POINT ( 'NONE',  ( 0.0000000000000000000, 0.0000000000000000000, 4.000000000000000000 ) ) ;
#164 = CARTESIAN_POINT ( 'NONE',  ( -0.007499999999999999722, 2.341830841669527240E-17, 1.707404996040164512E-17 ) ) ;
#165 = VERTEX_POINT ( 'NONE', #191 ) ;
#166 = ADVANCED_FACE ( 'NONE', ( #5 ), #4, .T. ) ;
#167 = CARTESIAN_POINT ( 'NONE',  ( 0.3749500000000000610, 0.0000000000000000000, 0.3674499999999986111 ) ) ;
#168 = ORIENTED_EDGE ( 'NONE', *, *, #204, .F. ) ;
#169 = STYLED_ITEM ( 'NONE', ( #318 ), #17 ) ;
#170 = CARTESIAN_POINT ( 'NONE',  ( 0.3750000000000000555, 4.592425496802575451E-17, 3.984999999999998987 ) ) ;
#171 =( LENGTH_UNIT ( ) NAMED_UNIT ( * ) SI_UNIT ( $, .METRE. ) );
#172 = CYLINDRICAL_SURFACE ( 'NONE', #263, 0.3750000000000000555 ) ;
#173 = AXIS2_PLACEMENT_3D ( 'NONE', #283, #6, #68 ) ;
#174 = CLOSED_SHELL ( 'NONE', ( #252, #153, #166, #38, #231, #97, #184, #123, #103, #48, #1 ) ) ;
#175 = DIRECTION ( 'NONE',  ( -0.7071067811865489050, 8.659560562354950115E-17, 0.7071067811865461294 ) ) ;
#176 = PLANE ( 'NONE',  #130 ) ;
#177 = EDGE_CURVE ( 'NONE', #36, #74, #195, .T. ) ;
#178 = CARTESIAN_POINT ( 'NONE',  ( 0.0000000000000000000, 0.0000000000000000000, 3.984999999999998987 ) ) ;
#179 = CARTESIAN_POINT ( 'NONE',  ( 0.0000000000000000000, 0.0000000000000000000, 1.707404996040164512E-17 ) ) ;
#180 = EDGE_CURVE ( 'NONE', #22, #116, #134, .T. ) ;
#181 = DIRECTION ( 'NONE',  ( 0.0000000000000000000, 0.0000000000000000000, -1.000000000000000000 ) ) ;
#182 = DIRECTION ( 'NONE',  ( -0.0000000000000000000, -0.0000000000000000000, -1.000000000000000000 ) ) ;
#183 = DIRECTION ( 'NONE',  ( -1.000000000000000000, 0.0000000000000000000, 0.0000000000000000000 ) ) ;
#184 = ADVANCED_FACE ( 'NONE', ( #40 ), #200, .T. ) ;
#185 = DIRECTION ( 'NONE',  ( -0.0000000000000000000, -0.0000000000000000000, -1.000000000000000000 ) ) ;
#186 = EDGE_LOOP ( 'NONE', ( #60, #240 ) ) ;
#187 = DIRECTION ( 'NONE',  ( 0.0000000000000000000, 0.0000000000000000000, 1.000000000000000000 ) ) ;
#188 = ORIENTED_EDGE ( 'NONE', *, *, #112, .F. ) ;
#189 = CIRCLE ( 'NONE', #80, 0.3749500000000001720 ) ;
#190 = CONICAL_SURFACE ( 'NONE', #27, 0.007499999999999999722, 0.7853981633974502774 ) ;
#191 = CARTESIAN_POINT ( 'NONE',  ( -0.3750000000000000555, 0.0000000000000000000, 1.499999999999999778 ) ) ;
#192 = ORIENTED_EDGE ( 'NONE', *, *, #65, .F. ) ;
#193 = DIRECTION ( 'NONE',  ( -0.0000000000000000000, 0.0000000000000000000, -1.000000000000000000 ) ) ;
#194 = ORIENTED_EDGE ( 'NONE', *, *, #81, .T. ) ;
#195 = CIRCLE ( 'NONE', #20, 0.3599999999999994316 ) ;
#196 = CARTESIAN_POINT ( 'NONE',  ( 0.3599999999999994316, 4.500576986866520466E-17, 4.000000000000000000 ) ) ;
#197 = CARTESIAN_POINT ( 'NONE',  ( -0.3750000000000000555, 0.0000000000000000000, 3.984999999999998987 ) ) ;
#198 = LINE ( 'NONE', #23, #148 ) ;
#199 = ORIENTED_EDGE ( 'NONE', *, *, #122, .T. ) ;
#200 = CONICAL_SURFACE ( 'NONE', #56, 0.3599999999999994316, 0.7853981633974415066 ) ;
#201 = ORIENTED_EDGE ( 'NONE', *, *, #271, .T. ) ;
#202 = PRODUCT_DEFINITION_SHAPE ( 'NONE', 'NONE',  #218 ) ;
#203 = DIRECTION ( 'NONE',  ( -1.000000000000000000, 0.0000000000000000000, 0.0000000000000000000 ) ) ;
#204 = EDGE_CURVE ( 'NONE', #282, #22, #236, .T. ) ;
#205 = DIRECTION ( 'NONE',  ( 1.000000000000000000, 0.0000000000000000000, -0.0000000000000000000 ) ) ;
#206 = DIRECTION ( 'NONE',  ( 0.0000000000000000000, 0.0000000000000000000, -1.000000000000000000 ) ) ;
#207 = CIRCLE ( 'NONE', #296, 0.3599999999999994316 ) ;
#208 = CARTESIAN_POINT ( 'NONE',  ( 0.3749500000000001720, 4.591813173403003194E-17, 1.500000000000000222 ) ) ;
#209 = CARTESIAN_POINT ( 'NONE',  ( 0.0000000000000000000, 0.0000000000000000000, 4.000000000000000000 ) ) ;
#210 =( CONVERSION_BASED_UNIT ( 'INCH', #257 ) LENGTH_UNIT ( ) NAMED_UNIT ( #312 ) );
#211 = UNCERTAINTY_MEASURE_WITH_UNIT (LENGTH_MEASURE( 1.000000000000000082E-05 ), #251, 'distance_accuracy_value', 'NONE');
#212 = EDGE_LOOP ( 'NONE', ( #284, #11 ) ) ;
#213 = CARTESIAN_POINT ( 'NONE',  ( 0.3749500000000001165, 4.591813173403002577E-17, 0.0000000000000000000 ) ) ;
#214 = DIRECTION ( 'NONE',  ( -1.000000000000000000, 0.0000000000000000000, 0.0000000000000000000 ) ) ;
#215 = AXIS2_PLACEMENT_3D ( 'NONE', #45, #281, #230 ) ;
#216 = ORIENTED_EDGE ( 'NONE', *, *, #323, .T. ) ;
#217 = CARTESIAN_POINT ( 'NONE',  ( 0.0000000000000000000, 0.0000000000000000000, 1.499999999999999778 ) ) ;
#218 = PRODUCT_DEFINITION ( 'UNKNOWN', '', #110, #287 ) ;
#219 = DIRECTION ( 'NONE',  ( -0.0000000000000000000, -0.0000000000000000000, -1.000000000000000000 ) ) ;
#220 = SURFACE_SIDE_STYLE ('',( #18 ) ) ;
#221 = ORIENTED_EDGE ( 'NONE', *, *, #323, .F. ) ;
#222 = COLOUR_RGB ( '',0.7921568627450980005, 0.8196078431372548767, 0.9333333333333333481 ) ;
#223 = EDGE_LOOP ( 'NONE', ( #100, #259, #66, #111 ) ) ;
#224 = DIRECTION ( 'NONE',  ( -0.7071067811865426878, 0.0000000000000000000, -0.7071067811865523467 ) ) ;
#225 = SURFACE_STYLE_USAGE ( .BOTH. , #325 ) ;
#226 = CARTESIAN_POINT ( 'NONE',  ( 0.0000000000000000000, 0.0000000000000000000, 1.500000000000000222 ) ) ;
#227 = LINE ( 'NONE', #301, #32 ) ;
#228 = MECHANICAL_DESIGN_GEOMETRIC_PRESENTATION_REPRESENTATION (  '', ( #250 ), #99 ) ;
#229 = FILL_AREA_STYLE_COLOUR ( '', #289 ) ;
#230 = DIRECTION ( 'NONE',  ( -1.000000000000000000, 0.0000000000000000000, 0.0000000000000000000 ) ) ;
#231 = ADVANCED_FACE ( 'NONE', ( #280 ), #71, .T. ) ;
#232 = CARTESIAN_POINT ( 'NONE',  ( 0.0000000000000000000, 0.0000000000000000000, 0.3674499999999986111 ) ) ;
#233 = CARTESIAN_POINT ( 'NONE',  ( 0.0000000000000000000, 0.0000000000000000000, 1.707404996040164512E-17 ) ) ;
#234 = AXIS2_PLACEMENT_3D ( 'NONE', #8, #182, #137 ) ;
#235 = ORIENTED_EDGE ( 'NONE', *, *, #81, .F. ) ;
#236 = LINE ( 'NONE', #256, #12 ) ;
#237 = DIMENSIONAL_EXPONENTS ( 1.000000000000000000, 0.0000000000000000000, 0.0000000000000000000, 0.0000000000000000000, 0.0000000000000000000, 0.0000000000000000000, 0.0000000000000000000 ) ;
#238 = ORIENTED_EDGE ( 'NONE', *, *, #180, .F. ) ;
#239 = DIRECTION ( 'NONE',  ( -1.000000000000000000, 0.0000000000000000000, 0.0000000000000000000 ) ) ;
#240 = ORIENTED_EDGE ( 'NONE', *, *, #326, .T. ) ;
#241 = DIRECTION ( 'NONE',  ( -1.000000000000000000, 0.0000000000000000000, 0.0000000000000000000 ) ) ;
#242 = DIMENSIONAL_EXPONENTS ( 1.000000000000000000, 0.0000000000000000000, 0.0000000000000000000, 0.0000000000000000000, 0.0000000000000000000, 0.0000000000000000000, 0.0000000000000000000 ) ;
#243 = ORIENTED_EDGE ( 'NONE', *, *, #286, .T. ) ;
#244 = VERTEX_POINT ( 'NONE', #164 ) ;
#245 = AXIS2_PLACEMENT_3D ( 'NONE', #55, #29, #203 ) ;
#246 = AXIS2_PLACEMENT_3D ( 'NONE', #16, #72, #214 ) ;
#247 = FACE_OUTER_BOUND ( 'NONE', #292, .T. ) ;
#248 = DIRECTION ( 'NONE',  ( -1.000000000000000000, 0.0000000000000000000, 0.0000000000000000000 ) ) ;
#249 = PRODUCT ( 'Micro_DM-750-490X', 'Micro_DM-750-490X', '', ( #288 ) ) ;
#250 = STYLED_ITEM ( 'NONE', ( #83 ), #113 ) ;
#251 =( CONVERSION_BASED_UNIT ( 'INCH', #155 ) LENGTH_UNIT ( ) NAMED_UNIT ( #242 ) );
#252 = ADVANCED_FACE ( 'NONE', ( #285 ), #37, .T. ) ;
#253 = DIRECTION ( 'NONE',  ( 1.000000000000000000, 0.0000000000000000000, 0.0000000000000000000 ) ) ;
#254 = ORIENTED_EDGE ( 'NONE', *, *, #69, .T. ) ;
#255 = VECTOR ( 'NONE', #175, 39.37007874015748143 ) ;
#256 = CARTESIAN_POINT ( 'NONE',  ( -0.3749500000000001165, 0.0000000000000000000, 0.0000000000000000000 ) ) ;
#257 = LENGTH_MEASURE_WITH_UNIT ( LENGTH_MEASURE( 0.02539999999999999897 ), #261 );
#258 = EDGE_CURVE ( 'NONE', #295, #317, #28, .T. ) ;
#259 = ORIENTED_EDGE ( 'NONE', *, *, #53, .T. ) ;
#260 = DIRECTION ( 'NONE',  ( -1.000000000000000000, 0.0000000000000000000, 0.0000000000000000000 ) ) ;
#261 =( LENGTH_UNIT ( ) NAMED_UNIT ( * ) SI_UNIT ( $, .METRE. ) );
#262 = VERTEX_POINT ( 'NONE', #120 ) ;
#263 = AXIS2_PLACEMENT_3D ( 'NONE', #128, #46, #265 ) ;
#264 = EDGE_LOOP ( 'NONE', ( #314, #192, #267, #143 ) ) ;
#265 = DIRECTION ( 'NONE',  ( -1.000000000000000000, 0.0000000000000000000, 0.0000000000000000000 ) ) ;
#266 = EDGE_CURVE ( 'NONE', #7, #165, #316, .T. ) ;
#267 = ORIENTED_EDGE ( 'NONE', *, *, #54, .T. ) ;
#268 = AXIS2_PLACEMENT_3D ( 'NONE', #209, #308, #260 ) ;
#269 = AXIS2_PLACEMENT_3D ( 'NONE', #2, #193, #59 ) ;
#270 =( LENGTH_UNIT ( ) NAMED_UNIT ( * ) SI_UNIT ( $, .METRE. ) );
#271 = EDGE_CURVE ( 'NONE', #317, #7, #138, .T. ) ;
#272 = FACE_OUTER_BOUND ( 'NONE', #276, .T. ) ;
#273 = CARTESIAN_POINT ( 'NONE',  ( 0.3599999999999994316, 4.408728476930464865E-17, 4.000000000000000000 ) ) ;
#274 = DIRECTION ( 'NONE',  ( 0.0000000000000000000, 0.0000000000000000000, 1.000000000000000000 ) ) ;
#275 = FACE_BOUND ( 'NONE', #119, .T. ) ;
#276 = EDGE_LOOP ( 'NONE', ( #39, #139, #70, #78 ) ) ;
#277 = DIRECTION ( 'NONE',  ( -0.0000000000000000000, -0.0000000000000000000, -1.000000000000000000 ) ) ;
#278 = ORIENTED_EDGE ( 'NONE', *, *, #145, .F. ) ;
#279 = AXIS2_PLACEMENT_3D ( 'NONE', #233, #98, #253 ) ;
#280 = FACE_OUTER_BOUND ( 'NONE', #92, .T. ) ;
#281 = DIRECTION ( 'NONE',  ( -0.0000000000000000000, -0.0000000000000000000, -1.000000000000000000 ) ) ;
#282 = VERTEX_POINT ( 'NONE', #88 ) ;
#283 = CARTESIAN_POINT ( 'NONE',  ( 0.0000000000000000000, 0.0000000000000000000, 4.000000000000000000 ) ) ;
#284 = ORIENTED_EDGE ( 'NONE', *, *, #65, .T. ) ;
#285 = FACE_OUTER_BOUND ( 'NONE', #108, .T. ) ;
#286 = EDGE_CURVE ( 'NONE', #165, #7, #305, .T. ) ;
#287 = PRODUCT_DEFINITION_CONTEXT ( 'detailed design', #47, 'design' ) ;
#288 = PRODUCT_CONTEXT ( 'NONE', #161, 'mechanical' ) ;
#289 = COLOUR_RGB ( '',0.7921568627450980005, 0.8196078431372548767, 0.9333333333333333481 ) ;
#290 = ORIENTED_EDGE ( 'NONE', *, *, #266, .F. ) ;
#291 = DIRECTION ( 'NONE',  ( 0.0000000000000000000, 0.0000000000000000000, 1.000000000000000000 ) ) ;
#292 = EDGE_LOOP ( 'NONE', ( #278, #216, #63, #188 ) ) ;
#293 = SHAPE_DEFINITION_REPRESENTATION ( #202, #17 ) ;
#294 = ORIENTED_EDGE ( 'NONE', *, *, #145, .T. ) ;
#295 = VERTEX_POINT ( 'NONE', #197 ) ;
#296 = AXIS2_PLACEMENT_3D ( 'NONE', #315, #104, #33 ) ;
#297 = CARTESIAN_POINT ( 'NONE',  ( 0.0000000000000000000, 0.0000000000000000000, 0.0000000000000000000 ) ) ;
#298 = EDGE_LOOP ( 'NONE', ( #125, #201, #43, #310 ) ) ;
#299 = LINE ( 'NONE', #273, #126 ) ;
#300 = CIRCLE ( 'NONE', #95, 0.3750000000000000555 ) ;
#301 = CARTESIAN_POINT ( 'NONE',  ( 0.007499999999999999722, 0.0000000000000000000, 1.707404996040164512E-17 ) ) ;
#302 = DIRECTION ( 'NONE',  ( 1.000000000000000000, 0.0000000000000000000, 0.0000000000000000000 ) ) ;
#303 = FACE_OUTER_BOUND ( 'NONE', #212, .T. ) ;
#304 = AXIS2_PLACEMENT_3D ( 'NONE', #320, #24, #248 ) ;
#305 = CIRCLE ( 'NONE', #234, 0.3750000000000000555 ) ;
#306 = DIRECTION ( 'NONE',  ( -0.0000000000000000000, -0.0000000000000000000, -1.000000000000000000 ) ) ;
#307 = PRODUCT_RELATED_PRODUCT_CATEGORY ( 'part', '', ( #249 ) ) ;
#308 = DIRECTION ( 'NONE',  ( 0.0000000000000000000, 0.0000000000000000000, -1.000000000000000000 ) ) ;
#309 = PLANE ( 'NONE',  #269 ) ;
#310 = ORIENTED_EDGE ( 'NONE', *, *, #122, .F. ) ;
#311 = AXIS2_PLACEMENT_3D ( 'NONE', #232, #277, #61 ) ;
#312 = DIMENSIONAL_EXPONENTS ( 1.000000000000000000, 0.0000000000000000000, 0.0000000000000000000, 0.0000000000000000000, 0.0000000000000000000, 0.0000000000000000000, 0.0000000000000000000 ) ;
#313 = LINE ( 'NONE', #213, #135 ) ;
#314 = ORIENTED_EDGE ( 'NONE', *, *, #69, .F. ) ;
#315 = CARTESIAN_POINT ( 'NONE',  ( 0.0000000000000000000, 0.0000000000000000000, 4.000000000000000000 ) ) ;
#316 = CIRCLE ( 'NONE', #75, 0.3750000000000000555 ) ;
#317 = VERTEX_POINT ( 'NONE', #170 ) ;
#318 = PRESENTATION_STYLE_ASSIGNMENT (( #109 ) ) ;
#319 = DIRECTION ( 'NONE',  ( 1.000000000000000000, 0.0000000000000000000, -0.0000000000000000000 ) ) ;
#320 = CARTESIAN_POINT ( 'NONE',  ( 0.0000000000000000000, 0.0000000000000000000, 1.707404996040164512E-17 ) ) ;
#321 = FILL_AREA_STYLE ('',( #118 ) ) ;
#322 = VECTOR ( 'NONE', #306, 39.37007874015748143 ) ;
#323 = EDGE_CURVE ( 'NONE', #162, #282, #64, .T. ) ;
#324 =( NAMED_UNIT ( * ) SI_UNIT ( $, .STERADIAN. ) SOLID_ANGLE_UNIT ( ) );
#325 = SURFACE_SIDE_STYLE ('',( #57 ) ) ;
#326 = EDGE_CURVE ( 'NONE', #244, #262, #51, .T. ) ;
#327 = CIRCLE ( 'NONE', #304, 0.007499999999999999722 ) ;
#328 = DIRECTION ( 'NONE',  ( -0.0000000000000000000, -0.0000000000000000000, -1.000000000000000000 ) ) ;
#329 = FILL_AREA_STYLE ('',( #229 ) ) ;
ENDSEC;
END-ISO-10303-21;
