ISO-10303-21;
HEADER;
FILE_DESCRIPTION (( 'STEP AP214' ),
    '1' );
FILE_NAME ('59852.STEP',
    '2023-06-22T23:38:14',
    ( '' ),
    ( '' ),
    'SwSTEP 2.0',
    'SolidWorks 2023',
    '' );
FILE_SCHEMA (( 'AUTOMOTIVE_DESIGN' ));
ENDSEC;

DATA;
#1 = EDGE_CURVE ( 'NONE', #253, #103, #40, .T. ) ;
#2 = CARTESIAN_POINT ( 'NONE',  ( 4.592425496802575451E-17, 1.000000000000000000, 0.3750000000000000555 ) ) ;
#3 = CARTESIAN_POINT ( 'NONE',  ( 0.000000000000000000, 1.000000000000000000, -0.3750000000000000555 ) ) ;
#4 = VERTEX_POINT ( 'NONE', #159 ) ;
#5 =( NAMED_UNIT ( * ) PLANE_ANGLE_UNIT ( ) SI_UNIT ( $, .RADIAN. ) );
#6 =( NAMED_UNIT ( * ) PLANE_ANGLE_UNIT ( ) SI_UNIT ( $, .RADIAN. ) );
#7 = EDGE_CURVE ( 'NONE', #220, #278, #93, .T. ) ;
#8 = DIRECTION ( 'NONE',  ( -1.000000000000000000, 0.000000000000000000, 0.000000000000000000 ) ) ;
#9 = AXIS2_PLACEMENT_3D ( 'NONE', #147, #242, #241 ) ;
#10 =( NAMED_UNIT ( * ) PLANE_ANGLE_UNIT ( ) SI_UNIT ( $, .RADIAN. ) );
#11 = ORIENTED_EDGE ( 'NONE', *, *, #279, .T. ) ;
#12 = CYLINDRICAL_SURFACE ( 'NONE', #20, 0.3750000000000000555 ) ;
#13 = SURFACE_STYLE_USAGE ( .BOTH. , #115 ) ;
#14 = EDGE_CURVE ( 'NONE', #220, #100, #281, .T. ) ;
#15 = DIRECTION ( 'NONE',  ( 0.000000000000000000, 0.000000000000000000, -1.000000000000000000 ) ) ;
#16 = MANIFOLD_SOLID_BREP ( 'Revolve - Tool Body (Straight Shanked)', #197 ) ;
#17 = AXIS2_PLACEMENT_3D ( 'NONE', #306, #96, #167 ) ;
#18 = APPLICATION_CONTEXT ( 'automotive_design' ) ;
#19 = STYLED_ITEM ( 'NONE', ( #76 ), #108 ) ;
#20 = AXIS2_PLACEMENT_3D ( 'NONE', #39, #110, #203 ) ;
#21 = AXIS2_PLACEMENT_3D ( 'NONE', #170, #286, #46 ) ;
#22 =( CONVERSION_BASED_UNIT ( 'INCH', #249 ) LENGTH_UNIT ( ) NAMED_UNIT ( #211 ) );
#23 = PLANE ( 'NONE',  #204 ) ;
#24 = CARTESIAN_POINT ( 'NONE',  ( -0.3749999999999998890, 3.000000000000000444, 0.000000000000000000 ) ) ;
#25 = CIRCLE ( 'NONE', #181, 0.3750000000000000555 ) ;
#26 =( NAMED_UNIT ( * ) SI_UNIT ( $, .STERADIAN. ) SOLID_ANGLE_UNIT ( ) );
#27 = ORIENTED_EDGE ( 'NONE', *, *, #282, .F. ) ;
#28 = DIRECTION ( 'NONE',  ( 3.061616997868379936E-17, 1.000000000000000000, -0.000000000000000000 ) ) ;
#29 = LENGTH_MEASURE_WITH_UNIT ( LENGTH_MEASURE( 0.02539999999999999897 ), #227 );
#30 = CARTESIAN_POINT ( 'NONE',  ( -7.582401355855259480E-33, 1.000000000000000000, 0.000000000000000000 ) ) ;
#31 = CARTESIAN_POINT ( 'NONE',  ( 0.000000000000000000, 0.000000000000000000, -0.3750000000000000555 ) ) ;
#32 = DIRECTION ( 'NONE',  ( -0.000000000000000000, -1.000000000000000000, -0.000000000000000000 ) ) ;
#33 = CIRCLE ( 'NONE', #105, 0.3750000000000000555 ) ;
#34 = EDGE_LOOP ( 'NONE', ( #257, #27 ) ) ;
#35 =( LENGTH_UNIT ( ) NAMED_UNIT ( * ) SI_UNIT ( $, .METRE. ) );
#36 = DIMENSIONAL_EXPONENTS ( 1.000000000000000000, 0.000000000000000000, 0.000000000000000000, 0.000000000000000000, 0.000000000000000000, 0.000000000000000000, 0.000000000000000000 ) ;
#37 = EDGE_CURVE ( 'NONE', #178, #103, #163, .T. ) ;
#38 = UNCERTAINTY_MEASURE_WITH_UNIT (LENGTH_MEASURE( 1.000000000000000082E-05 ), #22, 'distance_accuracy_value', 'NONE');
#39 = CARTESIAN_POINT ( 'NONE',  ( 0.000000000000000000, 0.000000000000000000, 0.000000000000000000 ) ) ;
#40 = CIRCLE ( 'NONE', #153, 0.3749999999999999445 ) ;
#41 = FILL_AREA_STYLE_COLOUR ( '', #251 ) ;
#42 = STYLED_ITEM ( 'NONE', ( #72 ), #16 ) ;
#43 = PRESENTATION_LAYER_ASSIGNMENT (  '', '', ( #42 ) ) ;
#44 = PRESENTATION_LAYER_ASSIGNMENT (  '', '', ( #87 ) ) ;
#45 =( CONVERSION_BASED_UNIT ( 'INCH', #120 ) LENGTH_UNIT ( ) NAMED_UNIT ( #185 ) );
#46 = DIRECTION ( 'NONE',  ( 1.000000000000000000, -3.061616997868379936E-17, 0.000000000000000000 ) ) ;
#47 = ADVANCED_BREP_SHAPE_REPRESENTATION ( '59852', ( #229, #16, #190 ), #146 ) ;
#48 = DIRECTION ( 'NONE',  ( -0.000000000000000000, -1.000000000000000000, -0.000000000000000000 ) ) ;
#49 = FACE_OUTER_BOUND ( 'NONE', #34, .T. ) ;
#50 = APPLICATION_CONTEXT ( 'automotive_design' ) ;
#51 = COLOUR_RGB ( '',1.000000000000000000, 0.000000000000000000, 0.000000000000000000 ) ;
#52 = ORIENTED_EDGE ( 'NONE', *, *, #77, .F. ) ;
#53 = DIRECTION ( 'NONE',  ( -1.000000000000000000, 3.061616997868379936E-17, 0.000000000000000000 ) ) ;
#54 = SURFACE_SIDE_STYLE ('',( #172 ) ) ;
#55 = EDGE_LOOP ( 'NONE', ( #161, #224, #180, #175 ) ) ;
#56 = DIRECTION ( 'NONE',  ( -1.000000000000000000, 0.000000000000000000, 0.000000000000000000 ) ) ;
#57 = DIRECTION ( 'NONE',  ( -0.000000000000000000, -1.000000000000000000, -0.000000000000000000 ) ) ;
#58 = DIRECTION ( 'NONE',  ( -1.000000000000000000, 0.000000000000000000, 0.000000000000000000 ) ) ;
#59 = CIRCLE ( 'NONE', #86, 0.3750000000000000555 ) ;
#60 = EDGE_CURVE ( 'NONE', #4, #100, #173, .T. ) ;
#61 = AXIS2_PLACEMENT_3D ( 'NONE', #73, #294, #223 ) ;
#62 = EDGE_CURVE ( 'NONE', #178, #74, #33, .T. ) ;
#63 = VECTOR ( 'NONE', #94, 39.37007874015748143 ) ;
#64 = MECHANICAL_DESIGN_GEOMETRIC_PRESENTATION_REPRESENTATION (  '', ( #285 ), #222 ) ;
#65 = UNCERTAINTY_MEASURE_WITH_UNIT (LENGTH_MEASURE( 1.000000000000000082E-05 ), #176, 'distance_accuracy_value', 'NONE');
#66 = FACE_OUTER_BOUND ( 'NONE', #112, .T. ) ;
#67 = ORIENTED_EDGE ( 'NONE', *, *, #266, .T. ) ;
#68 = COLOUR_RGB ( '',1.000000000000000000, 0.000000000000000000, 0.000000000000000000 ) ;
#69 = DIRECTION ( 'NONE',  ( 3.061616997868379936E-17, 1.000000000000000000, -0.000000000000000000 ) ) ;
#70 = CARTESIAN_POINT ( 'NONE',  ( 0.000000000000000000, 0.000000000000000000, 0.000000000000000000 ) ) ;
#71 = DIRECTION ( 'NONE',  ( 0.000000000000000000, 0.000000000000000000, 1.000000000000000000 ) ) ;
#72 = PRESENTATION_STYLE_ASSIGNMENT (( #200 ) ) ;
#73 = CARTESIAN_POINT ( 'NONE',  ( 0.000000000000000000, 0.000000000000000000, 0.000000000000000000 ) ) ;
#74 = VERTEX_POINT ( 'NONE', #111 ) ;
#75 = FACE_OUTER_BOUND ( 'NONE', #55, .T. ) ;
#76 = PRESENTATION_STYLE_ASSIGNMENT (( #252 ) ) ;
#77 = EDGE_CURVE ( 'NONE', #100, #4, #25, .T. ) ;
#78 = MECHANICAL_DESIGN_GEOMETRIC_PRESENTATION_REPRESENTATION (  '', ( #219 ), #166 ) ;
#79 = ORIENTED_EDGE ( 'NONE', *, *, #226, .F. ) ;
#80 = CARTESIAN_POINT ( 'NONE',  ( 6.123233995736759873E-17, 3.000000000000000444, 0.000000000000000000 ) ) ;
#81 = FILL_AREA_STYLE_COLOUR ( '', #305 ) ;
#82 = ORIENTED_EDGE ( 'NONE', *, *, #118, .F. ) ;
#83 = ORIENTED_EDGE ( 'NONE', *, *, #7, .F. ) ;
#84 = AXIS2_PLACEMENT_3D ( 'NONE', #256, #48, #177 ) ;
#85 = DIMENSIONAL_EXPONENTS ( 1.000000000000000000, 0.000000000000000000, 0.000000000000000000, 0.000000000000000000, 0.000000000000000000, 0.000000000000000000, 0.000000000000000000 ) ;
#86 = AXIS2_PLACEMENT_3D ( 'NONE', #101, #104, #142 ) ;
#87 = STYLED_ITEM ( 'NONE', ( #124 ), #229 ) ;
#88 = APPLICATION_PROTOCOL_DEFINITION ( 'draft international standard', 'automotive_design', 1998, #18 ) ;
#89 = SURFACE_STYLE_FILL_AREA ( #299 ) ;
#90 = FACE_OUTER_BOUND ( 'NONE', #271, .T. ) ;
#91 = PLANE ( 'NONE',  #17 ) ;
#92 = PRODUCT_RELATED_PRODUCT_CATEGORY ( 'part', '', ( #217 ) ) ;
#93 = CIRCLE ( 'NONE', #293, 0.3750000000000000555 ) ;
#94 = DIRECTION ( 'NONE',  ( 3.061616997868379936E-17, 1.000000000000000000, -0.000000000000000000 ) ) ;
#95 = CIRCLE ( 'NONE', #9, 0.3750000000000000555 ) ;
#96 = DIRECTION ( 'NONE',  ( 0.000000000000000000, 1.000000000000000000, 0.000000000000000000 ) ) ;
#97 = SURFACE_STYLE_FILL_AREA ( #309 ) ;
#98 =( GEOMETRIC_REPRESENTATION_CONTEXT ( 3 ) GLOBAL_UNCERTAINTY_ASSIGNED_CONTEXT ( ( #287 ) ) GLOBAL_UNIT_ASSIGNED_CONTEXT ( ( #45, #6, #26 ) ) REPRESENTATION_CONTEXT ( 'NONE', 'WORKASPACE' ) );
#99 = COLOUR_RGB ( '',1.000000000000000000, 0.000000000000000000, 0.000000000000000000 ) ;
#100 = VERTEX_POINT ( 'NONE', #31 ) ;
#101 = CARTESIAN_POINT ( 'NONE',  ( -7.582401355855259480E-33, 1.000000000000000000, 0.000000000000000000 ) ) ;
#102 = LINE ( 'NONE', #225, #280 ) ;
#103 = VERTEX_POINT ( 'NONE', #209 ) ;
#104 = DIRECTION ( 'NONE',  ( 3.061616997868379936E-17, 1.000000000000000000, -0.000000000000000000 ) ) ;
#105 = AXIS2_PLACEMENT_3D ( 'NONE', #30, #133, #228 ) ;
#106 =( NAMED_UNIT ( * ) SI_UNIT ( $, .STERADIAN. ) SOLID_ANGLE_UNIT ( ) );
#107 = DIRECTION ( 'NONE',  ( 0.000000000000000000, -1.000000000000000000, -0.000000000000000000 ) ) ;
#108 = ADVANCED_FACE ( 'NONE', ( #90 ), #91, .T. ) ;
#109 = ORIENTED_EDGE ( 'NONE', *, *, #1, .F. ) ;
#110 = DIRECTION ( 'NONE',  ( -0.000000000000000000, -1.000000000000000000, -0.000000000000000000 ) ) ;
#111 = CARTESIAN_POINT ( 'NONE',  ( 0.3750000000000000555, 1.000000000000000000, 4.592425496802574219E-17 ) ) ;
#112 = EDGE_LOOP ( 'NONE', ( #82, #196, #247, #109 ) ) ;
#113 = FACE_OUTER_BOUND ( 'NONE', #288, .T. ) ;
#114 = DIMENSIONAL_EXPONENTS ( 1.000000000000000000, 0.000000000000000000, 0.000000000000000000, 0.000000000000000000, 0.000000000000000000, 0.000000000000000000, 0.000000000000000000 ) ;
#115 = SURFACE_SIDE_STYLE ('',( #162 ) ) ;
#116 =( NAMED_UNIT ( * ) SI_UNIT ( $, .STERADIAN. ) SOLID_ANGLE_UNIT ( ) );
#117 =( LENGTH_UNIT ( ) NAMED_UNIT ( * ) SI_UNIT ( $, .METRE. ) );
#118 = EDGE_CURVE ( 'NONE', #74, #253, #119, .T. ) ;
#119 = LINE ( 'NONE', #283, #63 ) ;
#120 = LENGTH_MEASURE_WITH_UNIT ( LENGTH_MEASURE( 0.02539999999999999897 ), #141 );
#121 = PRODUCT_DEFINITION_SHAPE ( 'NONE', 'NONE',  #144 ) ;
#122 =( CONVERSION_BASED_UNIT ( 'INCH', #284 ) LENGTH_UNIT ( ) NAMED_UNIT ( #114 ) );
#123 = UNCERTAINTY_MEASURE_WITH_UNIT (LENGTH_MEASURE( 1.000000000000000082E-05 ), #132, 'distance_accuracy_value', 'NONE');
#124 = PRESENTATION_STYLE_ASSIGNMENT (( #244 ) ) ;
#125 = FILL_AREA_STYLE ('',( #184 ) ) ;
#126 = SURFACE_STYLE_FILL_AREA ( #270 ) ;
#127 = DIRECTION ( 'NONE',  ( 0.000000000000000000, 0.000000000000000000, -1.000000000000000000 ) ) ;
#128 = FILL_AREA_STYLE ('',( #81 ) ) ;
#129 = ORIENTED_EDGE ( 'NONE', *, *, #60, .T. ) ;
#130 = DIRECTION ( 'NONE',  ( -1.000000000000000000, 0.000000000000000000, 0.000000000000000000 ) ) ;
#131 = CYLINDRICAL_SURFACE ( 'NONE', #61, 0.3750000000000000555 ) ;
#132 =( CONVERSION_BASED_UNIT ( 'INCH', #29 ) LENGTH_UNIT ( ) NAMED_UNIT ( #213 ) );
#133 = DIRECTION ( 'NONE',  ( 3.061616997868379936E-17, 1.000000000000000000, -0.000000000000000000 ) ) ;
#134 = DIRECTION ( 'NONE',  ( 3.061616997868379936E-17, 1.000000000000000000, -0.000000000000000000 ) ) ;
#135 = PLANE ( 'NONE',  #21 ) ;
#136 = ADVANCED_FACE ( 'NONE', ( #268 ), #307, .T. ) ;
#137 = VECTOR ( 'NONE', #155, 39.37007874015748143 ) ;
#138 = EDGE_LOOP ( 'NONE', ( #207, #129 ) ) ;
#139 = SHAPE_DEFINITION_REPRESENTATION ( #121, #47 ) ;
#140 = MECHANICAL_DESIGN_GEOMETRIC_PRESENTATION_REPRESENTATION (  '', ( #215 ), #98 ) ;
#141 =( LENGTH_UNIT ( ) NAMED_UNIT ( * ) SI_UNIT ( $, .METRE. ) );
#142 = DIRECTION ( 'NONE',  ( -1.000000000000000000, 0.000000000000000000, 0.000000000000000000 ) ) ;
#143 = SURFACE_SIDE_STYLE ('',( #126 ) ) ;
#144 = PRODUCT_DEFINITION ( 'UNKNOWN', '', #238, #243 ) ;
#145 = AXIS2_PLACEMENT_3D ( 'NONE', #254, #28, #130 ) ;
#146 =( GEOMETRIC_REPRESENTATION_CONTEXT ( 3 ) GLOBAL_UNCERTAINTY_ASSIGNED_CONTEXT ( ( #38 ) ) GLOBAL_UNIT_ASSIGNED_CONTEXT ( ( #22, #291, #149 ) ) REPRESENTATION_CONTEXT ( 'NONE', 'WORKASPACE' ) );
#147 = CARTESIAN_POINT ( 'NONE',  ( 0.000000000000000000, 1.000000000000000000, 0.000000000000000000 ) ) ;
#148 = CARTESIAN_POINT ( 'NONE',  ( 1.757530995306860963E-34, 1.000000000000000000, 0.000000000000000000 ) ) ;
#149 =( NAMED_UNIT ( * ) SI_UNIT ( $, .STERADIAN. ) SOLID_ANGLE_UNIT ( ) );
#150 = DIRECTION ( 'NONE',  ( -0.000000000000000000, -1.000000000000000000, -0.000000000000000000 ) ) ;
#151 = ADVANCED_FACE ( 'NONE', ( #255 ), #131, .T. ) ;
#152 =( LENGTH_UNIT ( ) NAMED_UNIT ( * ) SI_UNIT ( $, .METRE. ) );
#153 = AXIS2_PLACEMENT_3D ( 'NONE', #156, #134, #58 ) ;
#154 = ORIENTED_EDGE ( 'NONE', *, *, #226, .T. ) ;
#155 = DIRECTION ( 'NONE',  ( 3.061616997868379936E-17, 1.000000000000000000, -0.000000000000000000 ) ) ;
#156 = CARTESIAN_POINT ( 'NONE',  ( 6.123233995736759873E-17, 3.000000000000000444, 0.000000000000000000 ) ) ;
#157 = FACE_OUTER_BOUND ( 'NONE', #290, .T. ) ;
#158 =( NAMED_UNIT ( * ) SI_UNIT ( $, .STERADIAN. ) SOLID_ANGLE_UNIT ( ) );
#159 = CARTESIAN_POINT ( 'NONE',  ( 4.592425496802575451E-17, 0.000000000000000000, 0.3750000000000000555 ) ) ;
#160 = CLOSED_SHELL ( 'NONE', ( #151, #108, #248, #136 ) ) ;
#161 = ORIENTED_EDGE ( 'NONE', *, *, #62, .T. ) ;
#162 = SURFACE_STYLE_FILL_AREA ( #230 ) ;
#163 = LINE ( 'NONE', #24, #137 ) ;
#164 = PRESENTATION_STYLE_ASSIGNMENT (( #179 ) ) ;
#165 =( NAMED_UNIT ( * ) SI_UNIT ( $, .STERADIAN. ) SOLID_ANGLE_UNIT ( ) );
#166 =( GEOMETRIC_REPRESENTATION_CONTEXT ( 3 ) GLOBAL_UNCERTAINTY_ASSIGNED_CONTEXT ( ( #189 ) ) GLOBAL_UNIT_ASSIGNED_CONTEXT ( ( #122, #5, #106 ) ) REPRESENTATION_CONTEXT ( 'NONE', 'WORKASPACE' ) );
#167 = DIRECTION ( 'NONE',  ( 0.000000000000000000, -0.000000000000000000, 1.000000000000000000 ) ) ;
#168 = FILL_AREA_STYLE_COLOUR ( '', #188 ) ;
#169 = ORIENTED_EDGE ( 'NONE', *, *, #14, .F. ) ;
#170 = CARTESIAN_POINT ( 'NONE',  ( 0.3750000000000000555, 3.000000000000000444, 0.000000000000000000 ) ) ;
#171 = CYLINDRICAL_SURFACE ( 'NONE', #245, 0.3749999999999999445 ) ;
#172 = SURFACE_STYLE_FILL_AREA ( #128 ) ;
#173 = CIRCLE ( 'NONE', #84, 0.3750000000000000555 ) ;
#174 = MECHANICAL_DESIGN_GEOMETRIC_PRESENTATION_REPRESENTATION (  '', ( #87 ), #216 ) ;
#175 = ORIENTED_EDGE ( 'NONE', *, *, #37, .F. ) ;
#176 =( CONVERSION_BASED_UNIT ( 'INCH', #263 ) LENGTH_UNIT ( ) NAMED_UNIT ( #85 ) );
#177 = DIRECTION ( 'NONE',  ( 0.000000000000000000, 0.000000000000000000, -1.000000000000000000 ) ) ;
#178 = VERTEX_POINT ( 'NONE', #292 ) ;
#179 = SURFACE_STYLE_USAGE ( .BOTH. , #235 ) ;
#180 = ORIENTED_EDGE ( 'NONE', *, *, #266, .F. ) ;
#181 = AXIS2_PLACEMENT_3D ( 'NONE', #297, #57, #258 ) ;
#182 = LENGTH_MEASURE_WITH_UNIT ( LENGTH_MEASURE( 0.02539999999999999897 ), #260 );
#183 = ADVANCED_FACE ( 'NONE', ( #75 ), #171, .T. ) ;
#184 = FILL_AREA_STYLE_COLOUR ( '', #51 ) ;
#185 = DIMENSIONAL_EXPONENTS ( 1.000000000000000000, 0.000000000000000000, 0.000000000000000000, 0.000000000000000000, 0.000000000000000000, 0.000000000000000000, 0.000000000000000000 ) ;
#186 = CARTESIAN_POINT ( 'NONE',  ( 0.000000000000000000, 0.000000000000000000, -0.3750000000000000555 ) ) ;
#187 = ADVANCED_FACE ( 'NONE', ( #49 ), #23, .F. ) ;
#188 = COLOUR_RGB ( '',0.7921568627450980005, 0.8196078431372548767, 0.9333333333333333481 ) ;
#189 = UNCERTAINTY_MEASURE_WITH_UNIT (LENGTH_MEASURE( 1.000000000000000082E-05 ), #122, 'distance_accuracy_value', 'NONE');
#190 = AXIS2_PLACEMENT_3D ( 'NONE', #218, #71, #296 ) ;
#191 = ADVANCED_FACE ( 'NONE', ( #66 ), #195, .T. ) ;
#192 = DIRECTION ( 'NONE',  ( 3.061616997868379936E-17, 1.000000000000000000, -0.000000000000000000 ) ) ;
#193 = ORIENTED_EDGE ( 'NONE', *, *, #279, .F. ) ;
#194 = SURFACE_SIDE_STYLE ('',( #97 ) ) ;
#195 = CYLINDRICAL_SURFACE ( 'NONE', #145, 0.3749999999999999445 ) ;
#196 = ORIENTED_EDGE ( 'NONE', *, *, #282, .T. ) ;
#197 = CLOSED_SHELL ( 'NONE', ( #183, #187, #191, #269 ) ) ;
#198 =( NAMED_UNIT ( * ) PLANE_ANGLE_UNIT ( ) SI_UNIT ( $, .RADIAN. ) );
#199 = AXIS2_PLACEMENT_3D ( 'NONE', #80, #276, #56 ) ;
#200 = SURFACE_STYLE_USAGE ( .BOTH. , #54 ) ;
#201 = LENGTH_MEASURE_WITH_UNIT ( LENGTH_MEASURE( 0.02539999999999999897 ), #152 );
#202 = ORIENTED_EDGE ( 'NONE', *, *, #14, .T. ) ;
#203 = DIRECTION ( 'NONE',  ( 0.000000000000000000, 0.000000000000000000, -1.000000000000000000 ) ) ;
#204 = AXIS2_PLACEMENT_3D ( 'NONE', #148, #192, #53 ) ;
#205 =( NAMED_UNIT ( * ) PLANE_ANGLE_UNIT ( ) SI_UNIT ( $, .RADIAN. ) );
#206 =( CONVERSION_BASED_UNIT ( 'INCH', #201 ) LENGTH_UNIT ( ) NAMED_UNIT ( #303 ) );
#207 = ORIENTED_EDGE ( 'NONE', *, *, #77, .T. ) ;
#208 =( LENGTH_UNIT ( ) NAMED_UNIT ( * ) SI_UNIT ( $, .METRE. ) );
#209 = CARTESIAN_POINT ( 'NONE',  ( -0.3749999999999998890, 3.000000000000000444, 0.000000000000000000 ) ) ;
#210 =( GEOMETRIC_REPRESENTATION_CONTEXT ( 3 ) GLOBAL_UNCERTAINTY_ASSIGNED_CONTEXT ( ( #123 ) ) GLOBAL_UNIT_ASSIGNED_CONTEXT ( ( #132, #198, #158 ) ) REPRESENTATION_CONTEXT ( 'NONE', 'WORKASPACE' ) );
#211 = DIMENSIONAL_EXPONENTS ( 1.000000000000000000, 0.000000000000000000, 0.000000000000000000, 0.000000000000000000, 0.000000000000000000, 0.000000000000000000, 0.000000000000000000 ) ;
#212 =( NAMED_UNIT ( * ) PLANE_ANGLE_UNIT ( ) SI_UNIT ( $, .RADIAN. ) );
#213 = DIMENSIONAL_EXPONENTS ( 1.000000000000000000, 0.000000000000000000, 0.000000000000000000, 0.000000000000000000, 0.000000000000000000, 0.000000000000000000, 0.000000000000000000 ) ;
#214 = DIRECTION ( 'NONE',  ( -0.000000000000000000, -1.000000000000000000, -0.000000000000000000 ) ) ;
#215 = STYLED_ITEM ( 'NONE', ( #240 ), #136 ) ;
#216 =( GEOMETRIC_REPRESENTATION_CONTEXT ( 3 ) GLOBAL_UNCERTAINTY_ASSIGNED_CONTEXT ( ( #234 ) ) GLOBAL_UNIT_ASSIGNED_CONTEXT ( ( #236, #205, #116 ) ) REPRESENTATION_CONTEXT ( 'NONE', 'WORKASPACE' ) );
#217 = PRODUCT ( '59852', '59852', '', ( #233 ) ) ;
#218 = CARTESIAN_POINT ( 'NONE',  ( 0.000000000000000000, 0.000000000000000000, 0.000000000000000000 ) ) ;
#219 = STYLED_ITEM ( 'NONE', ( #264 ), #151 ) ;
#220 = VERTEX_POINT ( 'NONE', #3 ) ;
#221 = MECHANICAL_DESIGN_GEOMETRIC_PRESENTATION_REPRESENTATION (  '', ( #19 ), #210 ) ;
#222 =( GEOMETRIC_REPRESENTATION_CONTEXT ( 3 ) GLOBAL_UNCERTAINTY_ASSIGNED_CONTEXT ( ( #65 ) ) GLOBAL_UNIT_ASSIGNED_CONTEXT ( ( #176, #212, #165 ) ) REPRESENTATION_CONTEXT ( 'NONE', 'WORKASPACE' ) );
#223 = DIRECTION ( 'NONE',  ( 0.000000000000000000, 0.000000000000000000, -1.000000000000000000 ) ) ;
#224 = ORIENTED_EDGE ( 'NONE', *, *, #118, .T. ) ;
#225 = CARTESIAN_POINT ( 'NONE',  ( 4.592425496802575451E-17, 0.000000000000000000, 0.3750000000000000555 ) ) ;
#226 = EDGE_CURVE ( 'NONE', #278, #4, #102, .T. ) ;
#227 =( LENGTH_UNIT ( ) NAMED_UNIT ( * ) SI_UNIT ( $, .METRE. ) );
#228 = DIRECTION ( 'NONE',  ( -1.000000000000000000, 0.000000000000000000, 0.000000000000000000 ) ) ;
#229 = MANIFOLD_SOLID_BREP ( 'Revolve - Cutting Edge', #160 ) ;
#230 = FILL_AREA_STYLE ('',( #261 ) ) ;
#231 = PRESENTATION_LAYER_ASSIGNMENT (  '', '', ( #19 ) ) ;
#232 = ORIENTED_EDGE ( 'NONE', *, *, #7, .T. ) ;
#233 = PRODUCT_CONTEXT ( 'NONE', #50, 'mechanical' ) ;
#234 = UNCERTAINTY_MEASURE_WITH_UNIT (LENGTH_MEASURE( 1.000000000000000082E-05 ), #236, 'distance_accuracy_value', 'NONE');
#235 = SURFACE_SIDE_STYLE ('',( #89 ) ) ;
#236 =( CONVERSION_BASED_UNIT ( 'INCH', #182 ) LENGTH_UNIT ( ) NAMED_UNIT ( #36 ) );
#237 = MECHANICAL_DESIGN_GEOMETRIC_PRESENTATION_REPRESENTATION (  '', ( #42 ), #272 ) ;
#238 = PRODUCT_DEFINITION_FORMATION_WITH_SPECIFIED_SOURCE ( 'ANY', '', #217, .NOT_KNOWN. ) ;
#239 = PRESENTATION_LAYER_ASSIGNMENT (  '', '', ( #215 ) ) ;
#240 = PRESENTATION_STYLE_ASSIGNMENT (( #289 ) ) ;
#241 = DIRECTION ( 'NONE',  ( 0.000000000000000000, 0.000000000000000000, -1.000000000000000000 ) ) ;
#242 = DIRECTION ( 'NONE',  ( -0.000000000000000000, -1.000000000000000000, -0.000000000000000000 ) ) ;
#243 = PRODUCT_DEFINITION_CONTEXT ( 'detailed design', #18, 'design' ) ;
#244 = SURFACE_STYLE_USAGE ( .BOTH. , #143 ) ;
#245 = AXIS2_PLACEMENT_3D ( 'NONE', #273, #69, #8 ) ;
#246 = CIRCLE ( 'NONE', #199, 0.3749999999999999445 ) ;
#247 = ORIENTED_EDGE ( 'NONE', *, *, #37, .T. ) ;
#248 = ADVANCED_FACE ( 'NONE', ( #113 ), #12, .T. ) ;
#249 = LENGTH_MEASURE_WITH_UNIT ( LENGTH_MEASURE( 0.02539999999999999897 ), #117 );
#250 = SURFACE_SIDE_STYLE ('',( #267 ) ) ;
#251 = COLOUR_RGB ( '',1.000000000000000000, 0.000000000000000000, 0.000000000000000000 ) ;
#252 = SURFACE_STYLE_USAGE ( .BOTH. , #250 ) ;
#253 = VERTEX_POINT ( 'NONE', #295 ) ;
#254 = CARTESIAN_POINT ( 'NONE',  ( 6.123233995736759873E-17, 3.000000000000000444, 0.000000000000000000 ) ) ;
#255 = FACE_OUTER_BOUND ( 'NONE', #300, .T. ) ;
#256 = CARTESIAN_POINT ( 'NONE',  ( 0.000000000000000000, 0.000000000000000000, 0.000000000000000000 ) ) ;
#257 = ORIENTED_EDGE ( 'NONE', *, *, #62, .F. ) ;
#258 = DIRECTION ( 'NONE',  ( 0.000000000000000000, 0.000000000000000000, -1.000000000000000000 ) ) ;
#259 = CARTESIAN_POINT ( 'NONE',  ( 0.000000000000000000, 1.000000000000000000, 0.000000000000000000 ) ) ;
#260 =( LENGTH_UNIT ( ) NAMED_UNIT ( * ) SI_UNIT ( $, .METRE. ) );
#261 = FILL_AREA_STYLE_COLOUR ( '', #68 ) ;
#262 = PRESENTATION_LAYER_ASSIGNMENT (  '', '', ( #219 ) ) ;
#263 = LENGTH_MEASURE_WITH_UNIT ( LENGTH_MEASURE( 0.02539999999999999897 ), #208 );
#264 = PRESENTATION_STYLE_ASSIGNMENT (( #13 ) ) ;
#265 = PRESENTATION_LAYER_ASSIGNMENT (  '', '', ( #285 ) ) ;
#266 = EDGE_CURVE ( 'NONE', #103, #253, #246, .T. ) ;
#267 = SURFACE_STYLE_FILL_AREA ( #125 ) ;
#268 = FACE_OUTER_BOUND ( 'NONE', #138, .T. ) ;
#269 = ADVANCED_FACE ( 'NONE', ( #157 ), #135, .F. ) ;
#270 = FILL_AREA_STYLE ('',( #168 ) ) ;
#271 = EDGE_LOOP ( 'NONE', ( #83, #193 ) ) ;
#272 =( GEOMETRIC_REPRESENTATION_CONTEXT ( 3 ) GLOBAL_UNCERTAINTY_ASSIGNED_CONTEXT ( ( #308 ) ) GLOBAL_UNIT_ASSIGNED_CONTEXT ( ( #206, #10, #275 ) ) REPRESENTATION_CONTEXT ( 'NONE', 'WORKASPACE' ) );
#273 = CARTESIAN_POINT ( 'NONE',  ( 6.123233995736759873E-17, 3.000000000000000444, 0.000000000000000000 ) ) ;
#274 = AXIS2_PLACEMENT_3D ( 'NONE', #70, #107, #127 ) ;
#275 =( NAMED_UNIT ( * ) SI_UNIT ( $, .STERADIAN. ) SOLID_ANGLE_UNIT ( ) );
#276 = DIRECTION ( 'NONE',  ( 3.061616997868379936E-17, 1.000000000000000000, -0.000000000000000000 ) ) ;
#277 = ORIENTED_EDGE ( 'NONE', *, *, #1, .T. ) ;
#278 = VERTEX_POINT ( 'NONE', #2 ) ;
#279 = EDGE_CURVE ( 'NONE', #278, #220, #95, .T. ) ;
#280 = VECTOR ( 'NONE', #150, 39.37007874015748143 ) ;
#281 = LINE ( 'NONE', #186, #302 ) ;
#282 = EDGE_CURVE ( 'NONE', #74, #178, #59, .T. ) ;
#283 = CARTESIAN_POINT ( 'NONE',  ( 0.3750000000000000555, 3.000000000000000444, 4.592425496802573602E-17 ) ) ;
#284 = LENGTH_MEASURE_WITH_UNIT ( LENGTH_MEASURE( 0.02539999999999999897 ), #35 );
#285 = STYLED_ITEM ( 'NONE', ( #164 ), #248 ) ;
#286 = DIRECTION ( 'NONE',  ( -3.061616997868379936E-17, -1.000000000000000000, 0.000000000000000000 ) ) ;
#287 = UNCERTAINTY_MEASURE_WITH_UNIT (LENGTH_MEASURE( 1.000000000000000082E-05 ), #45, 'distance_accuracy_value', 'NONE');
#288 = EDGE_LOOP ( 'NONE', ( #79, #11, #202, #298 ) ) ;
#289 = SURFACE_STYLE_USAGE ( .BOTH. , #194 ) ;
#290 = EDGE_LOOP ( 'NONE', ( #67, #277 ) ) ;
#291 =( NAMED_UNIT ( * ) PLANE_ANGLE_UNIT ( ) SI_UNIT ( $, .RADIAN. ) );
#292 = CARTESIAN_POINT ( 'NONE',  ( -0.3750000000000000555, 1.000000000000000000, 0.000000000000000000 ) ) ;
#293 = AXIS2_PLACEMENT_3D ( 'NONE', #259, #32, #15 ) ;
#294 = DIRECTION ( 'NONE',  ( -0.000000000000000000, -1.000000000000000000, -0.000000000000000000 ) ) ;
#295 = CARTESIAN_POINT ( 'NONE',  ( 0.3750000000000000555, 3.000000000000000444, 4.592425496802574219E-17 ) ) ;
#296 = DIRECTION ( 'NONE',  ( 1.000000000000000000, 0.000000000000000000, 0.000000000000000000 ) ) ;
#297 = CARTESIAN_POINT ( 'NONE',  ( 0.000000000000000000, 0.000000000000000000, 0.000000000000000000 ) ) ;
#298 = ORIENTED_EDGE ( 'NONE', *, *, #60, .F. ) ;
#299 = FILL_AREA_STYLE ('',( #301 ) ) ;
#300 = EDGE_LOOP ( 'NONE', ( #232, #154, #52, #169 ) ) ;
#301 = FILL_AREA_STYLE_COLOUR ( '', #99 ) ;
#302 = VECTOR ( 'NONE', #214, 39.37007874015748143 ) ;
#303 = DIMENSIONAL_EXPONENTS ( 1.000000000000000000, 0.000000000000000000, 0.000000000000000000, 0.000000000000000000, 0.000000000000000000, 0.000000000000000000, 0.000000000000000000 ) ;
#304 = APPLICATION_PROTOCOL_DEFINITION ( 'draft international standard', 'automotive_design', 1998, #50 ) ;
#305 = COLOUR_RGB ( '',0.7921568627450980005, 0.8196078431372548767, 0.9333333333333333481 ) ;
#306 = CARTESIAN_POINT ( 'NONE',  ( 0.000000000000000000, 1.000000000000000000, 0.000000000000000000 ) ) ;
#307 = PLANE ( 'NONE',  #274 ) ;
#308 = UNCERTAINTY_MEASURE_WITH_UNIT (LENGTH_MEASURE( 1.000000000000000082E-05 ), #206, 'distance_accuracy_value', 'NONE');
#309 = FILL_AREA_STYLE ('',( #41 ) ) ;
ENDSEC;
END-ISO-10303-21;
