ISO-10303-21;
HEADER;
FILE_DESCRIPTION (( 'STEP AP214' ),
    '1' );
FILE_NAME ('17032.STEP',
    '2023-06-30T21:51:55',
    ( '' ),
    ( '' ),
    'SwSTEP 2.0',
    'SolidWorks 2023',
    '' );
FILE_SCHEMA (( 'AUTOMOTIVE_DESIGN' ));
ENDSEC;

DATA;
#1 = DIRECTION ( 'NONE',  ( 1.000000000000000000, 0.000000000000000000, -1.224646799147353454E-16 ) ) ;
#2 = CARTESIAN_POINT ( 'NONE',  ( 1.377727649040773128E-16, 0.3750000000000000555, 0.000000000000000000 ) ) ;
#3 = CARTESIAN_POINT ( 'NONE',  ( 0.000000000000000000, 0.06250000000000001388, 0.000000000000000000 ) ) ;
#4 = PRESENTATION_STYLE_ASSIGNMENT (( #270 ) ) ;
#5 = PRODUCT_CONTEXT ( 'NONE', #159, 'mechanical' ) ;
#6 = DIRECTION ( 'NONE',  ( -1.000000000000000000, 0.000000000000000000, 0.000000000000000000 ) ) ;
#7 = EDGE_CURVE ( 'NONE', #258, #317, #109, .T. ) ;
#8 = DIRECTION ( 'NONE',  ( 0.000000000000000000, 0.000000000000000000, -1.000000000000000000 ) ) ;
#9 = CIRCLE ( 'NONE', #97, 0.06249999999999981265 ) ;
#10 = DIRECTION ( 'NONE',  ( -1.000000000000000000, 0.000000000000000000, 0.000000000000000000 ) ) ;
#11 = EDGE_CURVE ( 'NONE', #317, #343, #188, .T. ) ;
#12 = PRESENTATION_STYLE_ASSIGNMENT (( #42 ) ) ;
#13 = CARTESIAN_POINT ( 'NONE',  ( -0.06249999999999997224, 2.000000000000000000, 0.000000000000000000 ) ) ;
#14 = CARTESIAN_POINT ( 'NONE',  ( 0.000000000000000000, 0.06250000000000001388, 0.000000000000000000 ) ) ;
#15 = ORIENTED_EDGE ( 'NONE', *, *, #11, .T. ) ;
#16 = FILL_AREA_STYLE ('',( #120 ) ) ;
#17 = ORIENTED_EDGE ( 'NONE', *, *, #7, .T. ) ;
#18 = FACE_OUTER_BOUND ( 'NONE', #221, .T. ) ;
#19 = ORIENTED_EDGE ( 'NONE', *, *, #181, .T. ) ;
#20 =( CONVERSION_BASED_UNIT ( 'INCH', #156 ) LENGTH_UNIT ( ) NAMED_UNIT ( #236 ) );
#21 =( CONVERSION_BASED_UNIT ( 'INCH', #127 ) LENGTH_UNIT ( ) NAMED_UNIT ( #354 ) );
#22 = COLOUR_RGB ( '',1.000000000000000000, 0.000000000000000000, 0.000000000000000000 ) ;
#23 = MECHANICAL_DESIGN_GEOMETRIC_PRESENTATION_REPRESENTATION (  '', ( #314 ), #24 ) ;
#24 =( GEOMETRIC_REPRESENTATION_CONTEXT ( 3 ) GLOBAL_UNCERTAINTY_ASSIGNED_CONTEXT ( ( #75 ) ) GLOBAL_UNIT_ASSIGNED_CONTEXT ( ( #149, #308, #72 ) ) REPRESENTATION_CONTEXT ( 'NONE', 'WORKASPACE' ) );
#25 = PLANE ( 'NONE',  #169 ) ;
#26 = SURFACE_STYLE_FILL_AREA ( #79 ) ;
#27 = ORIENTED_EDGE ( 'NONE', *, *, #327, .T. ) ;
#28 = STYLED_ITEM ( 'NONE', ( #110 ), #40 ) ;
#29 = PRESENTATION_STYLE_ASSIGNMENT (( #132 ) ) ;
#30 = FILL_AREA_STYLE ('',( #291 ) ) ;
#31 = FILL_AREA_STYLE_COLOUR ( '', #205 ) ;
#32 = LENGTH_MEASURE_WITH_UNIT ( LENGTH_MEASURE( 0.02539999999999999897 ), #162 );
#33 = DIRECTION ( 'NONE',  ( -1.000000000000000000, 0.000000000000000000, 0.000000000000000000 ) ) ;
#34 = PRESENTATION_LAYER_ASSIGNMENT (  '', '', ( #28 ) ) ;
#35 = UNCERTAINTY_MEASURE_WITH_UNIT (LENGTH_MEASURE( 1.000000000000000082E-05 ), #168, 'distance_accuracy_value', 'NONE');
#36 = CIRCLE ( 'NONE', #267, 0.06249999999999997918 ) ;
#37 = DIRECTION ( 'NONE',  ( 0.000000000000000000, 0.000000000000000000, 1.000000000000000000 ) ) ;
#38 = CIRCLE ( 'NONE', #239, 0.06249999999999995143 ) ;
#39 = LENGTH_MEASURE_WITH_UNIT ( LENGTH_MEASURE( 0.02539999999999999897 ), #114 );
#40 = MANIFOLD_SOLID_BREP ( 'Revolve - Cutting Edge', #370 ) ;
#41 = SURFACE_STYLE_FILL_AREA ( #184 ) ;
#42 = SURFACE_STYLE_USAGE ( .BOTH. , #305 ) ;
#43 = CARTESIAN_POINT ( 'NONE',  ( -3.827021247335479543E-18, 3.414809992080329023E-17, 0.000000000000000000 ) ) ;
#44 = PRESENTATION_STYLE_ASSIGNMENT (( #251 ) ) ;
#45 = VECTOR ( 'NONE', #161, 39.37007874015748143 ) ;
#46 = DIRECTION ( 'NONE',  ( 0.000000000000000000, 0.000000000000000000, -1.000000000000000000 ) ) ;
#47 = MECHANICAL_DESIGN_GEOMETRIC_PRESENTATION_REPRESENTATION (  '', ( #361 ), #105 ) ;
#48 =( LENGTH_UNIT ( ) NAMED_UNIT ( * ) SI_UNIT ( $, .METRE. ) );
#49 =( LENGTH_UNIT ( ) NAMED_UNIT ( * ) SI_UNIT ( $, .METRE. ) );
#50 = COLOUR_RGB ( '',0.7921568627450980005, 0.8196078431372548767, 0.9333333333333333481 ) ;
#51 = ADVANCED_FACE ( 'NONE', ( #117 ), #25, .F. ) ;
#52 = VERTEX_POINT ( 'NONE', #179 ) ;
#53 = DIRECTION ( 'NONE',  ( -0.000000000000000000, -1.000000000000000000, -0.000000000000000000 ) ) ;
#54 = CARTESIAN_POINT ( 'NONE',  ( -6.123233995736759873E-17, 2.000000000000000000, 0.000000000000000000 ) ) ;
#55 = CARTESIAN_POINT ( 'NONE',  ( 0.000000000000000000, 0.06250000000000001388, -0.06249999999999995143 ) ) ;
#56 = EDGE_LOOP ( 'NONE', ( #84, #312 ) ) ;
#57 = LENGTH_MEASURE_WITH_UNIT ( LENGTH_MEASURE( 0.02539999999999999897 ), #237 );
#58 = ORIENTED_EDGE ( 'NONE', *, *, #71, .T. ) ;
#59 = ADVANCED_FACE ( 'NONE', ( #180 ), #294, .F. ) ;
#60 = CARTESIAN_POINT ( 'NONE',  ( 0.000000000000000000, 0.06250000000000001388, 0.000000000000000000 ) ) ;
#61 = CARTESIAN_POINT ( 'NONE',  ( -0.06249999999999967387, 0.3749999999999999445, 0.000000000000000000 ) ) ;
#62 = DIMENSIONAL_EXPONENTS ( 1.000000000000000000, 0.000000000000000000, 0.000000000000000000, 0.000000000000000000, 0.000000000000000000, 0.000000000000000000, 0.000000000000000000 ) ;
#63 = UNCERTAINTY_MEASURE_WITH_UNIT (LENGTH_MEASURE( 1.000000000000000082E-05 ), #309, 'distance_accuracy_value', 'NONE');
#64 =( NAMED_UNIT ( * ) PLANE_ANGLE_UNIT ( ) SI_UNIT ( $, .RADIAN. ) );
#65 = PRODUCT_RELATED_PRODUCT_CATEGORY ( 'part', '', ( #224 ) ) ;
#66 = PRESENTATION_LAYER_ASSIGNMENT (  '', '', ( #198 ) ) ;
#67 = DIRECTION ( 'NONE',  ( 0.000000000000000000, 0.000000000000000000, 1.000000000000000000 ) ) ;
#68 = EDGE_CURVE ( 'NONE', #258, #167, #9, .T. ) ;
#69 =( GEOMETRIC_REPRESENTATION_CONTEXT ( 3 ) GLOBAL_UNCERTAINTY_ASSIGNED_CONTEXT ( ( #348 ) ) GLOBAL_UNIT_ASSIGNED_CONTEXT ( ( #204, #64, #86 ) ) REPRESENTATION_CONTEXT ( 'NONE', 'WORKASPACE' ) );
#70 = MECHANICAL_DESIGN_GEOMETRIC_PRESENTATION_REPRESENTATION (  '', ( #195 ), #333 ) ;
#71 = EDGE_CURVE ( 'NONE', #52, #254, #147, .T. ) ;
#72 =( NAMED_UNIT ( * ) SI_UNIT ( $, .STERADIAN. ) SOLID_ANGLE_UNIT ( ) );
#73 = AXIS2_PLACEMENT_3D ( 'NONE', #261, #108, #368 ) ;
#74 =( NAMED_UNIT ( * ) SI_UNIT ( $, .STERADIAN. ) SOLID_ANGLE_UNIT ( ) );
#75 = UNCERTAINTY_MEASURE_WITH_UNIT (LENGTH_MEASURE( 1.000000000000000082E-05 ), #149, 'distance_accuracy_value', 'NONE');
#76 = ORIENTED_EDGE ( 'NONE', *, *, #257, .T. ) ;
#77 =( NAMED_UNIT ( * ) PLANE_ANGLE_UNIT ( ) SI_UNIT ( $, .RADIAN. ) );
#78 = AXIS2_PLACEMENT_3D ( 'NONE', #60, #288, #87 ) ;
#79 = FILL_AREA_STYLE ('',( #166 ) ) ;
#80 = ORIENTED_EDGE ( 'NONE', *, *, #68, .F. ) ;
#81 = AXIS2_PLACEMENT_3D ( 'NONE', #212, #244, #10 ) ;
#82 = FACE_OUTER_BOUND ( 'NONE', #152, .T. ) ;
#83 = AXIS2_PLACEMENT_3D ( 'NONE', #176, #37, #235 ) ;
#84 = ORIENTED_EDGE ( 'NONE', *, *, #71, .F. ) ;
#85 = PRODUCT_DEFINITION ( 'UNKNOWN', '', #123, #160 ) ;
#86 =( NAMED_UNIT ( * ) SI_UNIT ( $, .STERADIAN. ) SOLID_ANGLE_UNIT ( ) );
#87 = DIRECTION ( 'NONE',  ( 0.000000000000000000, 0.000000000000000000, -1.000000000000000000 ) ) ;
#88 = FILL_AREA_STYLE_COLOUR ( '', #364 ) ;
#89 = FILL_AREA_STYLE_COLOUR ( '', #339 ) ;
#90 = DIRECTION ( 'NONE',  ( 0.000000000000000000, 0.000000000000000000, -1.000000000000000000 ) ) ;
#91 = SURFACE_STYLE_USAGE ( .BOTH. , #301 ) ;
#92 = DIRECTION ( 'NONE',  ( -0.000000000000000000, -1.000000000000000000, -0.000000000000000000 ) ) ;
#93 =( GEOMETRIC_REPRESENTATION_CONTEXT ( 3 ) GLOBAL_UNCERTAINTY_ASSIGNED_CONTEXT ( ( #35 ) ) GLOBAL_UNIT_ASSIGNED_CONTEXT ( ( #168, #197, #137 ) ) REPRESENTATION_CONTEXT ( 'NONE', 'WORKASPACE' ) );
#94 = MECHANICAL_DESIGN_GEOMETRIC_PRESENTATION_REPRESENTATION (  '', ( #153 ), #293 ) ;
#95 = SURFACE_STYLE_FILL_AREA ( #16 ) ;
#96 = DIRECTION ( 'NONE',  ( 0.000000000000000000, 1.000000000000000000, 0.000000000000000000 ) ) ;
#97 = AXIS2_PLACEMENT_3D ( 'NONE', #298, #214, #33 ) ;
#98 = PRESENTATION_STYLE_ASSIGNMENT (( #330 ) ) ;
#99 = DIRECTION ( 'NONE',  ( -1.224646799147353207E-16, 1.000000000000000000, -0.000000000000000000 ) ) ;
#100 = AXIS2_PLACEMENT_3D ( 'NONE', #148, #248, #151 ) ;
#101 = EDGE_LOOP ( 'NONE', ( #106, #15 ) ) ;
#102 = MECHANICAL_DESIGN_GEOMETRIC_PRESENTATION_REPRESENTATION (  '', ( #28 ), #243 ) ;
#103 = EDGE_CURVE ( 'NONE', #343, #317, #358, .T. ) ;
#104 =( GEOMETRIC_REPRESENTATION_CONTEXT ( 3 ) GLOBAL_UNCERTAINTY_ASSIGNED_CONTEXT ( ( #178 ) ) GLOBAL_UNIT_ASSIGNED_CONTEXT ( ( #286, #113, #129 ) ) REPRESENTATION_CONTEXT ( 'NONE', 'WORKASPACE' ) );
#105 =( GEOMETRIC_REPRESENTATION_CONTEXT ( 3 ) GLOBAL_UNCERTAINTY_ASSIGNED_CONTEXT ( ( #63 ) ) GLOBAL_UNIT_ASSIGNED_CONTEXT ( ( #309, #246, #253 ) ) REPRESENTATION_CONTEXT ( 'NONE', 'WORKASPACE' ) );
#106 = ORIENTED_EDGE ( 'NONE', *, *, #103, .T. ) ;
#107 = ORIENTED_EDGE ( 'NONE', *, *, #327, .F. ) ;
#108 = DIRECTION ( 'NONE',  ( -0.000000000000000000, -1.000000000000000000, -0.000000000000000000 ) ) ;
#109 = LINE ( 'NONE', #313, #45 ) ;
#110 = PRESENTATION_STYLE_ASSIGNMENT (( #341 ) ) ;
#111 = CARTESIAN_POINT ( 'NONE',  ( 0.000000000000000000, 0.3750000000000000555, 0.000000000000000000 ) ) ;
#112 = CARTESIAN_POINT ( 'NONE',  ( 0.06249999999999995143, 2.000000000000000000, 0.000000000000000000 ) ) ;
#113 =( NAMED_UNIT ( * ) PLANE_ANGLE_UNIT ( ) SI_UNIT ( $, .RADIAN. ) );
#114 =( LENGTH_UNIT ( ) NAMED_UNIT ( * ) SI_UNIT ( $, .METRE. ) );
#115 = CYLINDRICAL_SURFACE ( 'NONE', #220, 0.06249999999999995143 ) ;
#116 = PLANE ( 'NONE',  #281 ) ;
#117 = FACE_OUTER_BOUND ( 'NONE', #259, .T. ) ;
#118 = SPHERICAL_SURFACE ( 'NONE', #83, 0.06249999999999997918 ) ;
#119 = CARTESIAN_POINT ( 'NONE',  ( 1.377727649040773128E-16, 0.3749999999999999445, 0.000000000000000000 ) ) ;
#120 = FILL_AREA_STYLE_COLOUR ( '', #165 ) ;
#121 = AXIS2_PLACEMENT_3D ( 'NONE', #119, #199, #320 ) ;
#122 = EDGE_LOOP ( 'NONE', ( #131, #155, #76, #287 ) ) ;
#123 = PRODUCT_DEFINITION_FORMATION_WITH_SPECIFIED_SOURCE ( 'ANY', '', #224, .NOT_KNOWN. ) ;
#124 = FACE_OUTER_BOUND ( 'NONE', #194, .T. ) ;
#125 = ORIENTED_EDGE ( 'NONE', *, *, #164, .T. ) ;
#126 = EDGE_CURVE ( 'NONE', #52, #346, #140, .T. ) ;
#127 = LENGTH_MEASURE_WITH_UNIT ( LENGTH_MEASURE( 0.02539999999999999897 ), #49 );
#128 = PRESENTATION_LAYER_ASSIGNMENT (  '', '', ( #314 ) ) ;
#129 =( NAMED_UNIT ( * ) SI_UNIT ( $, .STERADIAN. ) SOLID_ANGLE_UNIT ( ) );
#130 = VECTOR ( 'NONE', #265, 39.37007874015748143 ) ;
#131 = ORIENTED_EDGE ( 'NONE', *, *, #7, .F. ) ;
#132 = SURFACE_STYLE_USAGE ( .BOTH. , #207 ) ;
#133 = ORIENTED_EDGE ( 'NONE', *, *, #126, .F. ) ;
#134 = DIRECTION ( 'NONE',  ( -1.000000000000000000, 0.000000000000000000, 0.000000000000000000 ) ) ;
#135 = ORIENTED_EDGE ( 'NONE', *, *, #174, .T. ) ;
#136 = CIRCLE ( 'NONE', #360, 0.06249999999999995143 ) ;
#137 =( NAMED_UNIT ( * ) SI_UNIT ( $, .STERADIAN. ) SOLID_ANGLE_UNIT ( ) );
#138 = FILL_AREA_STYLE ('',( #88 ) ) ;
#139 = AXIS2_PLACEMENT_3D ( 'NONE', #112, #143, #269 ) ;
#140 = LINE ( 'NONE', #302, #319 ) ;
#141 = DIMENSIONAL_EXPONENTS ( 1.000000000000000000, 0.000000000000000000, 0.000000000000000000, 0.000000000000000000, 0.000000000000000000, 0.000000000000000000, 0.000000000000000000 ) ;
#142 = CIRCLE ( 'NONE', #200, 0.06249999999999995143 ) ;
#143 = DIRECTION ( 'NONE',  ( 1.224646799147353207E-16, -1.000000000000000000, 0.000000000000000000 ) ) ;
#144 = DIRECTION ( 'NONE',  ( -1.224646799147353207E-16, 1.000000000000000000, -0.000000000000000000 ) ) ;
#145 = DIRECTION ( 'NONE',  ( -1.224646799147353207E-16, 1.000000000000000000, 0.000000000000000000 ) ) ;
#146 = ADVANCED_FACE ( 'NONE', ( #351 ), #115, .T. ) ;
#147 = CIRCLE ( 'NONE', #337, 0.06249999999999995143 ) ;
#148 = CARTESIAN_POINT ( 'NONE',  ( -7.654042494670957545E-18, 0.06250000000000001388, 0.000000000000000000 ) ) ;
#149 =( CONVERSION_BASED_UNIT ( 'INCH', #359 ) LENGTH_UNIT ( ) NAMED_UNIT ( #230 ) );
#150 = CLOSED_SHELL ( 'NONE', ( #157, #51, #226, #59 ) ) ;
#151 = DIRECTION ( 'NONE',  ( 1.000000000000000000, 0.000000000000000000, 0.000000000000000000 ) ) ;
#152 = EDGE_LOOP ( 'NONE', ( #58, #340, #263, #192, #133 ) ) ;
#153 = STYLED_ITEM ( 'NONE', ( #98 ), #201 ) ;
#154 = FILL_AREA_STYLE ('',( #356 ) ) ;
#155 = ORIENTED_EDGE ( 'NONE', *, *, #68, .T. ) ;
#156 = LENGTH_MEASURE_WITH_UNIT ( LENGTH_MEASURE( 0.02539999999999999897 ), #48 );
#157 = ADVANCED_FACE ( 'NONE', ( #295 ), #209, .T. ) ;
#158 = AXIS2_PLACEMENT_3D ( 'NONE', #54, #231, #225 ) ;
#159 = APPLICATION_CONTEXT ( 'automotive_design' ) ;
#160 = PRODUCT_DEFINITION_CONTEXT ( 'detailed design', #173, 'design' ) ;
#161 = DIRECTION ( 'NONE',  ( -1.224646799147353207E-16, 1.000000000000000000, -0.000000000000000000 ) ) ;
#162 =( LENGTH_UNIT ( ) NAMED_UNIT ( * ) SI_UNIT ( $, .METRE. ) );
#163 = ORIENTED_EDGE ( 'NONE', *, *, #174, .F. ) ;
#164 = EDGE_CURVE ( 'NONE', #167, #258, #216, .T. ) ;
#165 = COLOUR_RGB ( '',1.000000000000000000, 0.000000000000000000, 0.000000000000000000 ) ;
#166 = FILL_AREA_STYLE_COLOUR ( '', #22 ) ;
#167 = VERTEX_POINT ( 'NONE', #61 ) ;
#168 =( CONVERSION_BASED_UNIT ( 'INCH', #57 ) LENGTH_UNIT ( ) NAMED_UNIT ( #296 ) );
#169 = AXIS2_PLACEMENT_3D ( 'NONE', #2, #145, #264 ) ;
#170 = ORIENTED_EDGE ( 'NONE', *, *, #297, .F. ) ;
#171 = MANIFOLD_SOLID_BREP ( 'Revolve - Tool Body (Straight Shanked)', #150 ) ;
#172 = CARTESIAN_POINT ( 'NONE',  ( 7.654042494670951382E-18, 0.000000000000000000, 0.06249999999999995143 ) ) ;
#173 = APPLICATION_CONTEXT ( 'automotive_design' ) ;
#174 = EDGE_CURVE ( 'NONE', #285, #345, #136, .T. ) ;
#175 = CARTESIAN_POINT ( 'NONE',  ( 0.000000000000000000, 0.06250000000000001388, 0.000000000000000000 ) ) ;
#176 = CARTESIAN_POINT ( 'NONE',  ( -7.654042494670957545E-18, 0.06250000000000001388, 0.000000000000000000 ) ) ;
#177 = DIRECTION ( 'NONE',  ( 0.000000000000000000, 0.000000000000000000, -1.000000000000000000 ) ) ;
#178 = UNCERTAINTY_MEASURE_WITH_UNIT (LENGTH_MEASURE( 1.000000000000000082E-05 ), #286, 'distance_accuracy_value', 'NONE');
#179 = CARTESIAN_POINT ( 'NONE',  ( 0.000000000000000000, 0.3750000000000000555, -0.06249999999999995143 ) ) ;
#180 = FACE_OUTER_BOUND ( 'NONE', #101, .T. ) ;
#181 = EDGE_CURVE ( 'NONE', #277, #285, #38, .T. ) ;
#182 = PRESENTATION_LAYER_ASSIGNMENT (  '', '', ( #361 ) ) ;
#183 = DIRECTION ( 'NONE',  ( -1.000000000000000000, 0.000000000000000000, 0.000000000000000000 ) ) ;
#184 = FILL_AREA_STYLE ('',( #31 ) ) ;
#185 = DIRECTION ( 'NONE',  ( 1.000000000000000000, 0.000000000000000000, 0.000000000000000000 ) ) ;
#186 = DIRECTION ( 'NONE',  ( 0.000000000000000000, -0.000000000000000000, 1.000000000000000000 ) ) ;
#187 = SPHERICAL_SURFACE ( 'NONE', #100, 0.06249999999999997918 ) ;
#188 = CIRCLE ( 'NONE', #158, 0.06250000000000001388 ) ;
#189 =( LENGTH_UNIT ( ) NAMED_UNIT ( * ) SI_UNIT ( $, .METRE. ) );
#190 = AXIS2_PLACEMENT_3D ( 'NONE', #350, #144, #6 ) ;
#191 = ORIENTED_EDGE ( 'NONE', *, *, #126, .T. ) ;
#192 = ORIENTED_EDGE ( 'NONE', *, *, #322, .F. ) ;
#193 = EDGE_LOOP ( 'NONE', ( #170, #289, #191, #107, #163 ) ) ;
#194 = EDGE_LOOP ( 'NONE', ( #260, #27, #369, #367 ) ) ;
#195 = STYLED_ITEM ( 'NONE', ( #12 ), #222 ) ;
#196 = ORIENTED_EDGE ( 'NONE', *, *, #331, .F. ) ;
#197 =( NAMED_UNIT ( * ) PLANE_ANGLE_UNIT ( ) SI_UNIT ( $, .RADIAN. ) );
#198 = STYLED_ITEM ( 'NONE', ( #4 ), #146 ) ;
#199 = DIRECTION ( 'NONE',  ( -1.224646799147353207E-16, 1.000000000000000000, -0.000000000000000000 ) ) ;
#200 = AXIS2_PLACEMENT_3D ( 'NONE', #3, #53, #344 ) ;
#201 = ADVANCED_FACE ( 'NONE', ( #124 ), #187, .T. ) ;
#202 = CARTESIAN_POINT ( 'NONE',  ( -7.654042494670957545E-18, 0.06250000000000001388, 0.000000000000000000 ) ) ;
#203 = UNCERTAINTY_MEASURE_WITH_UNIT (LENGTH_MEASURE( 1.000000000000000082E-05 ), #21, 'distance_accuracy_value', 'NONE');
#204 =( CONVERSION_BASED_UNIT ( 'INCH', #39 ) LENGTH_UNIT ( ) NAMED_UNIT ( #321 ) );
#205 = COLOUR_RGB ( '',0.7921568627450980005, 0.8196078431372548767, 0.9333333333333333481 ) ;
#206 = SURFACE_STYLE_FILL_AREA ( #213 ) ;
#207 = SURFACE_SIDE_STYLE ('',( #26 ) ) ;
#208 = VECTOR ( 'NONE', #99, 39.37007874015748143 ) ;
#209 = CYLINDRICAL_SURFACE ( 'NONE', #81, 0.06249999999999991673 ) ;
#210 = PRESENTATION_STYLE_ASSIGNMENT (( #91 ) ) ;
#211 = APPLICATION_PROTOCOL_DEFINITION ( 'draft international standard', 'automotive_design', 1998, #173 ) ;
#212 = CARTESIAN_POINT ( 'NONE',  ( -6.123233995736759873E-17, 2.000000000000000000, 0.000000000000000000 ) ) ;
#213 = FILL_AREA_STYLE ('',( #89 ) ) ;
#214 = DIRECTION ( 'NONE',  ( -1.224646799147353207E-16, 1.000000000000000000, -0.000000000000000000 ) ) ;
#215 = FACE_OUTER_BOUND ( 'NONE', #56, .T. ) ;
#216 = CIRCLE ( 'NONE', #121, 0.06249999999999981265 ) ;
#217 =( NAMED_UNIT ( * ) PLANE_ANGLE_UNIT ( ) SI_UNIT ( $, .RADIAN. ) );
#218 = CARTESIAN_POINT ( 'NONE',  ( 0.000000000000000000, 0.000000000000000000, 0.000000000000000000 ) ) ;
#219 = DIRECTION ( 'NONE',  ( -0.000000000000000000, -1.000000000000000000, -0.000000000000000000 ) ) ;
#220 = AXIS2_PLACEMENT_3D ( 'NONE', #242, #353, #8 ) ;
#221 = EDGE_LOOP ( 'NONE', ( #135, #372, #196, #19 ) ) ;
#222 = ADVANCED_FACE ( 'NONE', ( #18 ), #118, .T. ) ;
#223 = AXIS2_PLACEMENT_3D ( 'NONE', #300, #349, #183 ) ;
#224 = PRODUCT ( '17032', '17032', '', ( #5 ) ) ;
#225 = DIRECTION ( 'NONE',  ( -1.000000000000000000, 0.000000000000000000, 0.000000000000000000 ) ) ;
#226 = ADVANCED_FACE ( 'NONE', ( #280 ), #240, .T. ) ;
#227 = DIRECTION ( 'NONE',  ( 1.224646799147353207E-16, -0.000000000000000000, 1.000000000000000000 ) ) ;
#228 = EDGE_LOOP ( 'NONE', ( #125, #17, #282, #363 ) ) ;
#229 = CARTESIAN_POINT ( 'NONE',  ( -0.06250000000000006939, 2.000000000000000000, 0.000000000000000000 ) ) ;
#230 = DIMENSIONAL_EXPONENTS ( 1.000000000000000000, 0.000000000000000000, 0.000000000000000000, 0.000000000000000000, 0.000000000000000000, 0.000000000000000000, 0.000000000000000000 ) ;
#231 = DIRECTION ( 'NONE',  ( -1.224646799147353207E-16, 1.000000000000000000, -0.000000000000000000 ) ) ;
#232 = CARTESIAN_POINT ( 'NONE',  ( -7.654042494670957545E-18, 0.06250000000000001388, 0.000000000000000000 ) ) ;
#233 = DIRECTION ( 'NONE',  ( -0.000000000000000000, -1.000000000000000000, -0.000000000000000000 ) ) ;
#234 = CARTESIAN_POINT ( 'NONE',  ( 0.000000000000000000, 0.3750000000000000555, 0.000000000000000000 ) ) ;
#235 = DIRECTION ( 'NONE',  ( 1.000000000000000000, 0.000000000000000000, 0.000000000000000000 ) ) ;
#236 = DIMENSIONAL_EXPONENTS ( 1.000000000000000000, 0.000000000000000000, 0.000000000000000000, 0.000000000000000000, 0.000000000000000000, 0.000000000000000000, 0.000000000000000000 ) ;
#237 =( LENGTH_UNIT ( ) NAMED_UNIT ( * ) SI_UNIT ( $, .METRE. ) );
#238 = SURFACE_STYLE_FILL_AREA ( #138 ) ;
#239 = AXIS2_PLACEMENT_3D ( 'NONE', #14, #276, #334 ) ;
#240 = CYLINDRICAL_SURFACE ( 'NONE', #190, 0.06249999999999991673 ) ;
#241 = PRESENTATION_LAYER_ASSIGNMENT (  '', '', ( #195 ) ) ;
#242 = CARTESIAN_POINT ( 'NONE',  ( 0.000000000000000000, 0.000000000000000000, 0.000000000000000000 ) ) ;
#243 =( GEOMETRIC_REPRESENTATION_CONTEXT ( 3 ) GLOBAL_UNCERTAINTY_ASSIGNED_CONTEXT ( ( #203 ) ) GLOBAL_UNIT_ASSIGNED_CONTEXT ( ( #21, #77, #326 ) ) REPRESENTATION_CONTEXT ( 'NONE', 'WORKASPACE' ) );
#244 = DIRECTION ( 'NONE',  ( -1.224646799147353207E-16, 1.000000000000000000, -0.000000000000000000 ) ) ;
#245 = PRESENTATION_LAYER_ASSIGNMENT (  '', '', ( #366 ) ) ;
#246 =( NAMED_UNIT ( * ) PLANE_ANGLE_UNIT ( ) SI_UNIT ( $, .RADIAN. ) );
#247 = COLOUR_RGB ( '',1.000000000000000000, 0.000000000000000000, 0.000000000000000000 ) ;
#248 = DIRECTION ( 'NONE',  ( 0.000000000000000000, 0.000000000000000000, 1.000000000000000000 ) ) ;
#249 = LENGTH_MEASURE_WITH_UNIT ( LENGTH_MEASURE( 0.02539999999999999897 ), #324 );
#250 = PRESENTATION_LAYER_ASSIGNMENT (  '', '', ( #153 ) ) ;
#251 = SURFACE_STYLE_USAGE ( .BOTH. , #272 ) ;
#252 = ADVANCED_FACE ( 'NONE', ( #215 ), #116, .T. ) ;
#253 =( NAMED_UNIT ( * ) SI_UNIT ( $, .STERADIAN. ) SOLID_ANGLE_UNIT ( ) );
#254 = VERTEX_POINT ( 'NONE', #306 ) ;
#255 = VERTEX_POINT ( 'NONE', #43 ) ;
#256 = SURFACE_STYLE_FILL_AREA ( #30 ) ;
#257 = EDGE_CURVE ( 'NONE', #167, #343, #275, .T. ) ;
#258 = VERTEX_POINT ( 'NONE', #332 ) ;
#259 = EDGE_LOOP ( 'NONE', ( #316, #80 ) ) ;
#260 = ORIENTED_EDGE ( 'NONE', *, *, #303, .F. ) ;
#261 = CARTESIAN_POINT ( 'NONE',  ( 0.000000000000000000, 0.000000000000000000, 0.000000000000000000 ) ) ;
#262 = ADVANCED_BREP_SHAPE_REPRESENTATION ( '17032', ( #40, #171, #292 ), #93 ) ;
#263 = ORIENTED_EDGE ( 'NONE', *, *, #181, .F. ) ;
#264 = DIRECTION ( 'NONE',  ( -1.000000000000000000, -1.224646799147353207E-16, 0.000000000000000000 ) ) ;
#265 = DIRECTION ( 'NONE',  ( -0.000000000000000000, -1.000000000000000000, -0.000000000000000000 ) ) ;
#266 = DIRECTION ( 'NONE',  ( -0.000000000000000000, -1.000000000000000000, -0.000000000000000000 ) ) ;
#267 = AXIS2_PLACEMENT_3D ( 'NONE', #232, #227, #1 ) ;
#268 = UNCERTAINTY_MEASURE_WITH_UNIT (LENGTH_MEASURE( 1.000000000000000082E-05 ), #20, 'distance_accuracy_value', 'NONE');
#269 = DIRECTION ( 'NONE',  ( 1.000000000000000000, 1.224646799147353207E-16, 0.000000000000000000 ) ) ;
#270 = SURFACE_STYLE_USAGE ( .BOTH. , #323 ) ;
#271 = CIRCLE ( 'NONE', #78, 0.06249999999999995143 ) ;
#272 = SURFACE_SIDE_STYLE ('',( #41 ) ) ;
#273 = CARTESIAN_POINT ( 'NONE',  ( 0.000000000000000000, 0.3750000000000000555, 0.000000000000000000 ) ) ;
#274 = SURFACE_STYLE_FILL_AREA ( #154 ) ;
#275 = LINE ( 'NONE', #13, #208 ) ;
#276 = DIRECTION ( 'NONE',  ( -0.000000000000000000, -1.000000000000000000, -0.000000000000000000 ) ) ;
#277 = VERTEX_POINT ( 'NONE', #365 ) ;
#278 = EDGE_CURVE ( 'NONE', #254, #52, #352, .T. ) ;
#279 = CIRCLE ( 'NONE', #304, 0.06249999999999997918 ) ;
#280 = FACE_OUTER_BOUND ( 'NONE', #122, .T. ) ;
#281 = AXIS2_PLACEMENT_3D ( 'NONE', #273, #96, #186 ) ;
#282 = ORIENTED_EDGE ( 'NONE', *, *, #103, .F. ) ;
#283 =( NAMED_UNIT ( * ) PLANE_ANGLE_UNIT ( ) SI_UNIT ( $, .RADIAN. ) );
#284 = MECHANICAL_DESIGN_GEOMETRIC_PRESENTATION_REPRESENTATION (  '', ( #198 ), #69 ) ;
#285 = VERTEX_POINT ( 'NONE', #290 ) ;
#286 =( CONVERSION_BASED_UNIT ( 'INCH', #32 ) LENGTH_UNIT ( ) NAMED_UNIT ( #299 ) );
#287 = ORIENTED_EDGE ( 'NONE', *, *, #11, .F. ) ;
#288 = DIRECTION ( 'NONE',  ( -0.000000000000000000, -1.000000000000000000, -0.000000000000000000 ) ) ;
#289 = ORIENTED_EDGE ( 'NONE', *, *, #278, .T. ) ;
#290 = CARTESIAN_POINT ( 'NONE',  ( 7.654042494670951382E-18, 0.06250000000000001388, 0.06249999999999995143 ) ) ;
#291 = FILL_AREA_STYLE_COLOUR ( '', #50 ) ;
#292 = AXIS2_PLACEMENT_3D ( 'NONE', #218, #67, #185 ) ;
#293 =( GEOMETRIC_REPRESENTATION_CONTEXT ( 3 ) GLOBAL_UNCERTAINTY_ASSIGNED_CONTEXT ( ( #311 ) ) GLOBAL_UNIT_ASSIGNED_CONTEXT ( ( #310, #217, #328 ) ) REPRESENTATION_CONTEXT ( 'NONE', 'WORKASPACE' ) );
#294 = PLANE ( 'NONE',  #139 ) ;
#295 = FACE_OUTER_BOUND ( 'NONE', #228, .T. ) ;
#296 = DIMENSIONAL_EXPONENTS ( 1.000000000000000000, 0.000000000000000000, 0.000000000000000000, 0.000000000000000000, 0.000000000000000000, 0.000000000000000000, 0.000000000000000000 ) ;
#297 = EDGE_CURVE ( 'NONE', #254, #285, #315, .T. ) ;
#298 = CARTESIAN_POINT ( 'NONE',  ( 1.377727649040773128E-16, 0.3749999999999999445, 0.000000000000000000 ) ) ;
#299 = DIMENSIONAL_EXPONENTS ( 1.000000000000000000, 0.000000000000000000, 0.000000000000000000, 0.000000000000000000, 0.000000000000000000, 0.000000000000000000, 0.000000000000000000 ) ;
#300 = CARTESIAN_POINT ( 'NONE',  ( -6.123233995736759873E-17, 2.000000000000000000, 0.000000000000000000 ) ) ;
#301 = SURFACE_SIDE_STYLE ('',( #206 ) ) ;
#302 = CARTESIAN_POINT ( 'NONE',  ( 0.000000000000000000, 0.000000000000000000, -0.06249999999999995143 ) ) ;
#303 = EDGE_CURVE ( 'NONE', #345, #255, #36, .T. ) ;
#304 = AXIS2_PLACEMENT_3D ( 'NONE', #202, #90, #134 ) ;
#305 = SURFACE_SIDE_STYLE ('',( #95 ) ) ;
#306 = CARTESIAN_POINT ( 'NONE',  ( 7.654042494670951382E-18, 0.3750000000000000555, 0.06249999999999995143 ) ) ;
#307 = LENGTH_MEASURE_WITH_UNIT ( LENGTH_MEASURE( 0.02539999999999999897 ), #189 );
#308 =( NAMED_UNIT ( * ) PLANE_ANGLE_UNIT ( ) SI_UNIT ( $, .RADIAN. ) );
#309 =( CONVERSION_BASED_UNIT ( 'INCH', #249 ) LENGTH_UNIT ( ) NAMED_UNIT ( #62 ) );
#310 =( CONVERSION_BASED_UNIT ( 'INCH', #307 ) LENGTH_UNIT ( ) NAMED_UNIT ( #141 ) );
#311 = UNCERTAINTY_MEASURE_WITH_UNIT (LENGTH_MEASURE( 1.000000000000000082E-05 ), #310, 'distance_accuracy_value', 'NONE');
#312 = ORIENTED_EDGE ( 'NONE', *, *, #278, .F. ) ;
#313 = CARTESIAN_POINT ( 'NONE',  ( 0.06249999999999985428, 2.000000000000000000, 7.654042494670946760E-18 ) ) ;
#314 = STYLED_ITEM ( 'NONE', ( #44 ), #171 ) ;
#315 = LINE ( 'NONE', #172, #130 ) ;
#316 = ORIENTED_EDGE ( 'NONE', *, *, #164, .F. ) ;
#317 = VERTEX_POINT ( 'NONE', #347 ) ;
#318 = PRODUCT_DEFINITION_SHAPE ( 'NONE', 'NONE',  #85 ) ;
#319 = VECTOR ( 'NONE', #266, 39.37007874015748143 ) ;
#320 = DIRECTION ( 'NONE',  ( -1.000000000000000000, 0.000000000000000000, 0.000000000000000000 ) ) ;
#321 = DIMENSIONAL_EXPONENTS ( 1.000000000000000000, 0.000000000000000000, 0.000000000000000000, 0.000000000000000000, 0.000000000000000000, 0.000000000000000000, 0.000000000000000000 ) ;
#322 = EDGE_CURVE ( 'NONE', #346, #277, #271, .T. ) ;
#323 = SURFACE_SIDE_STYLE ('',( #238 ) ) ;
#324 =( LENGTH_UNIT ( ) NAMED_UNIT ( * ) SI_UNIT ( $, .METRE. ) );
#325 = SHAPE_DEFINITION_REPRESENTATION ( #318, #262 ) ;
#326 =( NAMED_UNIT ( * ) SI_UNIT ( $, .STERADIAN. ) SOLID_ANGLE_UNIT ( ) );
#327 = EDGE_CURVE ( 'NONE', #345, #346, #142, .T. ) ;
#328 =( NAMED_UNIT ( * ) SI_UNIT ( $, .STERADIAN. ) SOLID_ANGLE_UNIT ( ) );
#329 = APPLICATION_PROTOCOL_DEFINITION ( 'draft international standard', 'automotive_design', 1998, #159 ) ;
#330 = SURFACE_STYLE_USAGE ( .BOTH. , #336 ) ;
#331 = EDGE_CURVE ( 'NONE', #277, #255, #279, .T. ) ;
#332 = CARTESIAN_POINT ( 'NONE',  ( 0.06249999999999995837, 0.3749999999999999445, 7.654042494670954463E-18 ) ) ;
#333 =( GEOMETRIC_REPRESENTATION_CONTEXT ( 3 ) GLOBAL_UNCERTAINTY_ASSIGNED_CONTEXT ( ( #268 ) ) GLOBAL_UNIT_ASSIGNED_CONTEXT ( ( #20, #283, #74 ) ) REPRESENTATION_CONTEXT ( 'NONE', 'WORKASPACE' ) );
#334 = DIRECTION ( 'NONE',  ( 0.000000000000000000, 0.000000000000000000, -1.000000000000000000 ) ) ;
#335 = AXIS2_PLACEMENT_3D ( 'NONE', #111, #233, #177 ) ;
#336 = SURFACE_SIDE_STYLE ('',( #274 ) ) ;
#337 = AXIS2_PLACEMENT_3D ( 'NONE', #234, #92, #355 ) ;
#338 = MECHANICAL_DESIGN_GEOMETRIC_PRESENTATION_REPRESENTATION (  '', ( #366 ), #104 ) ;
#339 = COLOUR_RGB ( '',1.000000000000000000, 0.000000000000000000, 0.000000000000000000 ) ;
#340 = ORIENTED_EDGE ( 'NONE', *, *, #297, .T. ) ;
#341 = SURFACE_STYLE_USAGE ( .BOTH. , #373 ) ;
#342 = CARTESIAN_POINT ( 'NONE',  ( -0.06249999999999996531, 0.06250000000000001388, 7.654042494670952923E-18 ) ) ;
#343 = VERTEX_POINT ( 'NONE', #229 ) ;
#344 = DIRECTION ( 'NONE',  ( 0.000000000000000000, 0.000000000000000000, -1.000000000000000000 ) ) ;
#345 = VERTEX_POINT ( 'NONE', #342 ) ;
#346 = VERTEX_POINT ( 'NONE', #55 ) ;
#347 = CARTESIAN_POINT ( 'NONE',  ( 0.06249999999999995837, 2.000000000000000000, 7.654042494670954463E-18 ) ) ;
#348 = UNCERTAINTY_MEASURE_WITH_UNIT (LENGTH_MEASURE( 1.000000000000000082E-05 ), #204, 'distance_accuracy_value', 'NONE');
#349 = DIRECTION ( 'NONE',  ( -1.224646799147353207E-16, 1.000000000000000000, -0.000000000000000000 ) ) ;
#350 = CARTESIAN_POINT ( 'NONE',  ( -6.123233995736759873E-17, 2.000000000000000000, 0.000000000000000000 ) ) ;
#351 = FACE_OUTER_BOUND ( 'NONE', #193, .T. ) ;
#352 = CIRCLE ( 'NONE', #335, 0.06249999999999995143 ) ;
#353 = DIRECTION ( 'NONE',  ( -0.000000000000000000, -1.000000000000000000, -0.000000000000000000 ) ) ;
#354 = DIMENSIONAL_EXPONENTS ( 1.000000000000000000, 0.000000000000000000, 0.000000000000000000, 0.000000000000000000, 0.000000000000000000, 0.000000000000000000, 0.000000000000000000 ) ;
#355 = DIRECTION ( 'NONE',  ( 0.000000000000000000, 0.000000000000000000, -1.000000000000000000 ) ) ;
#356 = FILL_AREA_STYLE_COLOUR ( '', #247 ) ;
#357 = ADVANCED_FACE ( 'NONE', ( #82 ), #371, .T. ) ;
#358 = CIRCLE ( 'NONE', #223, 0.06250000000000001388 ) ;
#359 = LENGTH_MEASURE_WITH_UNIT ( LENGTH_MEASURE( 0.02539999999999999897 ), #362 );
#360 = AXIS2_PLACEMENT_3D ( 'NONE', #175, #219, #46 ) ;
#361 = STYLED_ITEM ( 'NONE', ( #210 ), #252 ) ;
#362 =( LENGTH_UNIT ( ) NAMED_UNIT ( * ) SI_UNIT ( $, .METRE. ) );
#363 = ORIENTED_EDGE ( 'NONE', *, *, #257, .F. ) ;
#364 = COLOUR_RGB ( '',1.000000000000000000, 0.000000000000000000, 0.000000000000000000 ) ;
#365 = CARTESIAN_POINT ( 'NONE',  ( 0.06249999999999996531, 0.06250000000000001388, 0.000000000000000000 ) ) ;
#366 = STYLED_ITEM ( 'NONE', ( #29 ), #357 ) ;
#367 = ORIENTED_EDGE ( 'NONE', *, *, #331, .T. ) ;
#368 = DIRECTION ( 'NONE',  ( 0.000000000000000000, 0.000000000000000000, -1.000000000000000000 ) ) ;
#369 = ORIENTED_EDGE ( 'NONE', *, *, #322, .T. ) ;
#370 = CLOSED_SHELL ( 'NONE', ( #222, #357, #252, #146, #201 ) ) ;
#371 = CYLINDRICAL_SURFACE ( 'NONE', #73, 0.06249999999999995143 ) ;
#372 = ORIENTED_EDGE ( 'NONE', *, *, #303, .T. ) ;
#373 = SURFACE_SIDE_STYLE ('',( #256 ) ) ;
ENDSEC;
END-ISO-10303-21;
