ISO-10303-21;
HEADER;
FILE_DESCRIPTION (( 'STEP AP214' ),
    '1' );
FILE_NAME ('59675.STEP',
    '2023-07-24T15:22:36',
    ( '' ),
    ( '' ),
    'SwSTEP 2.0',
    'SolidWorks 2023',
    '' );
FILE_SCHEMA (( 'AUTOMOTIVE_DESIGN' ));
ENDSEC;

DATA;
#1 = FACE_OUTER_BOUND ( 'NONE', #267, .T. ) ;
#2 = VERTEX_POINT ( 'NONE', #365 ) ;
#3 = SURFACE_STYLE_FILL_AREA ( #178 ) ;
#4 = DIRECTION ( 'NONE',  ( 1.560495851798313744E-17, 1.000000000000000000, -0.000000000000000000 ) ) ;
#5 = ORIENTED_EDGE ( 'NONE', *, *, #336, .T. ) ;
#6 = MECHANICAL_DESIGN_GEOMETRIC_PRESENTATION_REPRESENTATION (  '', ( #286 ), #11 ) ;
#7 = MANIFOLD_SOLID_BREP ( 'Revolve - Cutting Edge', #62 ) ;
#8 = DIRECTION ( 'NONE',  ( 1.560495851798313744E-17, 1.000000000000000000, -0.000000000000000000 ) ) ;
#9 = LINE ( 'NONE', #326, #316 ) ;
#10 = EDGE_LOOP ( 'NONE', ( #177, #143, #248, #110 ) ) ;
#11 =( GEOMETRIC_REPRESENTATION_CONTEXT ( 3 ) GLOBAL_UNCERTAINTY_ASSIGNED_CONTEXT ( ( #162 ) ) GLOBAL_UNIT_ASSIGNED_CONTEXT ( ( #301, #360, #50 ) ) REPRESENTATION_CONTEXT ( 'NONE', 'WORKASPACE' ) );
#12 = DIRECTION ( 'NONE',  ( 1.560495851798313744E-17, 1.000000000000000000, -0.000000000000000000 ) ) ;
#13 = CARTESIAN_POINT ( 'NONE',  ( 6.123233995736762930E-15, 75.00000000000000000, 0.000000000000000000 ) ) ;
#14 = CARTESIAN_POINT ( 'NONE',  ( 0.000000000000000000, 1.000000000000000000, -6.000000000000000000 ) ) ;
#15 = SURFACE_STYLE_FILL_AREA ( #20 ) ;
#16 = STYLED_ITEM ( 'NONE', ( #146 ), #7 ) ;
#17 = AXIS2_PLACEMENT_3D ( 'NONE', #180, #167, #291 ) ;
#18 = FACE_OUTER_BOUND ( 'NONE', #105, .T. ) ;
#19 = EDGE_LOOP ( 'NONE', ( #224, #43 ) ) ;
#20 = FILL_AREA_STYLE ('',( #109 ) ) ;
#21 = FILL_AREA_STYLE_COLOUR ( '', #22 ) ;
#22 = COLOUR_RGB ( '',1.000000000000000000, 0.000000000000000000, 0.000000000000000000 ) ;
#23 =( NAMED_UNIT ( * ) PLANE_ANGLE_UNIT ( ) SI_UNIT ( $, .RADIAN. ) );
#24 = ORIENTED_EDGE ( 'NONE', *, *, #187, .T. ) ;
#25 =( NAMED_UNIT ( * ) PLANE_ANGLE_UNIT ( ) SI_UNIT ( $, .RADIAN. ) );
#26 = FILL_AREA_STYLE_COLOUR ( '', #312 ) ;
#27 = STYLED_ITEM ( 'NONE', ( #185 ), #144 ) ;
#28 = CARTESIAN_POINT ( 'NONE',  ( 6.123233995736762930E-15, 75.00000000000000000, 0.000000000000000000 ) ) ;
#29 = DIRECTION ( 'NONE',  ( 1.560495851798313744E-17, 1.000000000000000000, -0.000000000000000000 ) ) ;
#30 = MECHANICAL_DESIGN_GEOMETRIC_PRESENTATION_REPRESENTATION (  '', ( #322 ), #363 ) ;
#31 = SURFACE_SIDE_STYLE ('',( #264 ) ) ;
#32 = CARTESIAN_POINT ( 'NONE',  ( 0.000000000000000000, 30.00000000000000000, 0.000000000000000000 ) ) ;
#33 = FACE_OUTER_BOUND ( 'NONE', #334, .T. ) ;
#34 = ADVANCED_FACE ( 'NONE', ( #208 ), #313, .T. ) ;
#35 = CARTESIAN_POINT ( 'NONE',  ( 6.000000000000000000, 75.00000000000000000, 0.000000000000000000 ) ) ;
#36 = ORIENTED_EDGE ( 'NONE', *, *, #135, .F. ) ;
#37 = DIRECTION ( 'NONE',  ( 1.560495851798313744E-17, 1.000000000000000000, -0.000000000000000000 ) ) ;
#38 = CIRCLE ( 'NONE', #282, 5.000000000000000000 ) ;
#39 = TOROIDAL_SURFACE ( 'NONE', #80, 5.000000000000000000, 0.9999999999999995559 ) ;
#40 = ORIENTED_EDGE ( 'NONE', *, *, #242, .T. ) ;
#41 = CARTESIAN_POINT ( 'NONE',  ( 0.000000000000000000, 0.000000000000000000, 0.000000000000000000 ) ) ;
#42 = DIRECTION ( 'NONE',  ( 1.000000000000000000, 0.000000000000000000, -1.224646799147353207E-16 ) ) ;
#43 = ORIENTED_EDGE ( 'NONE', *, *, #209, .T. ) ;
#44 = DIRECTION ( 'NONE',  ( -1.000000000000000000, 0.000000000000000000, 0.000000000000000000 ) ) ;
#45 = PRODUCT_DEFINITION_CONTEXT ( 'detailed design', #349, 'design' ) ;
#46 = ADVANCED_FACE ( 'NONE', ( #53 ), #116, .T. ) ;
#47 = DIRECTION ( 'NONE',  ( 0.000000000000000000, 0.000000000000000000, -1.000000000000000000 ) ) ;
#48 = AXIS2_PLACEMENT_3D ( 'NONE', #57, #175, #332 ) ;
#49 = CIRCLE ( 'NONE', #88, 1.000000000000000000 ) ;
#50 =( NAMED_UNIT ( * ) SI_UNIT ( $, .STERADIAN. ) SOLID_ANGLE_UNIT ( ) );
#51 = FILL_AREA_STYLE ('',( #82 ) ) ;
#52 = SURFACE_STYLE_FILL_AREA ( #51 ) ;
#53 = FACE_OUTER_BOUND ( 'NONE', #134, .T. ) ;
#54 = PRESENTATION_LAYER_ASSIGNMENT (  '', '', ( #322 ) ) ;
#55 = AXIS2_PLACEMENT_3D ( 'NONE', #255, #29, #154 ) ;
#56 = ADVANCED_FACE ( 'NONE', ( #18 ), #139, .T. ) ;
#57 = CARTESIAN_POINT ( 'NONE',  ( 0.000000000000000000, 30.00000000000000000, 0.000000000000000000 ) ) ;
#58 =( LENGTH_UNIT ( ) NAMED_UNIT ( * ) SI_UNIT ( .MILLI., .METRE. ) );
#59 = CARTESIAN_POINT ( 'NONE',  ( 0.000000000000000000, 0.000000000000000000, 0.000000000000000000 ) ) ;
#60 = SURFACE_STYLE_USAGE ( .BOTH. , #315 ) ;
#61 = AXIS2_PLACEMENT_3D ( 'NONE', #76, #98, #47 ) ;
#62 = CLOSED_SHELL ( 'NONE', ( #149, #318, #144, #323, #56, #46 ) ) ;
#63 =( NAMED_UNIT ( * ) PLANE_ANGLE_UNIT ( ) SI_UNIT ( $, .RADIAN. ) );
#64 = EDGE_CURVE ( 'NONE', #125, #81, #201, .T. ) ;
#65 =( LENGTH_UNIT ( ) NAMED_UNIT ( * ) SI_UNIT ( .MILLI., .METRE. ) );
#66 = AXIS2_PLACEMENT_3D ( 'NONE', #83, #95, #261 ) ;
#67 = ORIENTED_EDGE ( 'NONE', *, *, #278, .F. ) ;
#68 = CARTESIAN_POINT ( 'NONE',  ( 7.347880794884119736E-16, 30.00000000000000000, 6.000000000000000000 ) ) ;
#69 = DIRECTION ( 'NONE',  ( -0.000000000000000000, -1.000000000000000000, -0.000000000000000000 ) ) ;
#70 = LINE ( 'NONE', #270, #145 ) ;
#71 = DIRECTION ( 'NONE',  ( -0.000000000000000000, -1.000000000000000000, -0.000000000000000000 ) ) ;
#72 = ORIENTED_EDGE ( 'NONE', *, *, #84, .T. ) ;
#73 = CIRCLE ( 'NONE', #229, 5.999999999999993783 ) ;
#74 = FACE_OUTER_BOUND ( 'NONE', #217, .T. ) ;
#75 = ORIENTED_EDGE ( 'NONE', *, *, #336, .F. ) ;
#76 = CARTESIAN_POINT ( 'NONE',  ( 0.000000000000000000, 1.000000000000000000, 0.000000000000000000 ) ) ;
#77 = DIRECTION ( 'NONE',  ( -1.224646799147352468E-16, 0.000000000000000000, -1.000000000000000000 ) ) ;
#78 = SURFACE_SIDE_STYLE ('',( #15 ) ) ;
#79 = MECHANICAL_DESIGN_GEOMETRIC_PRESENTATION_REPRESENTATION (  '', ( #27 ), #122 ) ;
#80 = AXIS2_PLACEMENT_3D ( 'NONE', #131, #101, #273 ) ;
#81 = VERTEX_POINT ( 'NONE', #130 ) ;
#82 = FILL_AREA_STYLE_COLOUR ( '', #235 ) ;
#83 = CARTESIAN_POINT ( 'NONE',  ( 0.000000000000000000, 0.000000000000000000, 0.000000000000000000 ) ) ;
#84 = EDGE_CURVE ( 'NONE', #125, #366, #9, .T. ) ;
#85 = APPLICATION_PROTOCOL_DEFINITION ( 'draft international standard', 'automotive_design', 1998, #349 ) ;
#86 = ORIENTED_EDGE ( 'NONE', *, *, #158, .F. ) ;
#87 = DIRECTION ( 'NONE',  ( 1.560495851798313744E-17, 1.000000000000000000, -0.000000000000000000 ) ) ;
#88 = AXIS2_PLACEMENT_3D ( 'NONE', #106, #268, #245 ) ;
#89 =( LENGTH_UNIT ( ) NAMED_UNIT ( * ) SI_UNIT ( .MILLI., .METRE. ) );
#90 = DIRECTION ( 'NONE',  ( -0.000000000000000000, -1.000000000000000000, -0.000000000000000000 ) ) ;
#91 = PRODUCT_DEFINITION_SHAPE ( 'NONE', 'NONE',  #159 ) ;
#92 = CARTESIAN_POINT ( 'NONE',  ( 0.000000000000000000, 30.00000000000000000, 0.000000000000000000 ) ) ;
#93 = COLOUR_RGB ( '',1.000000000000000000, 0.000000000000000000, 0.000000000000000000 ) ;
#94 = AXIS2_PLACEMENT_3D ( 'NONE', #203, #305, #262 ) ;
#95 = DIRECTION ( 'NONE',  ( 0.000000000000000000, -1.000000000000000000, -0.000000000000000000 ) ) ;
#96 =( GEOMETRIC_REPRESENTATION_CONTEXT ( 3 ) GLOBAL_UNCERTAINTY_ASSIGNED_CONTEXT ( ( #359 ) ) GLOBAL_UNIT_ASSIGNED_CONTEXT ( ( #65, #63, #215 ) ) REPRESENTATION_CONTEXT ( 'NONE', 'WORKASPACE' ) );
#97 = EDGE_CURVE ( 'NONE', #195, #330, #165, .T. ) ;
#98 = DIRECTION ( 'NONE',  ( -0.000000000000000000, -1.000000000000000000, -0.000000000000000000 ) ) ;
#99 =( NAMED_UNIT ( * ) SI_UNIT ( $, .STERADIAN. ) SOLID_ANGLE_UNIT ( ) );
#100 = DIRECTION ( 'NONE',  ( -0.000000000000000000, -1.000000000000000000, -0.000000000000000000 ) ) ;
#101 = DIRECTION ( 'NONE',  ( -0.000000000000000000, -1.000000000000000000, -0.000000000000000000 ) ) ;
#102 = CARTESIAN_POINT ( 'NONE',  ( 0.000000000000000000, 0.000000000000000000, -5.000000000000000000 ) ) ;
#103 = ADVANCED_FACE ( 'NONE', ( #74 ), #346, .F. ) ;
#104 = PRESENTATION_LAYER_ASSIGNMENT (  '', '', ( #220 ) ) ;
#105 = EDGE_LOOP ( 'NONE', ( #176, #254, #186, #86 ) ) ;
#106 = CARTESIAN_POINT ( 'NONE',  ( 0.000000000000000000, 1.000000000000000000, -5.000000000000000000 ) ) ;
#107 = SURFACE_STYLE_FILL_AREA ( #252 ) ;
#108 = ORIENTED_EDGE ( 'NONE', *, *, #84, .F. ) ;
#109 = FILL_AREA_STYLE_COLOUR ( '', #173 ) ;
#110 = ORIENTED_EDGE ( 'NONE', *, *, #209, .F. ) ;
#111 = VECTOR ( 'NONE', #37, 1000.000000000000000 ) ;
#112 =( LENGTH_UNIT ( ) NAMED_UNIT ( * ) SI_UNIT ( .MILLI., .METRE. ) );
#113 = VERTEX_POINT ( 'NONE', #126 ) ;
#114 = DIRECTION ( 'NONE',  ( 1.000000000000000000, 0.000000000000000000, 0.000000000000000000 ) ) ;
#115 = ORIENTED_EDGE ( 'NONE', *, *, #64, .F. ) ;
#116 = PLANE ( 'NONE',  #48 ) ;
#117 = EDGE_CURVE ( 'NONE', #198, #330, #38, .T. ) ;
#118 = CARTESIAN_POINT ( 'NONE',  ( 5.421010862427522170E-15, 30.00000000000000000, 0.000000000000000000 ) ) ;
#119 = PRESENTATION_LAYER_ASSIGNMENT (  '', '', ( #306 ) ) ;
#120 = SURFACE_SIDE_STYLE ('',( #204 ) ) ;
#121 = CYLINDRICAL_SURFACE ( 'NONE', #283, 6.000000000000000000 ) ;
#122 =( GEOMETRIC_REPRESENTATION_CONTEXT ( 3 ) GLOBAL_UNCERTAINTY_ASSIGNED_CONTEXT ( ( #179 ) ) GLOBAL_UNIT_ASSIGNED_CONTEXT ( ( #89, #23, #140 ) ) REPRESENTATION_CONTEXT ( 'NONE', 'WORKASPACE' ) );
#123 = DIRECTION ( 'NONE',  ( 0.000000000000000000, 0.000000000000000000, -1.000000000000000000 ) ) ;
#124 = FILL_AREA_STYLE ('',( #302 ) ) ;
#125 = VERTEX_POINT ( 'NONE', #299 ) ;
#126 = CARTESIAN_POINT ( 'NONE',  ( 0.000000000000000000, 30.00000000000000000, -6.000000000000000000 ) ) ;
#127 = MECHANICAL_DESIGN_GEOMETRIC_PRESENTATION_REPRESENTATION (  '', ( #306 ), #333 ) ;
#128 = PRESENTATION_LAYER_ASSIGNMENT (  '', '', ( #286 ) ) ;
#129 = DIRECTION ( 'NONE',  ( 0.000000000000000000, 0.000000000000000000, -1.000000000000000000 ) ) ;
#130 = CARTESIAN_POINT ( 'NONE',  ( 6.000000000000000000, 30.00000000000000000, 7.347880794884112834E-16 ) ) ;
#131 = CARTESIAN_POINT ( 'NONE',  ( 0.000000000000000000, 1.000000000000000000, 0.000000000000000000 ) ) ;
#132 = VERTEX_POINT ( 'NONE', #14 ) ;
#133 = DIRECTION ( 'NONE',  ( 1.560495851798313744E-17, 1.000000000000000000, -0.000000000000000000 ) ) ;
#134 = EDGE_LOOP ( 'NONE', ( #331, #356 ) ) ;
#135 = EDGE_CURVE ( 'NONE', #132, #195, #137, .T. ) ;
#136 = FACE_OUTER_BOUND ( 'NONE', #10, .T. ) ;
#137 = CIRCLE ( 'NONE', #239, 6.000000000000000000 ) ;
#138 = PRODUCT_DEFINITION_FORMATION_WITH_SPECIFIED_SOURCE ( 'ANY', '', #147, .NOT_KNOWN. ) ;
#139 = CYLINDRICAL_SURFACE ( 'NONE', #232, 6.000000000000000000 ) ;
#140 =( NAMED_UNIT ( * ) SI_UNIT ( $, .STERADIAN. ) SOLID_ANGLE_UNIT ( ) );
#141 = DIRECTION ( 'NONE',  ( 0.000000000000000000, 0.000000000000000000, 1.000000000000000000 ) ) ;
#142 = SURFACE_STYLE_USAGE ( .BOTH. , #78 ) ;
#143 = ORIENTED_EDGE ( 'NONE', *, *, #158, .T. ) ;
#144 = ADVANCED_FACE ( 'NONE', ( #355 ), #223, .T. ) ;
#145 = VECTOR ( 'NONE', #188, 1000.000000000000000 ) ;
#146 = PRESENTATION_STYLE_ASSIGNMENT (( #281 ) ) ;
#147 = PRODUCT ( '59675', '59675', '', ( #335 ) ) ;
#148 = SURFACE_SIDE_STYLE ('',( #52 ) ) ;
#149 = ADVANCED_FACE ( 'NONE', ( #1 ), #121, .T. ) ;
#150 =( NAMED_UNIT ( * ) SI_UNIT ( $, .STERADIAN. ) SOLID_ANGLE_UNIT ( ) );
#151 = FILL_AREA_STYLE ('',( #26 ) ) ;
#152 = MECHANICAL_DESIGN_GEOMETRIC_PRESENTATION_REPRESENTATION (  '', ( #16 ), #191 ) ;
#153 = DIRECTION ( 'NONE',  ( -0.000000000000000000, -1.000000000000000000, -0.000000000000000000 ) ) ;
#154 = DIRECTION ( 'NONE',  ( -1.000000000000000000, 0.000000000000000000, 0.000000000000000000 ) ) ;
#155 = AXIS2_PLACEMENT_3D ( 'NONE', #118, #12, #189 ) ;
#156 =( GEOMETRIC_REPRESENTATION_CONTEXT ( 3 ) GLOBAL_UNCERTAINTY_ASSIGNED_CONTEXT ( ( #226 ) ) GLOBAL_UNIT_ASSIGNED_CONTEXT ( ( #219, #222, #230 ) ) REPRESENTATION_CONTEXT ( 'NONE', 'WORKASPACE' ) );
#157 = SURFACE_STYLE_USAGE ( .BOTH. , #31 ) ;
#158 = EDGE_CURVE ( 'NONE', #195, #132, #343, .T. ) ;
#159 = PRODUCT_DEFINITION ( 'UNKNOWN', '', #138, #45 ) ;
#160 = CYLINDRICAL_SURFACE ( 'NONE', #214, 5.999999999999994671 ) ;
#161 = ORIENTED_EDGE ( 'NONE', *, *, #279, .F. ) ;
#162 = UNCERTAINTY_MEASURE_WITH_UNIT (LENGTH_MEASURE( 1.000000000000000082E-05 ), #301, 'distance_accuracy_value', 'NONE');
#163 = UNCERTAINTY_MEASURE_WITH_UNIT (LENGTH_MEASURE( 1.000000000000000082E-05 ), #112, 'distance_accuracy_value', 'NONE');
#164 = ORIENTED_EDGE ( 'NONE', *, *, #308, .T. ) ;
#165 = CIRCLE ( 'NONE', #354, 1.000000000000000000 ) ;
#166 = AXIS2_PLACEMENT_3D ( 'NONE', #92, #153, #210 ) ;
#167 = DIRECTION ( 'NONE',  ( -0.000000000000000000, -1.000000000000000000, -0.000000000000000000 ) ) ;
#168 = ORIENTED_EDGE ( 'NONE', *, *, #342, .T. ) ;
#169 = PRESENTATION_STYLE_ASSIGNMENT (( #353 ) ) ;
#170 = CIRCLE ( 'NONE', #55, 5.999999999999994671 ) ;
#171 =( LENGTH_UNIT ( ) NAMED_UNIT ( * ) SI_UNIT ( .MILLI., .METRE. ) );
#172 = DIRECTION ( 'NONE',  ( -1.000000000000000000, 0.000000000000000000, 0.000000000000000000 ) ) ;
#173 = COLOUR_RGB ( '',1.000000000000000000, 0.000000000000000000, 0.000000000000000000 ) ;
#174 =( NAMED_UNIT ( * ) PLANE_ANGLE_UNIT ( ) SI_UNIT ( $, .RADIAN. ) );
#175 = DIRECTION ( 'NONE',  ( 0.000000000000000000, 1.000000000000000000, 0.000000000000000000 ) ) ;
#176 = ORIENTED_EDGE ( 'NONE', *, *, #342, .F. ) ;
#177 = ORIENTED_EDGE ( 'NONE', *, *, #97, .F. ) ;
#178 = FILL_AREA_STYLE ('',( #263 ) ) ;
#179 = UNCERTAINTY_MEASURE_WITH_UNIT (LENGTH_MEASURE( 1.000000000000000082E-05 ), #89, 'distance_accuracy_value', 'NONE');
#180 = CARTESIAN_POINT ( 'NONE',  ( 0.000000000000000000, 1.000000000000000000, 0.000000000000000000 ) ) ;
#181 = MECHANICAL_DESIGN_GEOMETRIC_PRESENTATION_REPRESENTATION (  '', ( #274 ), #339 ) ;
#182 = LINE ( 'NONE', #292, #347 ) ;
#183 = ORIENTED_EDGE ( 'NONE', *, *, #64, .T. ) ;
#184 = FACE_OUTER_BOUND ( 'NONE', #300, .T. ) ;
#185 = PRESENTATION_STYLE_ASSIGNMENT (( #348 ) ) ;
#186 = ORIENTED_EDGE ( 'NONE', *, *, #279, .T. ) ;
#187 = EDGE_CURVE ( 'NONE', #113, #272, #317, .T. ) ;
#188 = DIRECTION ( 'NONE',  ( -0.000000000000000000, -1.000000000000000000, -0.000000000000000000 ) ) ;
#189 = DIRECTION ( 'NONE',  ( -1.000000000000000000, 0.000000000000000000, 0.000000000000000000 ) ) ;
#190 = ORIENTED_EDGE ( 'NONE', *, *, #97, .T. ) ;
#191 =( GEOMETRIC_REPRESENTATION_CONTEXT ( 3 ) GLOBAL_UNCERTAINTY_ASSIGNED_CONTEXT ( ( #163 ) ) GLOBAL_UNIT_ASSIGNED_CONTEXT ( ( #112, #337, #362 ) ) REPRESENTATION_CONTEXT ( 'NONE', 'WORKASPACE' ) );
#192 = AXIS2_PLACEMENT_3D ( 'NONE', #213, #293, #324 ) ;
#193 = LINE ( 'NONE', #328, #111 ) ;
#194 = CLOSED_SHELL ( 'NONE', ( #212, #103, #34, #280 ) ) ;
#195 = VERTEX_POINT ( 'NONE', #345 ) ;
#196 = FILL_AREA_STYLE_COLOUR ( '', #260 ) ;
#197 = DIRECTION ( 'NONE',  ( 0.000000000000000000, 0.000000000000000000, -1.000000000000000000 ) ) ;
#198 = VERTEX_POINT ( 'NONE', #102 ) ;
#199 = SURFACE_SIDE_STYLE ('',( #241 ) ) ;
#200 = SURFACE_STYLE_USAGE ( .BOTH. , #227 ) ;
#201 = CIRCLE ( 'NONE', #155, 5.999999999999994671 ) ;
#202 = AXIS2_PLACEMENT_3D ( 'NONE', #35, #234, #340 ) ;
#203 = CARTESIAN_POINT ( 'NONE',  ( 6.123233995736762930E-15, 75.00000000000000000, 0.000000000000000000 ) ) ;
#204 = SURFACE_STYLE_FILL_AREA ( #151 ) ;
#205 = AXIS2_PLACEMENT_3D ( 'NONE', #247, #133, #244 ) ;
#206 = MECHANICAL_DESIGN_GEOMETRIC_PRESENTATION_REPRESENTATION (  '', ( #307 ), #211 ) ;
#207 = PRESENTATION_STYLE_ASSIGNMENT (( #258 ) ) ;
#208 = FACE_OUTER_BOUND ( 'NONE', #298, .T. ) ;
#209 = EDGE_CURVE ( 'NONE', #330, #198, #275, .T. ) ;
#210 = DIRECTION ( 'NONE',  ( 0.000000000000000000, 0.000000000000000000, -1.000000000000000000 ) ) ;
#211 =( GEOMETRIC_REPRESENTATION_CONTEXT ( 3 ) GLOBAL_UNCERTAINTY_ASSIGNED_CONTEXT ( ( #216 ) ) GLOBAL_UNIT_ASSIGNED_CONTEXT ( ( #171, #276, #218 ) ) REPRESENTATION_CONTEXT ( 'NONE', 'WORKASPACE' ) );
#212 = ADVANCED_FACE ( 'NONE', ( #33 ), #160, .T. ) ;
#213 = CARTESIAN_POINT ( 'NONE',  ( 0.000000000000000000, 0.000000000000000000, 0.000000000000000000 ) ) ;
#214 = AXIS2_PLACEMENT_3D ( 'NONE', #265, #8, #238 ) ;
#215 =( NAMED_UNIT ( * ) SI_UNIT ( $, .STERADIAN. ) SOLID_ANGLE_UNIT ( ) );
#216 = UNCERTAINTY_MEASURE_WITH_UNIT (LENGTH_MEASURE( 1.000000000000000082E-05 ), #171, 'distance_accuracy_value', 'NONE');
#217 = EDGE_LOOP ( 'NONE', ( #115, #67 ) ) ;
#218 =( NAMED_UNIT ( * ) SI_UNIT ( $, .STERADIAN. ) SOLID_ANGLE_UNIT ( ) );
#219 =( LENGTH_UNIT ( ) NAMED_UNIT ( * ) SI_UNIT ( .MILLI., .METRE. ) );
#220 = STYLED_ITEM ( 'NONE', ( #319 ), #257 ) ;
#221 = TOROIDAL_SURFACE ( 'NONE', #61, 5.000000000000000000, 0.9999999999999995559 ) ;
#222 =( NAMED_UNIT ( * ) PLANE_ANGLE_UNIT ( ) SI_UNIT ( $, .RADIAN. ) );
#223 = PLANE ( 'NONE',  #66 ) ;
#224 = ORIENTED_EDGE ( 'NONE', *, *, #117, .T. ) ;
#225 = FACE_OUTER_BOUND ( 'NONE', #352, .T. ) ;
#226 = UNCERTAINTY_MEASURE_WITH_UNIT (LENGTH_MEASURE( 1.000000000000000082E-05 ), #219, 'distance_accuracy_value', 'NONE');
#227 = SURFACE_SIDE_STYLE ('',( #107 ) ) ;
#228 = ORIENTED_EDGE ( 'NONE', *, *, #311, .F. ) ;
#229 = AXIS2_PLACEMENT_3D ( 'NONE', #28, #4, #44 ) ;
#230 =( NAMED_UNIT ( * ) SI_UNIT ( $, .STERADIAN. ) SOLID_ANGLE_UNIT ( ) );
#231 =( LENGTH_UNIT ( ) NAMED_UNIT ( * ) SI_UNIT ( .MILLI., .METRE. ) );
#232 = AXIS2_PLACEMENT_3D ( 'NONE', #59, #90, #367 ) ;
#233 = COLOUR_RGB ( '',0.7921568627450980005, 0.8196078431372548767, 0.9333333333333333481 ) ;
#234 = DIRECTION ( 'NONE',  ( -1.560495851798313744E-17, -1.000000000000000000, 0.000000000000000000 ) ) ;
#235 = COLOUR_RGB ( '',1.000000000000000000, 0.000000000000000000, 0.000000000000000000 ) ;
#236 = CIRCLE ( 'NONE', #94, 5.999999999999993783 ) ;
#237 = DIRECTION ( 'NONE',  ( -0.000000000000000000, -1.000000000000000000, -0.000000000000000000 ) ) ;
#238 = DIRECTION ( 'NONE',  ( -1.000000000000000000, 0.000000000000000000, 0.000000000000000000 ) ) ;
#239 = AXIS2_PLACEMENT_3D ( 'NONE', #249, #100, #197 ) ;
#240 = SURFACE_SIDE_STYLE ('',( #325 ) ) ;
#241 = SURFACE_STYLE_FILL_AREA ( #304 ) ;
#242 = EDGE_CURVE ( 'NONE', #2, #366, #236, .T. ) ;
#243 = UNCERTAINTY_MEASURE_WITH_UNIT (LENGTH_MEASURE( 1.000000000000000082E-05 ), #231, 'distance_accuracy_value', 'NONE');
#244 = DIRECTION ( 'NONE',  ( -1.000000000000000000, 1.560495851798313744E-17, 0.000000000000000000 ) ) ;
#245 = DIRECTION ( 'NONE',  ( 0.000000000000000000, 0.000000000000000000, 1.000000000000000000 ) ) ;
#246 = DIRECTION ( 'NONE',  ( -0.000000000000000000, -1.000000000000000000, -0.000000000000000000 ) ) ;
#247 = CARTESIAN_POINT ( 'NONE',  ( 5.421010862427522170E-15, 30.00000000000000000, 0.000000000000000000 ) ) ;
#248 = ORIENTED_EDGE ( 'NONE', *, *, #311, .T. ) ;
#249 = CARTESIAN_POINT ( 'NONE',  ( 0.000000000000000000, 1.000000000000000000, 0.000000000000000000 ) ) ;
#250 = ORIENTED_EDGE ( 'NONE', *, *, #308, .F. ) ;
#251 = MECHANICAL_DESIGN_GEOMETRIC_PRESENTATION_REPRESENTATION (  '', ( #220 ), #96 ) ;
#252 = FILL_AREA_STYLE ('',( #21 ) ) ;
#253 = PRESENTATION_STYLE_ASSIGNMENT (( #142 ) ) ;
#254 = ORIENTED_EDGE ( 'NONE', *, *, #289, .T. ) ;
#255 = CARTESIAN_POINT ( 'NONE',  ( 5.421010862427522170E-15, 30.00000000000000000, 0.000000000000000000 ) ) ;
#256 =( NAMED_UNIT ( * ) PLANE_ANGLE_UNIT ( ) SI_UNIT ( $, .RADIAN. ) );
#257 = MANIFOLD_SOLID_BREP ( 'Revolve - Tool Body (Straight Shanked)', #194 ) ;
#258 = SURFACE_STYLE_USAGE ( .BOTH. , #148 ) ;
#259 = CARTESIAN_POINT ( 'NONE',  ( 0.000000000000000000, 0.000000000000000000, 0.000000000000000000 ) ) ;
#260 = COLOUR_RGB ( '',1.000000000000000000, 0.000000000000000000, 0.000000000000000000 ) ;
#261 = DIRECTION ( 'NONE',  ( 0.000000000000000000, 0.000000000000000000, -1.000000000000000000 ) ) ;
#262 = DIRECTION ( 'NONE',  ( -1.000000000000000000, 0.000000000000000000, 0.000000000000000000 ) ) ;
#263 = FILL_AREA_STYLE_COLOUR ( '', #329 ) ;
#264 = SURFACE_STYLE_FILL_AREA ( #287 ) ;
#265 = CARTESIAN_POINT ( 'NONE',  ( 6.123233995736762930E-15, 75.00000000000000000, 0.000000000000000000 ) ) ;
#266 = PRESENTATION_LAYER_ASSIGNMENT (  '', '', ( #307 ) ) ;
#267 = EDGE_LOOP ( 'NONE', ( #24, #168, #36, #161 ) ) ;
#268 = DIRECTION ( 'NONE',  ( -1.000000000000000000, 0.000000000000000000, 0.000000000000000000 ) ) ;
#269 = CARTESIAN_POINT ( 'NONE',  ( 6.123233995736766282E-16, 1.000000000000000000, 5.000000000000000000 ) ) ;
#270 = CARTESIAN_POINT ( 'NONE',  ( 7.347880794884119736E-16, 0.000000000000000000, 6.000000000000000000 ) ) ;
#271 = CARTESIAN_POINT ( 'NONE',  ( 0.000000000000000000, 0.000000000000000000, 0.000000000000000000 ) ) ;
#272 = VERTEX_POINT ( 'NONE', #68 ) ;
#273 = DIRECTION ( 'NONE',  ( 0.000000000000000000, 0.000000000000000000, -1.000000000000000000 ) ) ;
#274 = STYLED_ITEM ( 'NONE', ( #285 ), #149 ) ;
#275 = CIRCLE ( 'NONE', #192, 5.000000000000000000 ) ;
#276 =( NAMED_UNIT ( * ) PLANE_ANGLE_UNIT ( ) SI_UNIT ( $, .RADIAN. ) );
#277 = PRESENTATION_STYLE_ASSIGNMENT (( #200 ) ) ;
#278 = EDGE_CURVE ( 'NONE', #81, #125, #170, .T. ) ;
#279 = EDGE_CURVE ( 'NONE', #113, #132, #182, .T. ) ;
#280 = ADVANCED_FACE ( 'NONE', ( #184 ), #295, .F. ) ;
#281 = SURFACE_STYLE_USAGE ( .BOTH. , #120 ) ;
#282 = AXIS2_PLACEMENT_3D ( 'NONE', #271, #69, #351 ) ;
#283 = AXIS2_PLACEMENT_3D ( 'NONE', #41, #71, #129 ) ;
#284 =( NAMED_UNIT ( * ) SI_UNIT ( $, .STERADIAN. ) SOLID_ANGLE_UNIT ( ) );
#285 = PRESENTATION_STYLE_ASSIGNMENT (( #60 ) ) ;
#286 = STYLED_ITEM ( 'NONE', ( #253 ), #323 ) ;
#287 = FILL_AREA_STYLE ('',( #321 ) ) ;
#288 = PRESENTATION_LAYER_ASSIGNMENT (  '', '', ( #16 ) ) ;
#289 = EDGE_CURVE ( 'NONE', #272, #113, #369, .T. ) ;
#290 = AXIS2_PLACEMENT_3D ( 'NONE', #259, #141, #114 ) ;
#291 = DIRECTION ( 'NONE',  ( 0.000000000000000000, 0.000000000000000000, -1.000000000000000000 ) ) ;
#292 = CARTESIAN_POINT ( 'NONE',  ( 0.000000000000000000, 0.000000000000000000, -6.000000000000000000 ) ) ;
#293 = DIRECTION ( 'NONE',  ( -0.000000000000000000, -1.000000000000000000, -0.000000000000000000 ) ) ;
#294 = ORIENTED_EDGE ( 'NONE', *, *, #242, .F. ) ;
#295 = PLANE ( 'NONE',  #202 ) ;
#296 = ORIENTED_EDGE ( 'NONE', *, *, #135, .T. ) ;
#297 = PRESENTATION_LAYER_ASSIGNMENT (  '', '', ( #27 ) ) ;
#298 = EDGE_LOOP ( 'NONE', ( #75, #314, #72, #294 ) ) ;
#299 = CARTESIAN_POINT ( 'NONE',  ( -5.999999999999989342, 30.00000000000000000, 0.000000000000000000 ) ) ;
#300 = EDGE_LOOP ( 'NONE', ( #164, #40 ) ) ;
#301 =( LENGTH_UNIT ( ) NAMED_UNIT ( * ) SI_UNIT ( .MILLI., .METRE. ) );
#302 = FILL_AREA_STYLE_COLOUR ( '', #93 ) ;
#303 = ORIENTED_EDGE ( 'NONE', *, *, #117, .F. ) ;
#304 = FILL_AREA_STYLE ('',( #196 ) ) ;
#305 = DIRECTION ( 'NONE',  ( 1.560495851798313744E-17, 1.000000000000000000, -0.000000000000000000 ) ) ;
#306 = STYLED_ITEM ( 'NONE', ( #207 ), #46 ) ;
#307 = STYLED_ITEM ( 'NONE', ( #169 ), #318 ) ;
#308 = EDGE_CURVE ( 'NONE', #366, #2, #73, .T. ) ;
#309 = SHAPE_DEFINITION_REPRESENTATION ( #91, #338 ) ;
#310 = APPLICATION_PROTOCOL_DEFINITION ( 'draft international standard', 'automotive_design', 1998, #344 ) ;
#311 = EDGE_CURVE ( 'NONE', #132, #198, #49, .T. ) ;
#312 = COLOUR_RGB ( '',0.7921568627450980005, 0.8196078431372548767, 0.9333333333333333481 ) ;
#313 = CYLINDRICAL_SURFACE ( 'NONE', #370, 5.999999999999994671 ) ;
#314 = ORIENTED_EDGE ( 'NONE', *, *, #278, .T. ) ;
#315 = SURFACE_SIDE_STYLE ('',( #3 ) ) ;
#316 = VECTOR ( 'NONE', #350, 1000.000000000000000 ) ;
#317 = CIRCLE ( 'NONE', #364, 6.000000000000000000 ) ;
#318 = ADVANCED_FACE ( 'NONE', ( #225 ), #39, .T. ) ;
#319 = PRESENTATION_STYLE_ASSIGNMENT (( #157 ) ) ;
#320 = UNCERTAINTY_MEASURE_WITH_UNIT (LENGTH_MEASURE( 1.000000000000000082E-05 ), #361, 'distance_accuracy_value', 'NONE');
#321 = FILL_AREA_STYLE_COLOUR ( '', #233 ) ;
#322 = STYLED_ITEM ( 'NONE', ( #277 ), #56 ) ;
#323 = ADVANCED_FACE ( 'NONE', ( #136 ), #221, .T. ) ;
#324 = DIRECTION ( 'NONE',  ( 0.000000000000000000, 0.000000000000000000, -1.000000000000000000 ) ) ;
#325 = SURFACE_STYLE_FILL_AREA ( #124 ) ;
#326 = CARTESIAN_POINT ( 'NONE',  ( -5.999999999999988454, 75.00000000000000000, 0.000000000000000000 ) ) ;
#327 = CARTESIAN_POINT ( 'NONE',  ( 6.735557395310443009E-16, 0.000000000000000000, 5.000000000000000000 ) ) ;
#328 = CARTESIAN_POINT ( 'NONE',  ( 6.000000000000000888, 75.00000000000000000, 7.347880794884112834E-16 ) ) ;
#329 = COLOUR_RGB ( '',1.000000000000000000, 0.000000000000000000, 0.000000000000000000 ) ;
#330 = VERTEX_POINT ( 'NONE', #327 ) ;
#331 = ORIENTED_EDGE ( 'NONE', *, *, #187, .F. ) ;
#332 = DIRECTION ( 'NONE',  ( 0.000000000000000000, -0.000000000000000000, 1.000000000000000000 ) ) ;
#333 =( GEOMETRIC_REPRESENTATION_CONTEXT ( 3 ) GLOBAL_UNCERTAINTY_ASSIGNED_CONTEXT ( ( #243 ) ) GLOBAL_UNIT_ASSIGNED_CONTEXT ( ( #231, #174, #284 ) ) REPRESENTATION_CONTEXT ( 'NONE', 'WORKASPACE' ) );
#334 = EDGE_LOOP ( 'NONE', ( #183, #5, #250, #108 ) ) ;
#335 = PRODUCT_CONTEXT ( 'NONE', #344, 'mechanical' ) ;
#336 = EDGE_CURVE ( 'NONE', #81, #2, #193, .T. ) ;
#337 =( NAMED_UNIT ( * ) PLANE_ANGLE_UNIT ( ) SI_UNIT ( $, .RADIAN. ) );
#338 = ADVANCED_BREP_SHAPE_REPRESENTATION ( '59675', ( #7, #257, #290 ), #156 ) ;
#339 =( GEOMETRIC_REPRESENTATION_CONTEXT ( 3 ) GLOBAL_UNCERTAINTY_ASSIGNED_CONTEXT ( ( #341 ) ) GLOBAL_UNIT_ASSIGNED_CONTEXT ( ( #58, #25, #99 ) ) REPRESENTATION_CONTEXT ( 'NONE', 'WORKASPACE' ) );
#340 = DIRECTION ( 'NONE',  ( 1.000000000000000000, -1.560495851798313744E-17, 0.000000000000000000 ) ) ;
#341 = UNCERTAINTY_MEASURE_WITH_UNIT (LENGTH_MEASURE( 1.000000000000000082E-05 ), #58, 'distance_accuracy_value', 'NONE');
#342 = EDGE_CURVE ( 'NONE', #272, #195, #70, .T. ) ;
#343 = CIRCLE ( 'NONE', #17, 6.000000000000000000 ) ;
#344 = APPLICATION_CONTEXT ( 'automotive_design' ) ;
#345 = CARTESIAN_POINT ( 'NONE',  ( 7.347880794884118750E-16, 1.000000000000000000, 6.000000000000000000 ) ) ;
#346 = PLANE ( 'NONE',  #205 ) ;
#347 = VECTOR ( 'NONE', #237, 1000.000000000000000 ) ;
#348 = SURFACE_STYLE_USAGE ( .BOTH. , #240 ) ;
#349 = APPLICATION_CONTEXT ( 'automotive_design' ) ;
#350 = DIRECTION ( 'NONE',  ( 1.560495851798313744E-17, 1.000000000000000000, -0.000000000000000000 ) ) ;
#351 = DIRECTION ( 'NONE',  ( 0.000000000000000000, 0.000000000000000000, -1.000000000000000000 ) ) ;
#352 = EDGE_LOOP ( 'NONE', ( #296, #190, #303, #228 ) ) ;
#353 = SURFACE_STYLE_USAGE ( .BOTH. , #199 ) ;
#354 = AXIS2_PLACEMENT_3D ( 'NONE', #269, #42, #77 ) ;
#355 = FACE_OUTER_BOUND ( 'NONE', #19, .T. ) ;
#356 = ORIENTED_EDGE ( 'NONE', *, *, #289, .F. ) ;
#357 = CARTESIAN_POINT ( 'NONE',  ( -5.999999999999987566, 75.00000000000000000, 0.000000000000000000 ) ) ;
#358 = PRODUCT_RELATED_PRODUCT_CATEGORY ( 'part', '', ( #147 ) ) ;
#359 = UNCERTAINTY_MEASURE_WITH_UNIT (LENGTH_MEASURE( 1.000000000000000082E-05 ), #65, 'distance_accuracy_value', 'NONE');
#360 =( NAMED_UNIT ( * ) PLANE_ANGLE_UNIT ( ) SI_UNIT ( $, .RADIAN. ) );
#361 =( LENGTH_UNIT ( ) NAMED_UNIT ( * ) SI_UNIT ( .MILLI., .METRE. ) );
#362 =( NAMED_UNIT ( * ) SI_UNIT ( $, .STERADIAN. ) SOLID_ANGLE_UNIT ( ) );
#363 =( GEOMETRIC_REPRESENTATION_CONTEXT ( 3 ) GLOBAL_UNCERTAINTY_ASSIGNED_CONTEXT ( ( #320 ) ) GLOBAL_UNIT_ASSIGNED_CONTEXT ( ( #361, #256, #150 ) ) REPRESENTATION_CONTEXT ( 'NONE', 'WORKASPACE' ) );
#364 = AXIS2_PLACEMENT_3D ( 'NONE', #32, #246, #123 ) ;
#365 = CARTESIAN_POINT ( 'NONE',  ( 6.000000000000000000, 75.00000000000000000, 7.347880794884112834E-16 ) ) ;
#366 = VERTEX_POINT ( 'NONE', #357 ) ;
#367 = DIRECTION ( 'NONE',  ( 0.000000000000000000, 0.000000000000000000, -1.000000000000000000 ) ) ;
#368 = PRESENTATION_LAYER_ASSIGNMENT (  '', '', ( #274 ) ) ;
#369 = CIRCLE ( 'NONE', #166, 6.000000000000000000 ) ;
#370 = AXIS2_PLACEMENT_3D ( 'NONE', #13, #87, #172 ) ;
ENDSEC;
END-ISO-10303-21;
