ISO-10303-21;
HEADER;
FILE_DESCRIPTION (( 'STEP AP214' ),
    '1' );
FILE_NAME ('01752.STEP',
    '2023-06-22T14:47:07',
    ( '' ),
    ( '' ),
    'SwSTEP 2.0',
    'SolidWorks 2023',
    '' );
FILE_SCHEMA (( 'AUTOMOTIVE_DESIGN' ));
ENDSEC;

DATA;
#1 = COLOUR_RGB ( '',1.000000000000000000, 0.000000000000000000, 0.000000000000000000 ) ;
#2 = VERTEX_POINT ( 'NONE', #248 ) ;
#3 =( NAMED_UNIT ( * ) SI_UNIT ( $, .STERADIAN. ) SOLID_ANGLE_UNIT ( ) );
#4 = ADVANCED_BREP_SHAPE_REPRESENTATION ( '01752', ( #71, #279, #85 ), #109 ) ;
#5 = ORIENTED_EDGE ( 'NONE', *, *, #79, .F. ) ;
#6 = FILL_AREA_STYLE ('',( #173 ) ) ;
#7 = ORIENTED_EDGE ( 'NONE', *, *, #229, .T. ) ;
#8 = ORIENTED_EDGE ( 'NONE', *, *, #237, .T. ) ;
#9 = PLANE ( 'NONE',  #150 ) ;
#10 = CIRCLE ( 'NONE', #124, 0.5000000000000000000 ) ;
#11 = UNCERTAINTY_MEASURE_WITH_UNIT (LENGTH_MEASURE( 1.000000000000000082E-05 ), #64, 'distance_accuracy_value', 'NONE');
#12 = CARTESIAN_POINT ( 'NONE',  ( 0.000000000000000000, 0.000000000000000000, 0.000000000000000000 ) ) ;
#13 =( LENGTH_UNIT ( ) NAMED_UNIT ( * ) SI_UNIT ( $, .METRE. ) );
#14 = LINE ( 'NONE', #90, #134 ) ;
#15 = DIRECTION ( 'NONE',  ( -0.000000000000000000, -1.000000000000000000, -0.000000000000000000 ) ) ;
#16 = APPLICATION_CONTEXT ( 'automotive_design' ) ;
#17 =( LENGTH_UNIT ( ) NAMED_UNIT ( * ) SI_UNIT ( $, .METRE. ) );
#18 = MECHANICAL_DESIGN_GEOMETRIC_PRESENTATION_REPRESENTATION (  '', ( #122 ), #67 ) ;
#19 = PRESENTATION_STYLE_ASSIGNMENT (( #266 ) ) ;
#20 = LENGTH_MEASURE_WITH_UNIT ( LENGTH_MEASURE( 0.02539999999999999897 ), #288 );
#21 = PLANE ( 'NONE',  #274 ) ;
#22 = PRESENTATION_LAYER_ASSIGNMENT (  '', '', ( #122 ) ) ;
#23 = CIRCLE ( 'NONE', #98, 0.5000000000000000000 ) ;
#24 = CARTESIAN_POINT ( 'NONE',  ( 0.000000000000000000, 2.000000000000000000, 0.000000000000000000 ) ) ;
#25 = ORIENTED_EDGE ( 'NONE', *, *, #167, .T. ) ;
#26 =( NAMED_UNIT ( * ) PLANE_ANGLE_UNIT ( ) SI_UNIT ( $, .RADIAN. ) );
#27 = CIRCLE ( 'NONE', #216, 0.5000000000000000000 ) ;
#28 = DIRECTION ( 'NONE',  ( 0.000000000000000000, 0.000000000000000000, -1.000000000000000000 ) ) ;
#29 = FILL_AREA_STYLE_COLOUR ( '', #137 ) ;
#30 = CARTESIAN_POINT ( 'NONE',  ( -1.224646799147353207E-16, 5.000000000000000000, 0.000000000000000000 ) ) ;
#31 =( GEOMETRIC_REPRESENTATION_CONTEXT ( 3 ) GLOBAL_UNCERTAINTY_ASSIGNED_CONTEXT ( ( #255 ) ) GLOBAL_UNIT_ASSIGNED_CONTEXT ( ( #49, #26, #267 ) ) REPRESENTATION_CONTEXT ( 'NONE', 'WORKASPACE' ) );
#32 = ORIENTED_EDGE ( 'NONE', *, *, #140, .F. ) ;
#33 = DIRECTION ( 'NONE',  ( -0.000000000000000000, -1.000000000000000000, -0.000000000000000000 ) ) ;
#34 = PRODUCT_DEFINITION_CONTEXT ( 'detailed design', #48, 'design' ) ;
#35 = EDGE_CURVE ( 'NONE', #76, #203, #142, .T. ) ;
#36 = SURFACE_STYLE_USAGE ( .BOTH. , #283 ) ;
#37 = MECHANICAL_DESIGN_GEOMETRIC_PRESENTATION_REPRESENTATION (  '', ( #178 ), #84 ) ;
#38 = MECHANICAL_DESIGN_GEOMETRIC_PRESENTATION_REPRESENTATION (  '', ( #227 ), #297 ) ;
#39 = EDGE_CURVE ( 'NONE', #265, #245, #23, .T. ) ;
#40 = FACE_OUTER_BOUND ( 'NONE', #198, .T. ) ;
#41 = EDGE_CURVE ( 'NONE', #203, #76, #270, .T. ) ;
#42 = CYLINDRICAL_SURFACE ( 'NONE', #223, 0.5000000000000000000 ) ;
#43 = CARTESIAN_POINT ( 'NONE',  ( 6.123233995736766036E-17, 2.000000000000000000, 0.5000000000000000000 ) ) ;
#44 = DIRECTION ( 'NONE',  ( -4.082155997157843818E-17, 1.000000000000000000, -0.000000000000000000 ) ) ;
#45 = EDGE_LOOP ( 'NONE', ( #113, #58 ) ) ;
#46 = DIRECTION ( 'NONE',  ( -4.082155997157843818E-17, 1.000000000000000000, -0.000000000000000000 ) ) ;
#47 = DIRECTION ( 'NONE',  ( -4.082155997157843818E-17, 1.000000000000000000, -0.000000000000000000 ) ) ;
#48 = APPLICATION_CONTEXT ( 'automotive_design' ) ;
#49 =( CONVERSION_BASED_UNIT ( 'INCH', #221 ) LENGTH_UNIT ( ) NAMED_UNIT ( #180 ) );
#50 = PRODUCT_DEFINITION ( 'UNKNOWN', '', #252, #34 ) ;
#51 = VECTOR ( 'NONE', #44, 39.37007874015748143 ) ;
#52 =( LENGTH_UNIT ( ) NAMED_UNIT ( * ) SI_UNIT ( $, .METRE. ) );
#53 = AXIS2_PLACEMENT_3D ( 'NONE', #30, #87, #181 ) ;
#54 = CARTESIAN_POINT ( 'NONE',  ( 0.000000000000000000, 0.000000000000000000, 0.000000000000000000 ) ) ;
#55 = SURFACE_SIDE_STYLE ('',( #249 ) ) ;
#56 = ORIENTED_EDGE ( 'NONE', *, *, #39, .F. ) ;
#57 = FILL_AREA_STYLE_COLOUR ( '', #236 ) ;
#58 = ORIENTED_EDGE ( 'NONE', *, *, #35, .T. ) ;
#59 = CARTESIAN_POINT ( 'NONE',  ( 0.000000000000000000, 2.000000000000000000, 0.000000000000000000 ) ) ;
#60 = VECTOR ( 'NONE', #188, 39.37007874015748143 ) ;
#61 = FACE_OUTER_BOUND ( 'NONE', #123, .T. ) ;
#62 = DIRECTION ( 'NONE',  ( 0.000000000000000000, 0.000000000000000000, -1.000000000000000000 ) ) ;
#63 = UNCERTAINTY_MEASURE_WITH_UNIT (LENGTH_MEASURE( 1.000000000000000082E-05 ), #131, 'distance_accuracy_value', 'NONE');
#64 =( CONVERSION_BASED_UNIT ( 'INCH', #225 ) LENGTH_UNIT ( ) NAMED_UNIT ( #125 ) );
#65 = SURFACE_STYLE_USAGE ( .BOTH. , #185 ) ;
#66 = COLOUR_RGB ( '',0.7921568627450980005, 0.8196078431372548767, 0.9333333333333333481 ) ;
#67 =( GEOMETRIC_REPRESENTATION_CONTEXT ( 3 ) GLOBAL_UNCERTAINTY_ASSIGNED_CONTEXT ( ( #226 ) ) GLOBAL_UNIT_ASSIGNED_CONTEXT ( ( #128, #176, #3 ) ) REPRESENTATION_CONTEXT ( 'NONE', 'WORKASPACE' ) );
#68 = CARTESIAN_POINT ( 'NONE',  ( 0.5000000000000000000, 2.000000000000000000, 6.123233995736767268E-17 ) ) ;
#69 = DIRECTION ( 'NONE',  ( -4.082155997157843818E-17, 1.000000000000000000, -0.000000000000000000 ) ) ;
#70 = UNCERTAINTY_MEASURE_WITH_UNIT (LENGTH_MEASURE( 1.000000000000000082E-05 ), #155, 'distance_accuracy_value', 'NONE');
#71 = MANIFOLD_SOLID_BREP ( 'Revolve - Cutting Edge', #243 ) ;
#72 = PRESENTATION_LAYER_ASSIGNMENT (  '', '', ( #227 ) ) ;
#73 = PRODUCT ( '01752', '01752', '', ( #182 ) ) ;
#74 = PRESENTATION_LAYER_ASSIGNMENT (  '', '', ( #262 ) ) ;
#75 = DIRECTION ( 'NONE',  ( 4.082155997157843818E-17, -1.000000000000000000, 0.000000000000000000 ) ) ;
#76 = VERTEX_POINT ( 'NONE', #253 ) ;
#77 = FILL_AREA_STYLE_COLOUR ( '', #199 ) ;
#78 = DIRECTION ( 'NONE',  ( 1.000000000000000000, 4.082155997157843818E-17, 0.000000000000000000 ) ) ;
#79 = EDGE_CURVE ( 'NONE', #245, #265, #27, .T. ) ;
#80 = ORIENTED_EDGE ( 'NONE', *, *, #186, .F. ) ;
#81 = DIMENSIONAL_EXPONENTS ( 1.000000000000000000, 0.000000000000000000, 0.000000000000000000, 0.000000000000000000, 0.000000000000000000, 0.000000000000000000, 0.000000000000000000 ) ;
#82 = DIRECTION ( 'NONE',  ( -0.000000000000000000, -1.000000000000000000, -0.000000000000000000 ) ) ;
#83 = CARTESIAN_POINT ( 'NONE',  ( -1.224646799147353207E-16, 5.000000000000000000, 0.000000000000000000 ) ) ;
#84 =( GEOMETRIC_REPRESENTATION_CONTEXT ( 3 ) GLOBAL_UNCERTAINTY_ASSIGNED_CONTEXT ( ( #158 ) ) GLOBAL_UNIT_ASSIGNED_CONTEXT ( ( #309, #239, #215 ) ) REPRESENTATION_CONTEXT ( 'NONE', 'WORKASPACE' ) );
#85 = AXIS2_PLACEMENT_3D ( 'NONE', #12, #159, #298 ) ;
#86 = SURFACE_SIDE_STYLE ('',( #271 ) ) ;
#87 = DIRECTION ( 'NONE',  ( -4.082155997157843818E-17, 1.000000000000000000, -0.000000000000000000 ) ) ;
#88 = FILL_AREA_STYLE_COLOUR ( '', #1 ) ;
#89 = UNCERTAINTY_MEASURE_WITH_UNIT (LENGTH_MEASURE( 1.000000000000000082E-05 ), #299, 'distance_accuracy_value', 'NONE');
#90 = CARTESIAN_POINT ( 'NONE',  ( -0.5000000000000002220, 5.000000000000000000, 0.000000000000000000 ) ) ;
#91 = DIRECTION ( 'NONE',  ( -0.000000000000000000, -1.000000000000000000, -0.000000000000000000 ) ) ;
#92 = VECTOR ( 'NONE', #33, 39.37007874015748143 ) ;
#93 =( NAMED_UNIT ( * ) PLANE_ANGLE_UNIT ( ) SI_UNIT ( $, .RADIAN. ) );
#94 = EDGE_CURVE ( 'NONE', #175, #245, #211, .T. ) ;
#95 = DIRECTION ( 'NONE',  ( 0.000000000000000000, -1.000000000000000000, -0.000000000000000000 ) ) ;
#96 = CARTESIAN_POINT ( 'NONE',  ( 0.5000000000000000000, 5.000000000000000000, 0.000000000000000000 ) ) ;
#97 = CARTESIAN_POINT ( 'NONE',  ( 0.000000000000000000, 2.000000000000000000, 0.000000000000000000 ) ) ;
#98 = AXIS2_PLACEMENT_3D ( 'NONE', #277, #156, #28 ) ;
#99 = CARTESIAN_POINT ( 'NONE',  ( 0.000000000000000000, 2.000000000000000000, -0.5000000000000000000 ) ) ;
#100 = SURFACE_STYLE_USAGE ( .BOTH. , #145 ) ;
#101 = DIMENSIONAL_EXPONENTS ( 1.000000000000000000, 0.000000000000000000, 0.000000000000000000, 0.000000000000000000, 0.000000000000000000, 0.000000000000000000, 0.000000000000000000 ) ;
#102 =( NAMED_UNIT ( * ) PLANE_ANGLE_UNIT ( ) SI_UNIT ( $, .RADIAN. ) );
#103 = AXIS2_PLACEMENT_3D ( 'NONE', #59, #91, #62 ) ;
#104 = FILL_AREA_STYLE ('',( #57 ) ) ;
#105 = ORIENTED_EDGE ( 'NONE', *, *, #94, .T. ) ;
#106 = DIRECTION ( 'NONE',  ( -0.000000000000000000, -1.000000000000000000, -0.000000000000000000 ) ) ;
#107 = ORIENTED_EDGE ( 'NONE', *, *, #237, .F. ) ;
#108 = ORIENTED_EDGE ( 'NONE', *, *, #140, .T. ) ;
#109 =( GEOMETRIC_REPRESENTATION_CONTEXT ( 3 ) GLOBAL_UNCERTAINTY_ASSIGNED_CONTEXT ( ( #11 ) ) GLOBAL_UNIT_ASSIGNED_CONTEXT ( ( #64, #280, #135 ) ) REPRESENTATION_CONTEXT ( 'NONE', 'WORKASPACE' ) );
#110 = SURFACE_STYLE_USAGE ( .BOTH. , #86 ) ;
#111 = ORIENTED_EDGE ( 'NONE', *, *, #303, .F. ) ;
#112 = ADVANCED_FACE ( 'NONE', ( #296 ), #9, .T. ) ;
#113 = ORIENTED_EDGE ( 'NONE', *, *, #41, .T. ) ;
#114 = LENGTH_MEASURE_WITH_UNIT ( LENGTH_MEASURE( 0.02539999999999999897 ), #13 );
#115 = CLOSED_SHELL ( 'NONE', ( #189, #119, #300, #218 ) ) ;
#116 = DIRECTION ( 'NONE',  ( -1.000000000000000000, 0.000000000000000000, 0.000000000000000000 ) ) ;
#117 = AXIS2_PLACEMENT_3D ( 'NONE', #168, #47, #264 ) ;
#118 = SURFACE_STYLE_FILL_AREA ( #281 ) ;
#119 = ADVANCED_FACE ( 'NONE', ( #40 ), #260, .F. ) ;
#120 = FACE_OUTER_BOUND ( 'NONE', #45, .T. ) ;
#121 = CARTESIAN_POINT ( 'NONE',  ( 0.4999999999999999445, 5.000000000000000000, 6.123233995736767268E-17 ) ) ;
#122 = STYLED_ITEM ( 'NONE', ( #289 ), #250 ) ;
#123 = EDGE_LOOP ( 'NONE', ( #269, #8, #224, #170 ) ) ;
#124 = AXIS2_PLACEMENT_3D ( 'NONE', #169, #46, #217 ) ;
#125 = DIMENSIONAL_EXPONENTS ( 1.000000000000000000, 0.000000000000000000, 0.000000000000000000, 0.000000000000000000, 0.000000000000000000, 0.000000000000000000, 0.000000000000000000 ) ;
#126 = DIMENSIONAL_EXPONENTS ( 1.000000000000000000, 0.000000000000000000, 0.000000000000000000, 0.000000000000000000, 0.000000000000000000, 0.000000000000000000, 0.000000000000000000 ) ;
#127 = VERTEX_POINT ( 'NONE', #68 ) ;
#128 =( CONVERSION_BASED_UNIT ( 'INCH', #290 ) LENGTH_UNIT ( ) NAMED_UNIT ( #126 ) );
#129 = EDGE_LOOP ( 'NONE', ( #197, #108, #25, #5 ) ) ;
#130 =( NAMED_UNIT ( * ) SI_UNIT ( $, .STERADIAN. ) SOLID_ANGLE_UNIT ( ) );
#131 =( CONVERSION_BASED_UNIT ( 'INCH', #209 ) LENGTH_UNIT ( ) NAMED_UNIT ( #302 ) );
#132 = EDGE_CURVE ( 'NONE', #242, #175, #257, .T. ) ;
#133 = AXIS2_PLACEMENT_3D ( 'NONE', #187, #183, #278 ) ;
#134 = VECTOR ( 'NONE', #230, 39.37007874015748143 ) ;
#135 =( NAMED_UNIT ( * ) SI_UNIT ( $, .STERADIAN. ) SOLID_ANGLE_UNIT ( ) );
#136 = PRESENTATION_STYLE_ASSIGNMENT (( #65 ) ) ;
#137 = COLOUR_RGB ( '',0.7921568627450980005, 0.8196078431372548767, 0.9333333333333333481 ) ;
#138 = APPLICATION_PROTOCOL_DEFINITION ( 'draft international standard', 'automotive_design', 1998, #48 ) ;
#139 = CARTESIAN_POINT ( 'NONE',  ( 6.123233995736766036E-17, 0.000000000000000000, 0.5000000000000000000 ) ) ;
#140 = EDGE_CURVE ( 'NONE', #175, #242, #162, .T. ) ;
#141 = PLANE ( 'NONE',  #286 ) ;
#142 = CIRCLE ( 'NONE', #53, 0.5000000000000001110 ) ;
#143 = FACE_OUTER_BOUND ( 'NONE', #152, .T. ) ;
#144 = ORIENTED_EDGE ( 'NONE', *, *, #132, .T. ) ;
#145 = SURFACE_SIDE_STYLE ('',( #238 ) ) ;
#146 = MECHANICAL_DESIGN_GEOMETRIC_PRESENTATION_REPRESENTATION (  '', ( #200 ), #31 ) ;
#147 = LINE ( 'NONE', #121, #51 ) ;
#148 = FACE_OUTER_BOUND ( 'NONE', #129, .T. ) ;
#149 = ORIENTED_EDGE ( 'NONE', *, *, #167, .F. ) ;
#150 = AXIS2_PLACEMENT_3D ( 'NONE', #163, #95, #165 ) ;
#151 = PRESENTATION_LAYER_ASSIGNMENT (  '', '', ( #178 ) ) ;
#152 = EDGE_LOOP ( 'NONE', ( #275, #32 ) ) ;
#153 = CARTESIAN_POINT ( 'NONE',  ( 0.000000000000000000, 0.000000000000000000, -0.5000000000000000000 ) ) ;
#154 = EDGE_LOOP ( 'NONE', ( #251, #220 ) ) ;
#155 =( CONVERSION_BASED_UNIT ( 'INCH', #219 ) LENGTH_UNIT ( ) NAMED_UNIT ( #204 ) );
#156 = DIRECTION ( 'NONE',  ( -0.000000000000000000, -1.000000000000000000, -0.000000000000000000 ) ) ;
#157 = STYLED_ITEM ( 'NONE', ( #222 ), #279 ) ;
#158 = UNCERTAINTY_MEASURE_WITH_UNIT (LENGTH_MEASURE( 1.000000000000000082E-05 ), #309, 'distance_accuracy_value', 'NONE');
#159 = DIRECTION ( 'NONE',  ( 0.000000000000000000, 0.000000000000000000, 1.000000000000000000 ) ) ;
#160 = CARTESIAN_POINT ( 'NONE',  ( 0.000000000000000000, 2.000000000000000000, 0.000000000000000000 ) ) ;
#161 = CARTESIAN_POINT ( 'NONE',  ( -1.224646799147353207E-16, 5.000000000000000000, 0.000000000000000000 ) ) ;
#162 = CIRCLE ( 'NONE', #228, 0.5000000000000000000 ) ;
#163 = CARTESIAN_POINT ( 'NONE',  ( 0.000000000000000000, 0.000000000000000000, 0.000000000000000000 ) ) ;
#164 = PRODUCT_RELATED_PRODUCT_CATEGORY ( 'part', '', ( #73 ) ) ;
#165 = DIRECTION ( 'NONE',  ( 0.000000000000000000, 0.000000000000000000, -1.000000000000000000 ) ) ;
#166 = FILL_AREA_STYLE_COLOUR ( '', #192 ) ;
#167 = EDGE_CURVE ( 'NONE', #242, #265, #234, .T. ) ;
#168 = CARTESIAN_POINT ( 'NONE',  ( -1.224646799147353207E-16, 5.000000000000000000, 0.000000000000000000 ) ) ;
#169 = CARTESIAN_POINT ( 'NONE',  ( 0.000000000000000000, 2.000000000000000000, 0.000000000000000000 ) ) ;
#170 = ORIENTED_EDGE ( 'NONE', *, *, #35, .F. ) ;
#171 = DIRECTION ( 'NONE',  ( 0.000000000000000000, 1.000000000000000000, 0.000000000000000000 ) ) ;
#172 =( GEOMETRIC_REPRESENTATION_CONTEXT ( 3 ) GLOBAL_UNCERTAINTY_ASSIGNED_CONTEXT ( ( #70 ) ) GLOBAL_UNIT_ASSIGNED_CONTEXT ( ( #155, #102, #206 ) ) REPRESENTATION_CONTEXT ( 'NONE', 'WORKASPACE' ) );
#173 = FILL_AREA_STYLE_COLOUR ( '', #66 ) ;
#174 = DIRECTION ( 'NONE',  ( 0.000000000000000000, 0.000000000000000000, -1.000000000000000000 ) ) ;
#175 = VERTEX_POINT ( 'NONE', #43 ) ;
#176 =( NAMED_UNIT ( * ) PLANE_ANGLE_UNIT ( ) SI_UNIT ( $, .RADIAN. ) );
#177 = DIRECTION ( 'NONE',  ( -4.082155997157843818E-17, 1.000000000000000000, -0.000000000000000000 ) ) ;
#178 = STYLED_ITEM ( 'NONE', ( #19 ), #240 ) ;
#179 = EDGE_LOOP ( 'NONE', ( #196, #7, #291, #111 ) ) ;
#180 = DIMENSIONAL_EXPONENTS ( 1.000000000000000000, 0.000000000000000000, 0.000000000000000000, 0.000000000000000000, 0.000000000000000000, 0.000000000000000000, 0.000000000000000000 ) ;
#181 = DIRECTION ( 'NONE',  ( -1.000000000000000000, 0.000000000000000000, 0.000000000000000000 ) ) ;
#182 = PRODUCT_CONTEXT ( 'NONE', #16, 'mechanical' ) ;
#183 = DIRECTION ( 'NONE',  ( -4.082155997157843818E-17, 1.000000000000000000, 0.000000000000000000 ) ) ;
#184 = PRODUCT_DEFINITION_SHAPE ( 'NONE', 'NONE',  #50 ) ;
#185 = SURFACE_SIDE_STYLE ('',( #118 ) ) ;
#186 = EDGE_CURVE ( 'NONE', #2, #127, #10, .T. ) ;
#187 = CARTESIAN_POINT ( 'NONE',  ( 4.165999396282937514E-34, 2.000000000000000000, 0.000000000000000000 ) ) ;
#188 = DIRECTION ( 'NONE',  ( -0.000000000000000000, -1.000000000000000000, -0.000000000000000000 ) ) ;
#189 = ADVANCED_FACE ( 'NONE', ( #233 ), #191, .T. ) ;
#190 = DIRECTION ( 'NONE',  ( 0.000000000000000000, 0.000000000000000000, -1.000000000000000000 ) ) ;
#191 = CYLINDRICAL_SURFACE ( 'NONE', #117, 0.5000000000000001110 ) ;
#192 = COLOUR_RGB ( '',1.000000000000000000, 0.000000000000000000, 0.000000000000000000 ) ;
#193 = CARTESIAN_POINT ( 'NONE',  ( -0.5000000000000002220, 5.000000000000000000, 0.000000000000000000 ) ) ;
#194 = DIRECTION ( 'NONE',  ( -1.000000000000000000, 0.000000000000000000, 0.000000000000000000 ) ) ;
#195 = CYLINDRICAL_SURFACE ( 'NONE', #261, 0.5000000000000001110 ) ;
#196 = ORIENTED_EDGE ( 'NONE', *, *, #186, .T. ) ;
#197 = ORIENTED_EDGE ( 'NONE', *, *, #94, .F. ) ;
#198 = EDGE_LOOP ( 'NONE', ( #80, #107 ) ) ;
#199 = COLOUR_RGB ( '',1.000000000000000000, 0.000000000000000000, 0.000000000000000000 ) ;
#200 = STYLED_ITEM ( 'NONE', ( #268 ), #276 ) ;
#201 =( GEOMETRIC_REPRESENTATION_CONTEXT ( 3 ) GLOBAL_UNCERTAINTY_ASSIGNED_CONTEXT ( ( #89 ) ) GLOBAL_UNIT_ASSIGNED_CONTEXT ( ( #299, #93, #282 ) ) REPRESENTATION_CONTEXT ( 'NONE', 'WORKASPACE' ) );
#202 = SURFACE_STYLE_USAGE ( .BOTH. , #55 ) ;
#203 = VERTEX_POINT ( 'NONE', #193 ) ;
#204 = DIMENSIONAL_EXPONENTS ( 1.000000000000000000, 0.000000000000000000, 0.000000000000000000, 0.000000000000000000, 0.000000000000000000, 0.000000000000000000, 0.000000000000000000 ) ;
#205 = EDGE_LOOP ( 'NONE', ( #144, #105, #56, #149 ) ) ;
#206 =( NAMED_UNIT ( * ) SI_UNIT ( $, .STERADIAN. ) SOLID_ANGLE_UNIT ( ) );
#207 =( NAMED_UNIT ( * ) PLANE_ANGLE_UNIT ( ) SI_UNIT ( $, .RADIAN. ) );
#208 = SHAPE_DEFINITION_REPRESENTATION ( #184, #4 ) ;
#209 = LENGTH_MEASURE_WITH_UNIT ( LENGTH_MEASURE( 0.02539999999999999897 ), #17 );
#210 = DIRECTION ( 'NONE',  ( -4.082155997157843818E-17, 1.000000000000000000, -0.000000000000000000 ) ) ;
#211 = LINE ( 'NONE', #139, #92 ) ;
#212 = PRESENTATION_LAYER_ASSIGNMENT (  '', '', ( #157 ) ) ;
#213 = SURFACE_SIDE_STYLE ('',( #235 ) ) ;
#214 = FILL_AREA_STYLE ('',( #166 ) ) ;
#215 =( NAMED_UNIT ( * ) SI_UNIT ( $, .STERADIAN. ) SOLID_ANGLE_UNIT ( ) );
#216 = AXIS2_PLACEMENT_3D ( 'NONE', #54, #15, #231 ) ;
#217 = DIRECTION ( 'NONE',  ( -1.000000000000000000, 0.000000000000000000, 0.000000000000000000 ) ) ;
#218 = ADVANCED_FACE ( 'NONE', ( #120 ), #141, .F. ) ;
#219 = LENGTH_MEASURE_WITH_UNIT ( LENGTH_MEASURE( 0.02539999999999999897 ), #294 );
#220 = ORIENTED_EDGE ( 'NONE', *, *, #79, .T. ) ;
#221 = LENGTH_MEASURE_WITH_UNIT ( LENGTH_MEASURE( 0.02539999999999999897 ), #52 );
#222 = PRESENTATION_STYLE_ASSIGNMENT (( #202 ) ) ;
#223 = AXIS2_PLACEMENT_3D ( 'NONE', #292, #82, #174 ) ;
#224 = ORIENTED_EDGE ( 'NONE', *, *, #303, .T. ) ;
#225 = LENGTH_MEASURE_WITH_UNIT ( LENGTH_MEASURE( 0.02539999999999999897 ), #301 );
#226 = UNCERTAINTY_MEASURE_WITH_UNIT (LENGTH_MEASURE( 1.000000000000000082E-05 ), #128, 'distance_accuracy_value', 'NONE');
#227 = STYLED_ITEM ( 'NONE', ( #232 ), #71 ) ;
#228 = AXIS2_PLACEMENT_3D ( 'NONE', #160, #287, #190 ) ;
#229 = EDGE_CURVE ( 'NONE', #127, #76, #147, .T. ) ;
#230 = DIRECTION ( 'NONE',  ( -4.082155997157843818E-17, 1.000000000000000000, -0.000000000000000000 ) ) ;
#231 = DIRECTION ( 'NONE',  ( 0.000000000000000000, 0.000000000000000000, -1.000000000000000000 ) ) ;
#232 = PRESENTATION_STYLE_ASSIGNMENT (( #36 ) ) ;
#233 = FACE_OUTER_BOUND ( 'NONE', #179, .T. ) ;
#234 = LINE ( 'NONE', #263, #60 ) ;
#235 = SURFACE_STYLE_FILL_AREA ( #214 ) ;
#236 = COLOUR_RGB ( '',1.000000000000000000, 0.000000000000000000, 0.000000000000000000 ) ;
#237 = EDGE_CURVE ( 'NONE', #127, #2, #307, .T. ) ;
#238 = SURFACE_STYLE_FILL_AREA ( #305 ) ;
#239 =( NAMED_UNIT ( * ) PLANE_ANGLE_UNIT ( ) SI_UNIT ( $, .RADIAN. ) );
#240 = ADVANCED_FACE ( 'NONE', ( #143 ), #21, .T. ) ;
#241 = CARTESIAN_POINT ( 'NONE',  ( 0.000000000000000000, 0.000000000000000000, 0.000000000000000000 ) ) ;
#242 = VERTEX_POINT ( 'NONE', #99 ) ;
#243 = CLOSED_SHELL ( 'NONE', ( #250, #240, #276, #112 ) ) ;
#244 = AXIS2_PLACEMENT_3D ( 'NONE', #241, #106, #246 ) ;
#245 = VERTEX_POINT ( 'NONE', #284 ) ;
#246 = DIRECTION ( 'NONE',  ( 0.000000000000000000, 0.000000000000000000, -1.000000000000000000 ) ) ;
#247 = CYLINDRICAL_SURFACE ( 'NONE', #244, 0.5000000000000000000 ) ;
#248 = CARTESIAN_POINT ( 'NONE',  ( -0.5000000000000000000, 2.000000000000000000, 0.000000000000000000 ) ) ;
#249 = SURFACE_STYLE_FILL_AREA ( #6 ) ;
#250 = ADVANCED_FACE ( 'NONE', ( #304 ), #42, .T. ) ;
#251 = ORIENTED_EDGE ( 'NONE', *, *, #39, .T. ) ;
#252 = PRODUCT_DEFINITION_FORMATION_WITH_SPECIFIED_SOURCE ( 'ANY', '', #73, .NOT_KNOWN. ) ;
#253 = CARTESIAN_POINT ( 'NONE',  ( 0.5000000000000000000, 5.000000000000000000, 6.123233995736767268E-17 ) ) ;
#254 = APPLICATION_PROTOCOL_DEFINITION ( 'draft international standard', 'automotive_design', 1998, #16 ) ;
#255 = UNCERTAINTY_MEASURE_WITH_UNIT (LENGTH_MEASURE( 1.000000000000000082E-05 ), #49, 'distance_accuracy_value', 'NONE');
#256 = FILL_AREA_STYLE ('',( #29 ) ) ;
#257 = CIRCLE ( 'NONE', #103, 0.5000000000000000000 ) ;
#258 = MECHANICAL_DESIGN_GEOMETRIC_PRESENTATION_REPRESENTATION (  '', ( #262 ), #201 ) ;
#259 = SURFACE_STYLE_FILL_AREA ( #256 ) ;
#260 = PLANE ( 'NONE',  #133 ) ;
#261 = AXIS2_PLACEMENT_3D ( 'NONE', #161, #210, #116 ) ;
#262 = STYLED_ITEM ( 'NONE', ( #136 ), #112 ) ;
#263 = CARTESIAN_POINT ( 'NONE',  ( 0.000000000000000000, 0.000000000000000000, -0.5000000000000000000 ) ) ;
#264 = DIRECTION ( 'NONE',  ( -1.000000000000000000, 0.000000000000000000, 0.000000000000000000 ) ) ;
#265 = VERTEX_POINT ( 'NONE', #153 ) ;
#266 = SURFACE_STYLE_USAGE ( .BOTH. , #213 ) ;
#267 =( NAMED_UNIT ( * ) SI_UNIT ( $, .STERADIAN. ) SOLID_ANGLE_UNIT ( ) );
#268 = PRESENTATION_STYLE_ASSIGNMENT (( #110 ) ) ;
#269 = ORIENTED_EDGE ( 'NONE', *, *, #229, .F. ) ;
#270 = CIRCLE ( 'NONE', #293, 0.5000000000000001110 ) ;
#271 = SURFACE_STYLE_FILL_AREA ( #104 ) ;
#272 = PRESENTATION_LAYER_ASSIGNMENT (  '', '', ( #200 ) ) ;
#273 = DIRECTION ( 'NONE',  ( -1.000000000000000000, 0.000000000000000000, 0.000000000000000000 ) ) ;
#274 = AXIS2_PLACEMENT_3D ( 'NONE', #24, #171, #308 ) ;
#275 = ORIENTED_EDGE ( 'NONE', *, *, #132, .F. ) ;
#276 = ADVANCED_FACE ( 'NONE', ( #148 ), #247, .T. ) ;
#277 = CARTESIAN_POINT ( 'NONE',  ( 0.000000000000000000, 0.000000000000000000, 0.000000000000000000 ) ) ;
#278 = DIRECTION ( 'NONE',  ( -1.000000000000000000, -4.082155997157843818E-17, 0.000000000000000000 ) ) ;
#279 = MANIFOLD_SOLID_BREP ( 'Revolve - Tool Body (Straight Shanked)', #115 ) ;
#280 =( NAMED_UNIT ( * ) PLANE_ANGLE_UNIT ( ) SI_UNIT ( $, .RADIAN. ) );
#281 = FILL_AREA_STYLE ('',( #88 ) ) ;
#282 =( NAMED_UNIT ( * ) SI_UNIT ( $, .STERADIAN. ) SOLID_ANGLE_UNIT ( ) );
#283 = SURFACE_SIDE_STYLE ('',( #259 ) ) ;
#284 = CARTESIAN_POINT ( 'NONE',  ( 6.123233995736766036E-17, 0.000000000000000000, 0.5000000000000000000 ) ) ;
#285 = MECHANICAL_DESIGN_GEOMETRIC_PRESENTATION_REPRESENTATION (  '', ( #157 ), #172 ) ;
#286 = AXIS2_PLACEMENT_3D ( 'NONE', #96, #75, #78 ) ;
#287 = DIRECTION ( 'NONE',  ( -0.000000000000000000, -1.000000000000000000, -0.000000000000000000 ) ) ;
#288 =( LENGTH_UNIT ( ) NAMED_UNIT ( * ) SI_UNIT ( $, .METRE. ) );
#289 = PRESENTATION_STYLE_ASSIGNMENT (( #100 ) ) ;
#290 = LENGTH_MEASURE_WITH_UNIT ( LENGTH_MEASURE( 0.02539999999999999897 ), #295 );
#291 = ORIENTED_EDGE ( 'NONE', *, *, #41, .F. ) ;
#292 = CARTESIAN_POINT ( 'NONE',  ( 0.000000000000000000, 0.000000000000000000, 0.000000000000000000 ) ) ;
#293 = AXIS2_PLACEMENT_3D ( 'NONE', #83, #177, #273 ) ;
#294 =( LENGTH_UNIT ( ) NAMED_UNIT ( * ) SI_UNIT ( $, .METRE. ) );
#295 =( LENGTH_UNIT ( ) NAMED_UNIT ( * ) SI_UNIT ( $, .METRE. ) );
#296 = FACE_OUTER_BOUND ( 'NONE', #154, .T. ) ;
#297 =( GEOMETRIC_REPRESENTATION_CONTEXT ( 3 ) GLOBAL_UNCERTAINTY_ASSIGNED_CONTEXT ( ( #63 ) ) GLOBAL_UNIT_ASSIGNED_CONTEXT ( ( #131, #207, #130 ) ) REPRESENTATION_CONTEXT ( 'NONE', 'WORKASPACE' ) );
#298 = DIRECTION ( 'NONE',  ( 1.000000000000000000, 0.000000000000000000, 0.000000000000000000 ) ) ;
#299 =( CONVERSION_BASED_UNIT ( 'INCH', #114 ) LENGTH_UNIT ( ) NAMED_UNIT ( #101 ) );
#300 = ADVANCED_FACE ( 'NONE', ( #61 ), #195, .T. ) ;
#301 =( LENGTH_UNIT ( ) NAMED_UNIT ( * ) SI_UNIT ( $, .METRE. ) );
#302 = DIMENSIONAL_EXPONENTS ( 1.000000000000000000, 0.000000000000000000, 0.000000000000000000, 0.000000000000000000, 0.000000000000000000, 0.000000000000000000, 0.000000000000000000 ) ;
#303 = EDGE_CURVE ( 'NONE', #2, #203, #14, .T. ) ;
#304 = FACE_OUTER_BOUND ( 'NONE', #205, .T. ) ;
#305 = FILL_AREA_STYLE ('',( #77 ) ) ;
#306 = AXIS2_PLACEMENT_3D ( 'NONE', #97, #69, #194 ) ;
#307 = CIRCLE ( 'NONE', #306, 0.5000000000000000000 ) ;
#308 = DIRECTION ( 'NONE',  ( 0.000000000000000000, -0.000000000000000000, 1.000000000000000000 ) ) ;
#309 =( CONVERSION_BASED_UNIT ( 'INCH', #20 ) LENGTH_UNIT ( ) NAMED_UNIT ( #81 ) );
ENDSEC;
END-ISO-10303-21;
