ISO-10303-21;
HEADER;
FILE_DESCRIPTION (( 'STEP AP214' ),
    '1' );
FILE_NAME ('Micro_GEMM-200-4.STEP',
    '2021-09-01T22:19:53',
    ( '' ),
    ( '' ),
    'SwSTEP 2.0',
    'SolidWorks 2020',
    '' );
FILE_SCHEMA (( 'AUTOMOTIVE_DESIGN' ));
ENDSEC;

DATA;
#1 = COLOUR_RGB ( '',0.7921568627450980005, 0.8196078431372548767, 0.9333333333333333481 ) ;
#2 = ORIENTED_EDGE ( 'NONE', *, *, #49, .F. ) ;
#3 = EDGE_LOOP ( 'NONE', ( #254, #95, #71, #11 ) ) ;
#4 = DIMENSIONAL_EXPONENTS ( 1.000000000000000000, 0.0000000000000000000, 0.0000000000000000000, 0.0000000000000000000, 0.0000000000000000000, 0.0000000000000000000, 0.0000000000000000000 ) ;
#5 = EDGE_CURVE ( 'NONE', #22, #198, #204, .T. ) ;
#6 = DIRECTION ( 'NONE',  ( -1.224646799147353207E-16, -0.0000000000000000000, -1.000000000000000000 ) ) ;
#7 = EDGE_LOOP ( 'NONE', ( #70, #99, #202, #276 ) ) ;
#8 = FILL_AREA_STYLE ('',( #56 ) ) ;
#9 = CARTESIAN_POINT ( 'NONE',  ( 1.834883142571182790E-16, 0.0000000000000000000, 1.498295789323664584 ) ) ;
#10 = CARTESIAN_POINT ( 'NONE',  ( 0.0000000000000000000, 0.0000000000000000000, 4.094488000000000127 ) ) ;
#11 = ORIENTED_EDGE ( 'NONE', *, *, #65, .F. ) ;
#12 = DIRECTION ( 'NONE',  ( 1.000000000000000000, 0.0000000000000000000, 0.0000000000000000000 ) ) ;
#13 = CARTESIAN_POINT ( 'NONE',  ( 5.898664692675622805E-33, 0.0000000000000000000, 4.816625248016410340E-17 ) ) ;
#14 = AXIS2_PLACEMENT_3D ( 'NONE', #281, #75, #215 ) ;
#15 = CARTESIAN_POINT ( 'NONE',  ( 0.3933072990000002767, 0.0000000000000000000, 1.496062999999999921 ) ) ;
#16 = PRODUCT_RELATED_PRODUCT_CATEGORY ( 'part', '', ( #86 ) ) ;
#17 = FACE_OUTER_BOUND ( 'NONE', #74, .T. ) ;
#18 = CARTESIAN_POINT ( 'NONE',  ( 0.0000000000000000000, 0.0000000000000000000, 4.094488000000000127 ) ) ;
#19 = AXIS2_PLACEMENT_3D ( 'NONE', #195, #294, #133 ) ;
#20 = EDGE_CURVE ( 'NONE', #28, #201, #33, .T. ) ;
#21 = PRODUCT_DEFINITION_SHAPE ( 'NONE', 'NONE',  #181 ) ;
#22 = VERTEX_POINT ( 'NONE', #255 ) ;
#23 = DIRECTION ( 'NONE',  ( 1.000000000000000000, 0.0000000000000000000, 0.0000000000000000000 ) ) ;
#24 = ORIENTED_EDGE ( 'NONE', *, *, #69, .F. ) ;
#25 = VECTOR ( 'NONE', #149, 39.37007874015747433 ) ;
#26 = APPLICATION_CONTEXT ( 'automotive_design' ) ;
#27 = AXIS2_PLACEMENT_3D ( 'NONE', #127, #139, #284 ) ;
#28 = VERTEX_POINT ( 'NONE', #140 ) ;
#29 = UNCERTAINTY_MEASURE_WITH_UNIT (LENGTH_MEASURE( 1.000000000000000082E-05 ), #80, 'distance_accuracy_value', 'NONE');
#30 = AXIS2_PLACEMENT_3D ( 'NONE', #138, #235, #287 ) ;
#31 = CARTESIAN_POINT ( 'NONE',  ( 0.3787010000000002319, 4.637749674839021182E-17, 4.094488000000000127 ) ) ;
#32 =( LENGTH_UNIT ( ) NAMED_UNIT ( * ) SI_UNIT ( $, .METRE. ) );
#33 = LINE ( 'NONE', #31, #288 ) ;
#34 = CARTESIAN_POINT ( 'NONE',  ( 0.3933072990000000546, 4.816625248016410956E-17, -4.816625248016410956E-17 ) ) ;
#35 = ORIENTED_EDGE ( 'NONE', *, *, #68, .T. ) ;
#36 = PRESENTATION_STYLE_ASSIGNMENT (( #267 ) ) ;
#37 = LINE ( 'NONE', #143, #278 ) ;
#38 = CYLINDRICAL_SURFACE ( 'NONE', #158, 0.3937009999999999676 ) ;
#39 = DIRECTION ( 'NONE',  ( 1.000000000000000000, 0.0000000000000000000, 0.0000000000000000000 ) ) ;
#40 = DIMENSIONAL_EXPONENTS ( 1.000000000000000000, 0.0000000000000000000, 0.0000000000000000000, 0.0000000000000000000, 0.0000000000000000000, 0.0000000000000000000, 0.0000000000000000000 ) ;
#41 = LINE ( 'NONE', #34, #274 ) ;
#42 = CARTESIAN_POINT ( 'NONE',  ( 0.3937009999999999676, 4.821446694711121291E-17, 4.079488000000000447 ) ) ;
#43 = DIRECTION ( 'NONE',  ( -0.0000000000000000000, -0.0000000000000000000, -1.000000000000000000 ) ) ;
#44 = PRESENTATION_LAYER_ASSIGNMENT (  '', '', ( #270 ) ) ;
#45 = FILL_AREA_STYLE ('',( #85 ) ) ;
#46 = DIRECTION ( 'NONE',  ( 0.0000000000000000000, 0.0000000000000000000, 1.000000000000000000 ) ) ;
#47 = VERTEX_POINT ( 'NONE', #165 ) ;
#48 = ORIENTED_EDGE ( 'NONE', *, *, #171, .F. ) ;
#49 = EDGE_CURVE ( 'NONE', #72, #135, #129, .T. ) ;
#50 = CIRCLE ( 'NONE', #176, 0.3933072990000000546 ) ;
#51 = ORIENTED_EDGE ( 'NONE', *, *, #132, .F. ) ;
#52 = ADVANCED_FACE ( 'NONE', ( #117 ), #295, .T. ) ;
#53 = CARTESIAN_POINT ( 'NONE',  ( 0.0000000000000000000, 0.0000000000000000000, 4.094488000000000127 ) ) ;
#54 = AXIS2_PLACEMENT_3D ( 'NONE', #220, #196, #107 ) ;
#55 = DIRECTION ( 'NONE',  ( -1.224646799147353207E-16, -0.0000000000000000000, -1.000000000000000000 ) ) ;
#56 = FILL_AREA_STYLE_COLOUR ( '', #94 ) ;
#57 = FACE_OUTER_BOUND ( 'NONE', #298, .T. ) ;
#58 = DIRECTION ( 'NONE',  ( 0.0000000000000000000, 0.0000000000000000000, 1.000000000000000000 ) ) ;
#59 = DIRECTION ( 'NONE',  ( -1.000000000000000000, 0.0000000000000000000, 1.224646799147353207E-16 ) ) ;
#60 = CARTESIAN_POINT ( 'NONE',  ( 0.0000000000000000000, 0.0000000000000000000, 4.094488000000000127 ) ) ;
#61 = CARTESIAN_POINT ( 'NONE',  ( 1.832148764272786481E-16, 0.0000000000000000000, 1.496062999999999921 ) ) ;
#62 = AXIS2_PLACEMENT_3D ( 'NONE', #18, #291, #268 ) ;
#63 =( NAMED_UNIT ( * ) PLANE_ANGLE_UNIT ( ) SI_UNIT ( $, .RADIAN. ) );
#64 = SURFACE_STYLE_FILL_AREA ( #45 ) ;
#65 = EDGE_CURVE ( 'NONE', #201, #47, #153, .T. ) ;
#66 =( NAMED_UNIT ( * ) PLANE_ANGLE_UNIT ( ) SI_UNIT ( $, .RADIAN. ) );
#67 = AXIS2_PLACEMENT_3D ( 'NONE', #53, #210, #233 ) ;
#68 = EDGE_CURVE ( 'NONE', #135, #72, #242, .T. ) ;
#69 = EDGE_CURVE ( 'NONE', #227, #47, #258, .T. ) ;
#70 = ORIENTED_EDGE ( 'NONE', *, *, #277, .F. ) ;
#71 = ORIENTED_EDGE ( 'NONE', *, *, #69, .T. ) ;
#72 = VERTEX_POINT ( 'NONE', #256 ) ;
#73 = ADVANCED_FACE ( 'NONE', ( #57 ), #218, .T. ) ;
#74 = EDGE_LOOP ( 'NONE', ( #92, #226 ) ) ;
#75 = DIRECTION ( 'NONE',  ( 1.224646799147353207E-16, 0.0000000000000000000, 1.000000000000000000 ) ) ;
#76 = DIRECTION ( 'NONE',  ( -1.000000000000000000, 0.0000000000000000000, 0.0000000000000000000 ) ) ;
#77 = EDGE_LOOP ( 'NONE', ( #159, #122, #48, #160 ) ) ;
#78 = DIRECTION ( 'NONE',  ( -1.224646799147353207E-16, -0.0000000000000000000, -1.000000000000000000 ) ) ;
#79 = ADVANCED_FACE ( 'NONE', ( #182 ), #104, .T. ) ;
#80 =( CONVERSION_BASED_UNIT ( 'INCH', #187 ) LENGTH_UNIT ( ) NAMED_UNIT ( #209 ) );
#81 = DIRECTION ( 'NONE',  ( -1.000000000000000000, 0.0000000000000000000, 0.0000000000000000000 ) ) ;
#82 = FACE_OUTER_BOUND ( 'NONE', #155, .T. ) ;
#83 = DIRECTION ( 'NONE',  ( -1.224646799147353207E-16, -0.0000000000000000000, -1.000000000000000000 ) ) ;
#84 =( NAMED_UNIT ( * ) SI_UNIT ( $, .STERADIAN. ) SOLID_ANGLE_UNIT ( ) );
#85 = FILL_AREA_STYLE_COLOUR ( '', #1 ) ;
#86 = PRODUCT ( 'Micro_GEMM-200-4', 'Micro_GEMM-200-4', '', ( #112 ) ) ;
#87 =( CONVERSION_BASED_UNIT ( 'INCH', #108 ) LENGTH_UNIT ( ) NAMED_UNIT ( #4 ) );
#88 = ORIENTED_EDGE ( 'NONE', *, *, #102, .T. ) ;
#89 = PRESENTATION_LAYER_ASSIGNMENT (  '', '', ( #299 ) ) ;
#90 = EDGE_LOOP ( 'NONE', ( #249, #200 ) ) ;
#91 = ORIENTED_EDGE ( 'NONE', *, *, #68, .F. ) ;
#92 = ORIENTED_EDGE ( 'NONE', *, *, #171, .T. ) ;
#93 = VECTOR ( 'NONE', #262, 39.37007874015748143 ) ;
#94 = COLOUR_RGB ( '',0.7921568627450980005, 0.8196078431372548767, 0.9333333333333333481 ) ;
#95 = ORIENTED_EDGE ( 'NONE', *, *, #193, .F. ) ;
#96 = ORIENTED_EDGE ( 'NONE', *, *, #132, .T. ) ;
#97 = SURFACE_SIDE_STYLE ('',( #169 ) ) ;
#98 = ADVANCED_FACE ( 'NONE', ( #166 ), #161, .T. ) ;
#99 = ORIENTED_EDGE ( 'NONE', *, *, #141, .T. ) ;
#100 = FACE_OUTER_BOUND ( 'NONE', #3, .T. ) ;
#101 = DIRECTION ( 'NONE',  ( -1.224646799147353207E-16, -0.0000000000000000000, -1.000000000000000000 ) ) ;
#102 = EDGE_CURVE ( 'NONE', #248, #198, #37, .T. ) ;
#103 = DIRECTION ( 'NONE',  ( -1.000000000000000000, 0.0000000000000000000, 1.224646799147353207E-16 ) ) ;
#104 = CONICAL_SURFACE ( 'NONE', #14, 0.3933072990000000546, 0.1745329251994338637 ) ;
#105 = LINE ( 'NONE', #128, #296 ) ;
#106 = AXIS2_PLACEMENT_3D ( 'NONE', #13, #101, #238 ) ;
#107 = DIRECTION ( 'NONE',  ( -1.000000000000000000, 0.0000000000000000000, 1.224646799147353207E-16 ) ) ;
#108 = LENGTH_MEASURE_WITH_UNIT ( LENGTH_MEASURE( 0.02539999999999999897 ), #172 );
#109 = AXIS2_PLACEMENT_3D ( 'NONE', #167, #6, #103 ) ;
#110 = ORIENTED_EDGE ( 'NONE', *, *, #203, .F. ) ;
#111 = EDGE_CURVE ( 'NONE', #206, #135, #124, .T. ) ;
#112 = PRODUCT_CONTEXT ( 'NONE', #292, 'mechanical' ) ;
#113 = ORIENTED_EDGE ( 'NONE', *, *, #111, .T. ) ;
#114 = EDGE_LOOP ( 'NONE', ( #142, #96, #88, #280 ) ) ;
#115 = ORIENTED_EDGE ( 'NONE', *, *, #286, .F. ) ;
#116 = UNCERTAINTY_MEASURE_WITH_UNIT (LENGTH_MEASURE( 1.000000000000000082E-05 ), #230, 'distance_accuracy_value', 'NONE');
#117 = FACE_OUTER_BOUND ( 'NONE', #156, .T. ) ;
#118 = PLANE ( 'NONE',  #180 ) ;
#119 = CARTESIAN_POINT ( 'NONE',  ( 1.832148764272786481E-16, 0.0000000000000000000, 1.496062999999999921 ) ) ;
#120 = ADVANCED_FACE ( 'NONE', ( #100 ), #185, .T. ) ;
#121 = CYLINDRICAL_SURFACE ( 'NONE', #109, 0.3933072990000000546 ) ;
#122 = ORIENTED_EDGE ( 'NONE', *, *, #264, .T. ) ;
#123 = MECHANICAL_DESIGN_GEOMETRIC_PRESENTATION_REPRESENTATION (  '', ( #270 ), #237 ) ;
#124 = LINE ( 'NONE', #213, #93 ) ;
#125 = DIRECTION ( 'NONE',  ( -0.0000000000000000000, -0.0000000000000000000, -1.000000000000000000 ) ) ;
#126 = DIRECTION ( 'NONE',  ( 1.000000000000000000, 0.0000000000000000000, 0.0000000000000000000 ) ) ;
#127 = CARTESIAN_POINT ( 'NONE',  ( 1.832148764272786481E-16, 0.0000000000000000000, 1.496062999999999921 ) ) ;
#128 = CARTESIAN_POINT ( 'NONE',  ( 0.3937009999999999676, 4.821446694711121291E-17, 4.094488000000000127 ) ) ;
#129 = CIRCLE ( 'NONE', #222, 0.3937009999999999676 ) ;
#130 = DIRECTION ( 'NONE',  ( -1.000000000000000000, 0.0000000000000000000, 0.0000000000000000000 ) ) ;
#131 =( NAMED_UNIT ( * ) SI_UNIT ( $, .STERADIAN. ) SOLID_ANGLE_UNIT ( ) );
#132 = EDGE_CURVE ( 'NONE', #206, #248, #50, .T. ) ;
#133 = DIRECTION ( 'NONE',  ( 1.000000000000000000, 0.0000000000000000000, -0.0000000000000000000 ) ) ;
#134 = VECTOR ( 'NONE', #43, 39.37007874015748143 ) ;
#135 = VERTEX_POINT ( 'NONE', #170 ) ;
#136 = ORIENTED_EDGE ( 'NONE', *, *, #141, .F. ) ;
#137 =( NAMED_UNIT ( * ) PLANE_ANGLE_UNIT ( ) SI_UNIT ( $, .RADIAN. ) );
#138 = CARTESIAN_POINT ( 'NONE',  ( 0.0000000000000000000, 0.0000000000000000000, 4.079488000000000447 ) ) ;
#139 = DIRECTION ( 'NONE',  ( -1.224646799147353207E-16, -0.0000000000000000000, -1.000000000000000000 ) ) ;
#140 = CARTESIAN_POINT ( 'NONE',  ( 0.3787010000000002319, 4.729598184775070620E-17, 4.094488000000000127 ) ) ;
#141 = EDGE_CURVE ( 'NONE', #248, #72, #192, .T. ) ;
#142 = ORIENTED_EDGE ( 'NONE', *, *, #264, .F. ) ;
#143 = CARTESIAN_POINT ( 'NONE',  ( -0.3933072990000000546, 0.0000000000000000000, 4.816625248016410956E-17 ) ) ;
#144 = CARTESIAN_POINT ( 'NONE',  ( 0.0000000000000000000, 0.0000000000000000000, 4.094488000000000127 ) ) ;
#145 = AXIS2_PLACEMENT_3D ( 'NONE', #188, #285, #81 ) ;
#146 = DIRECTION ( 'NONE',  ( 0.7071067811865491270, 8.659560562354952580E-17, -0.7071067811865459074 ) ) ;
#147 = DIRECTION ( 'NONE',  ( -0.0000000000000000000, -0.0000000000000000000, -1.000000000000000000 ) ) ;
#148 = SURFACE_STYLE_USAGE ( .BOTH. , #216 ) ;
#149 = DIRECTION ( 'NONE',  ( -0.1736481776669311639, 2.126576849575783008E-17, 0.9848077530122080203 ) ) ;
#150 =( GEOMETRIC_REPRESENTATION_CONTEXT ( 3 ) GLOBAL_UNCERTAINTY_ASSIGNED_CONTEXT ( ( #260 ) ) GLOBAL_UNIT_ASSIGNED_CONTEXT ( ( #87, #66, #131 ) ) REPRESENTATION_CONTEXT ( 'NONE', 'WORKASPACE' ) );
#151 = CARTESIAN_POINT ( 'NONE',  ( -0.3787010000000002319, 0.0000000000000000000, 4.094488000000000127 ) ) ;
#152 = EDGE_CURVE ( 'NONE', #47, #201, #250, .T. ) ;
#153 = CIRCLE ( 'NONE', #30, 0.3937009999999999676 ) ;
#154 = ORIENTED_EDGE ( 'NONE', *, *, #203, .T. ) ;
#155 = EDGE_LOOP ( 'NONE', ( #163, #184, #2, #110 ) ) ;
#156 = EDGE_LOOP ( 'NONE', ( #136, #51, #113, #35 ) ) ;
#157 = CIRCLE ( 'NONE', #62, 0.3787010000000002319 ) ;
#158 = AXIS2_PLACEMENT_3D ( 'NONE', #60, #147, #232 ) ;
#159 = ORIENTED_EDGE ( 'NONE', *, *, #277, .T. ) ;
#160 = ORIENTED_EDGE ( 'NONE', *, *, #102, .F. ) ;
#161 = CYLINDRICAL_SURFACE ( 'NONE', #173, 0.3933072990000000546 ) ;
#162 = MECHANICAL_DESIGN_GEOMETRIC_PRESENTATION_REPRESENTATION (  '', ( #299 ), #150 ) ;
#163 = ORIENTED_EDGE ( 'NONE', *, *, #152, .T. ) ;
#164 = FACE_OUTER_BOUND ( 'NONE', #114, .T. ) ;
#165 = CARTESIAN_POINT ( 'NONE',  ( -0.3937009999999999676, 0.0000000000000000000, 4.079488000000000447 ) ) ;
#166 = FACE_OUTER_BOUND ( 'NONE', #77, .T. ) ;
#167 = CARTESIAN_POINT ( 'NONE',  ( 0.0000000000000000000, 0.0000000000000000000, 0.0000000000000000000 ) ) ;
#168 = CYLINDRICAL_SURFACE ( 'NONE', #219, 0.3937009999999999676 ) ;
#169 = SURFACE_STYLE_FILL_AREA ( #8 ) ;
#170 = CARTESIAN_POINT ( 'NONE',  ( 0.3937010000000001897, 4.821446694711123140E-17, 1.498295789323664584 ) ) ;
#171 = EDGE_CURVE ( 'NONE', #198, #22, #179, .T. ) ;
#172 =( LENGTH_UNIT ( ) NAMED_UNIT ( * ) SI_UNIT ( $, .METRE. ) );
#173 = AXIS2_PLACEMENT_3D ( 'NONE', #186, #78, #59 ) ;
#174 = CARTESIAN_POINT ( 'NONE',  ( 0.0000000000000000000, 0.0000000000000000000, 4.079488000000000447 ) ) ;
#175 = ADVANCED_BREP_SHAPE_REPRESENTATION ( 'Micro_GEMM-200-4', ( #212, #197 ), #251 ) ;
#176 = AXIS2_PLACEMENT_3D ( 'NONE', #61, #266, #130 ) ;
#177 = ORIENTED_EDGE ( 'NONE', *, *, #225, .F. ) ;
#178 = ORIENTED_EDGE ( 'NONE', *, *, #20, .T. ) ;
#179 = CIRCLE ( 'NONE', #54, 0.3933072989999999991 ) ;
#180 = AXIS2_PLACEMENT_3D ( 'NONE', #144, #58, #190 ) ;
#181 = PRODUCT_DEFINITION ( 'UNKNOWN', '', #257, #253 ) ;
#182 = FACE_OUTER_BOUND ( 'NONE', #7, .T. ) ;
#183 =( LENGTH_UNIT ( ) NAMED_UNIT ( * ) SI_UNIT ( $, .METRE. ) );
#184 = ORIENTED_EDGE ( 'NONE', *, *, #225, .T. ) ;
#185 = CONICAL_SURFACE ( 'NONE', #145, 0.3787010000000002319, 0.7853981633974506105 ) ;
#186 = CARTESIAN_POINT ( 'NONE',  ( 0.0000000000000000000, 0.0000000000000000000, 0.0000000000000000000 ) ) ;
#187 = LENGTH_MEASURE_WITH_UNIT ( LENGTH_MEASURE( 0.02539999999999999897 ), #32 );
#188 = CARTESIAN_POINT ( 'NONE',  ( 0.0000000000000000000, 0.0000000000000000000, 4.094488000000000127 ) ) ;
#189 = DIRECTION ( 'NONE',  ( 1.000000000000000000, 0.0000000000000000000, 0.0000000000000000000 ) ) ;
#190 = DIRECTION ( 'NONE',  ( 1.000000000000000000, 0.0000000000000000000, -0.0000000000000000000 ) ) ;
#191 = VECTOR ( 'NONE', #228, 39.37007874015748143 ) ;
#192 = LINE ( 'NONE', #290, #25 ) ;
#193 = EDGE_CURVE ( 'NONE', #227, #28, #157, .T. ) ;
#194 = PLANE ( 'NONE',  #19 ) ;
#195 = CARTESIAN_POINT ( 'NONE',  ( 0.0000000000000000000, 0.0000000000000000000, 0.0000000000000000000 ) ) ;
#196 = DIRECTION ( 'NONE',  ( -1.224646799147353207E-16, -0.0000000000000000000, -1.000000000000000000 ) ) ;
#197 = AXIS2_PLACEMENT_3D ( 'NONE', #246, #46, #23 ) ;
#198 = VERTEX_POINT ( 'NONE', #243 ) ;
#199 = SHAPE_DEFINITION_REPRESENTATION ( #21, #175 ) ;
#200 = ORIENTED_EDGE ( 'NONE', *, *, #286, .T. ) ;
#201 = VERTEX_POINT ( 'NONE', #42 ) ;
#202 = ORIENTED_EDGE ( 'NONE', *, *, #49, .T. ) ;
#203 = EDGE_CURVE ( 'NONE', #47, #72, #221, .T. ) ;
#204 = CIRCLE ( 'NONE', #106, 0.3933072989999999991 ) ;
#205 =( NAMED_UNIT ( * ) SI_UNIT ( $, .STERADIAN. ) SOLID_ANGLE_UNIT ( ) );
#206 = VERTEX_POINT ( 'NONE', #15 ) ;
#207 = DIRECTION ( 'NONE',  ( 0.0000000000000000000, 0.0000000000000000000, 1.000000000000000000 ) ) ;
#208 = CARTESIAN_POINT ( 'NONE',  ( 1.834883142571182790E-16, 0.0000000000000000000, 1.498295789323664584 ) ) ;
#209 = DIMENSIONAL_EXPONENTS ( 1.000000000000000000, 0.0000000000000000000, 0.0000000000000000000, 0.0000000000000000000, 0.0000000000000000000, 0.0000000000000000000, 0.0000000000000000000 ) ;
#210 = DIRECTION ( 'NONE',  ( 0.0000000000000000000, 0.0000000000000000000, -1.000000000000000000 ) ) ;
#211 = AXIS2_PLACEMENT_3D ( 'NONE', #174, #241, #271 ) ;
#212 = MANIFOLD_SOLID_BREP ( 'Cut-Revolve1', #229 ) ;
#213 = CARTESIAN_POINT ( 'NONE',  ( 0.3933072990000002767, 0.0000000000000000000, 1.496062999999999921 ) ) ;
#214 = DIRECTION ( 'NONE',  ( -1.224646799147353207E-16, -0.0000000000000000000, -1.000000000000000000 ) ) ;
#215 = DIRECTION ( 'NONE',  ( 1.000000000000000000, 0.0000000000000000000, 0.0000000000000000000 ) ) ;
#216 = SURFACE_SIDE_STYLE ('',( #64 ) ) ;
#217 = ADVANCED_FACE ( 'NONE', ( #17 ), #194, .F. ) ;
#218 = CONICAL_SURFACE ( 'NONE', #67, 0.3787010000000002319, 0.7853981633974506105 ) ;
#219 = AXIS2_PLACEMENT_3D ( 'NONE', #259, #125, #76 ) ;
#220 = CARTESIAN_POINT ( 'NONE',  ( 5.898664692675622805E-33, 0.0000000000000000000, 4.816625248016410340E-17 ) ) ;
#221 = LINE ( 'NONE', #269, #134 ) ;
#222 = AXIS2_PLACEMENT_3D ( 'NONE', #208, #55, #189 ) ;
#223 = EDGE_LOOP ( 'NONE', ( #177, #224, #154, #91 ) ) ;
#224 = ORIENTED_EDGE ( 'NONE', *, *, #65, .T. ) ;
#225 = EDGE_CURVE ( 'NONE', #201, #135, #105, .T. ) ;
#226 = ORIENTED_EDGE ( 'NONE', *, *, #5, .T. ) ;
#227 = VERTEX_POINT ( 'NONE', #151 ) ;
#228 = DIRECTION ( 'NONE',  ( -0.7071067811865491270, 0.0000000000000000000, -0.7071067811865459074 ) ) ;
#229 = CLOSED_SHELL ( 'NONE', ( #98, #79, #73, #247, #240, #252, #120, #52, #293, #217 ) ) ;
#230 =( CONVERSION_BASED_UNIT ( 'INCH', #289 ) LENGTH_UNIT ( ) NAMED_UNIT ( #40 ) );
#231 = DIRECTION ( 'NONE',  ( -1.224646799147353207E-16, -0.0000000000000000000, -1.000000000000000000 ) ) ;
#232 = DIRECTION ( 'NONE',  ( -1.000000000000000000, 0.0000000000000000000, 0.0000000000000000000 ) ) ;
#233 = DIRECTION ( 'NONE',  ( -1.000000000000000000, 0.0000000000000000000, 0.0000000000000000000 ) ) ;
#234 = APPLICATION_PROTOCOL_DEFINITION ( 'draft international standard', 'automotive_design', 1998, #292 ) ;
#235 = DIRECTION ( 'NONE',  ( 0.0000000000000000000, 0.0000000000000000000, -1.000000000000000000 ) ) ;
#236 = AXIS2_PLACEMENT_3D ( 'NONE', #119, #282, #39 ) ;
#237 =( GEOMETRIC_REPRESENTATION_CONTEXT ( 3 ) GLOBAL_UNCERTAINTY_ASSIGNED_CONTEXT ( ( #29 ) ) GLOBAL_UNIT_ASSIGNED_CONTEXT ( ( #80, #137, #205 ) ) REPRESENTATION_CONTEXT ( 'NONE', 'WORKASPACE' ) );
#238 = DIRECTION ( 'NONE',  ( -1.000000000000000000, 0.0000000000000000000, 1.224646799147353207E-16 ) ) ;
#239 = FACE_OUTER_BOUND ( 'NONE', #90, .T. ) ;
#240 = ADVANCED_FACE ( 'NONE', ( #272 ), #168, .T. ) ;
#241 = DIRECTION ( 'NONE',  ( 0.0000000000000000000, 0.0000000000000000000, -1.000000000000000000 ) ) ;
#242 = CIRCLE ( 'NONE', #263, 0.3937009999999999676 ) ;
#243 = CARTESIAN_POINT ( 'NONE',  ( -0.3933072989999999991, 0.0000000000000000000, 9.633250496032820680E-17 ) ) ;
#244 = DIRECTION ( 'NONE',  ( -0.0000000000000000000, -0.0000000000000000000, -1.000000000000000000 ) ) ;
#245 = CIRCLE ( 'NONE', #279, 0.3787010000000002319 ) ;
#246 = CARTESIAN_POINT ( 'NONE',  ( 0.0000000000000000000, 0.0000000000000000000, 0.0000000000000000000 ) ) ;
#247 = ADVANCED_FACE ( 'NONE', ( #82 ), #38, .T. ) ;
#248 = VERTEX_POINT ( 'NONE', #265 ) ;
#249 = ORIENTED_EDGE ( 'NONE', *, *, #193, .T. ) ;
#250 = CIRCLE ( 'NONE', #211, 0.3937009999999999676 ) ;
#251 =( GEOMETRIC_REPRESENTATION_CONTEXT ( 3 ) GLOBAL_UNCERTAINTY_ASSIGNED_CONTEXT ( ( #116 ) ) GLOBAL_UNIT_ASSIGNED_CONTEXT ( ( #230, #63, #84 ) ) REPRESENTATION_CONTEXT ( 'NONE', 'WORKASPACE' ) );
#252 = ADVANCED_FACE ( 'NONE', ( #239 ), #118, .T. ) ;
#253 = PRODUCT_DEFINITION_CONTEXT ( 'detailed design', #26, 'design' ) ;
#254 = ORIENTED_EDGE ( 'NONE', *, *, #20, .F. ) ;
#255 = CARTESIAN_POINT ( 'NONE',  ( 0.3933072989999999991, 4.816625248016410340E-17, 7.582401355855259480E-33 ) ) ;
#256 = CARTESIAN_POINT ( 'NONE',  ( -0.3937009999999998011, 0.0000000000000000000, 1.498295789323664584 ) ) ;
#257 = PRODUCT_DEFINITION_FORMATION_WITH_SPECIFIED_SOURCE ( 'ANY', '', #86, .NOT_KNOWN. ) ;
#258 = LINE ( 'NONE', #261, #191 ) ;
#259 = CARTESIAN_POINT ( 'NONE',  ( 0.0000000000000000000, 0.0000000000000000000, 4.094488000000000127 ) ) ;
#260 = UNCERTAINTY_MEASURE_WITH_UNIT (LENGTH_MEASURE( 1.000000000000000082E-05 ), #87, 'distance_accuracy_value', 'NONE');
#261 = CARTESIAN_POINT ( 'NONE',  ( -0.3787010000000002319, 0.0000000000000000000, 4.094488000000000127 ) ) ;
#262 = DIRECTION ( 'NONE',  ( 0.1736481776669313581, 0.0000000000000000000, 0.9848077530122077983 ) ) ;
#263 = AXIS2_PLACEMENT_3D ( 'NONE', #9, #83, #126 ) ;
#264 = EDGE_CURVE ( 'NONE', #206, #22, #41, .T. ) ;
#265 = CARTESIAN_POINT ( 'NONE',  ( -0.3933072989999998881, 4.819035971363765816E-17, 1.496062999999999921 ) ) ;
#266 = DIRECTION ( 'NONE',  ( -1.224646799147353207E-16, -0.0000000000000000000, -1.000000000000000000 ) ) ;
#267 = SURFACE_STYLE_USAGE ( .BOTH. , #97 ) ;
#268 = DIRECTION ( 'NONE',  ( 1.000000000000000000, 0.0000000000000000000, 0.0000000000000000000 ) ) ;
#269 = CARTESIAN_POINT ( 'NONE',  ( -0.3937009999999999676, 0.0000000000000000000, 4.094488000000000127 ) ) ;
#270 = STYLED_ITEM ( 'NONE', ( #36 ), #175 ) ;
#271 = DIRECTION ( 'NONE',  ( 1.000000000000000000, 0.0000000000000000000, 0.0000000000000000000 ) ) ;
#272 = FACE_OUTER_BOUND ( 'NONE', #223, .T. ) ;
#273 = CIRCLE ( 'NONE', #27, 0.3933072990000000546 ) ;
#274 = VECTOR ( 'NONE', #214, 39.37007874015748143 ) ;
#275 = APPLICATION_PROTOCOL_DEFINITION ( 'draft international standard', 'automotive_design', 1998, #26 ) ;
#276 = ORIENTED_EDGE ( 'NONE', *, *, #111, .F. ) ;
#277 = EDGE_CURVE ( 'NONE', #248, #206, #273, .T. ) ;
#278 = VECTOR ( 'NONE', #231, 39.37007874015748143 ) ;
#279 = AXIS2_PLACEMENT_3D ( 'NONE', #10, #207, #12 ) ;
#280 = ORIENTED_EDGE ( 'NONE', *, *, #5, .F. ) ;
#281 = CARTESIAN_POINT ( 'NONE',  ( 1.832148764272786481E-16, 0.0000000000000000000, 1.496062999999999921 ) ) ;
#282 = DIRECTION ( 'NONE',  ( 1.224646799147353207E-16, 0.0000000000000000000, 1.000000000000000000 ) ) ;
#283 = ORIENTED_EDGE ( 'NONE', *, *, #152, .F. ) ;
#284 = DIRECTION ( 'NONE',  ( -1.000000000000000000, 0.0000000000000000000, 0.0000000000000000000 ) ) ;
#285 = DIRECTION ( 'NONE',  ( 0.0000000000000000000, 0.0000000000000000000, -1.000000000000000000 ) ) ;
#286 = EDGE_CURVE ( 'NONE', #28, #227, #245, .T. ) ;
#287 = DIRECTION ( 'NONE',  ( 1.000000000000000000, 0.0000000000000000000, 0.0000000000000000000 ) ) ;
#288 = VECTOR ( 'NONE', #146, 39.37007874015748143 ) ;
#289 = LENGTH_MEASURE_WITH_UNIT ( LENGTH_MEASURE( 0.02539999999999999897 ), #183 );
#290 = CARTESIAN_POINT ( 'NONE',  ( -0.3933072989999998881, 4.816625248016410956E-17, 1.496062999999999921 ) ) ;
#291 = DIRECTION ( 'NONE',  ( 0.0000000000000000000, 0.0000000000000000000, 1.000000000000000000 ) ) ;
#292 = APPLICATION_CONTEXT ( 'automotive_design' ) ;
#293 = ADVANCED_FACE ( 'NONE', ( #164 ), #121, .T. ) ;
#294 = DIRECTION ( 'NONE',  ( 0.0000000000000000000, 0.0000000000000000000, 1.000000000000000000 ) ) ;
#295 = CONICAL_SURFACE ( 'NONE', #236, 0.3933072990000000546, 0.1745329251994338637 ) ;
#296 = VECTOR ( 'NONE', #244, 39.37007874015748143 ) ;
#297 = PRESENTATION_STYLE_ASSIGNMENT (( #148 ) ) ;
#298 = EDGE_LOOP ( 'NONE', ( #115, #178, #283, #24 ) ) ;
#299 = STYLED_ITEM ( 'NONE', ( #297 ), #212 ) ;
ENDSEC;
END-ISO-10303-21;
