ISO-10303-21;
HEADER;
FILE_DESCRIPTION (( 'STEP AP214' ),
    '1' );
FILE_NAME ('Micro_SBMM-100-450.STEP',
    '2021-09-02T17:23:02',
    ( '' ),
    ( '' ),
    'SwSTEP 2.0',
    'SolidWorks 2020',
    '' );
FILE_SCHEMA (( 'AUTOMOTIVE_DESIGN' ));
ENDSEC;

DATA;
#1 = CARTESIAN_POINT ( 'NONE',  ( 0.0000000000000000000, 0.0000000000000000000, 3.922007999999999051 ) ) ;
#2 = CIRCLE ( 'NONE', #135, 0.1968500000000000250 ) ;
#3 = VECTOR ( 'NONE', #284, 39.37007874015748143 ) ;
#4 = CARTESIAN_POINT ( 'NONE',  ( 0.0000000000000000000, 0.0000000000000000000, 0.1968500000000000250 ) ) ;
#5 = EDGE_CURVE ( 'NONE', #258, #285, #68, .T. ) ;
#6 = APPLICATION_PROTOCOL_DEFINITION ( 'draft international standard', 'automotive_design', 1998, #216 ) ;
#7 = ORIENTED_EDGE ( 'NONE', *, *, #251, .F. ) ;
#8 = CIRCLE ( 'NONE', #127, 0.1318899999999999517 ) ;
#9 = ORIENTED_EDGE ( 'NONE', *, *, #251, .T. ) ;
#10 = DIRECTION ( 'NONE',  ( -1.000000000000000000, 0.0000000000000000000, 0.0000000000000000000 ) ) ;
#11 = EDGE_CURVE ( 'NONE', #280, #285, #130, .T. ) ;
#12 = ORIENTED_EDGE ( 'NONE', *, *, #23, .F. ) ;
#13 = PRODUCT_CONTEXT ( 'NONE', #216, 'mechanical' ) ;
#14 = ADVANCED_BREP_SHAPE_REPRESENTATION ( 'Micro_SBMM-100-450', ( #248, #109 ), #114 ) ;
#15 = VERTEX_POINT ( 'NONE', #50 ) ;
#16 = PRODUCT_DEFINITION_FORMATION_WITH_SPECIFIED_SOURCE ( 'ANY', '', #281, .NOT_KNOWN. ) ;
#17 =( LENGTH_UNIT ( ) NAMED_UNIT ( * ) SI_UNIT ( $, .METRE. ) );
#18 = CARTESIAN_POINT ( 'NONE',  ( 0.0000000000000000000, 0.0000000000000000000, 0.1968500000000000250 ) ) ;
#19 = ADVANCED_FACE ( 'NONE', ( #321 ), #218, .T. ) ;
#20 = VERTEX_POINT ( 'NONE', #338 ) ;
#21 =( NAMED_UNIT ( * ) PLANE_ANGLE_UNIT ( ) SI_UNIT ( $, .RADIAN. ) );
#22 = DIRECTION ( 'NONE',  ( -1.224646799147353207E-16, 1.000000000000000000, 0.0000000000000000000 ) ) ;
#23 = EDGE_CURVE ( 'NONE', #283, #258, #41, .T. ) ;
#24 = AXIS2_PLACEMENT_3D ( 'NONE', #320, #267, #75 ) ;
#25 = ORIENTED_EDGE ( 'NONE', *, *, #11, .T. ) ;
#26 = DIRECTION ( 'NONE',  ( 0.0000000000000000000, 0.0000000000000000000, 1.000000000000000000 ) ) ;
#27 = DIRECTION ( 'NONE',  ( -1.000000000000000000, 0.0000000000000000000, 0.0000000000000000000 ) ) ;
#28 = DIMENSIONAL_EXPONENTS ( 1.000000000000000000, 0.0000000000000000000, 0.0000000000000000000, 0.0000000000000000000, 0.0000000000000000000, 0.0000000000000000000, 0.0000000000000000000 ) ;
#29 = DIRECTION ( 'NONE',  ( 1.000000000000000000, 0.0000000000000000000, 0.0000000000000000000 ) ) ;
#30 = AXIS2_PLACEMENT_3D ( 'NONE', #60, #165, #10 ) ;
#31 = PRODUCT_DEFINITION ( 'UNKNOWN', '', #16, #189 ) ;
#32 = SURFACE_SIDE_STYLE ('',( #77 ) ) ;
#33 = CARTESIAN_POINT ( 'NONE',  ( 0.0000000000000000000, 0.0000000000000000000, 0.1968500000000000250 ) ) ;
#34 = FILL_AREA_STYLE ('',( #188 ) ) ;
#35 = CIRCLE ( 'NONE', #199, 0.1968504999999999838 ) ;
#36 = FACE_OUTER_BOUND ( 'NONE', #66, .T. ) ;
#37 = ORIENTED_EDGE ( 'NONE', *, *, #118, .F. ) ;
#38 = VERTEX_POINT ( 'NONE', #76 ) ;
#39 = ORIENTED_EDGE ( 'NONE', *, *, #45, .T. ) ;
#40 = AXIS2_PLACEMENT_3D ( 'NONE', #18, #131, #22 ) ;
#41 = CIRCLE ( 'NONE', #239, 0.1318899999999999517 ) ;
#42 = EDGE_CURVE ( 'NONE', #258, #214, #238, .T. ) ;
#43 =( NAMED_UNIT ( * ) SI_UNIT ( $, .STERADIAN. ) SOLID_ANGLE_UNIT ( ) );
#44 = ORIENTED_EDGE ( 'NONE', *, *, #314, .T. ) ;
#45 = EDGE_CURVE ( 'NONE', #307, #20, #184, .T. ) ;
#46 = ORIENTED_EDGE ( 'NONE', *, *, #104, .F. ) ;
#47 = DIRECTION ( 'NONE',  ( -1.000000000000000000, 0.0000000000000000000, 0.0000000000000000000 ) ) ;
#48 = EDGE_CURVE ( 'NONE', #38, #214, #2, .T. ) ;
#49 = AXIS2_PLACEMENT_3D ( 'NONE', #298, #276, #27 ) ;
#50 = CARTESIAN_POINT ( 'NONE',  ( -0.1968504999999999838, 0.0000000000000000000, 3.922007999999999051 ) ) ;
#51 = CYLINDRICAL_SURFACE ( 'NONE', #323, 0.1318899999999998685 ) ;
#52 = FACE_OUTER_BOUND ( 'NONE', #333, .T. ) ;
#53 = ORIENTED_EDGE ( 'NONE', *, *, #236, .F. ) ;
#54 = UNCERTAINTY_MEASURE_WITH_UNIT (LENGTH_MEASURE( 1.000000000000000082E-05 ), #201, 'distance_accuracy_value', 'NONE');
#55 = DIRECTION ( 'NONE',  ( 0.0000000000000000000, 0.0000000000000000000, 1.000000000000000000 ) ) ;
#56 = CARTESIAN_POINT ( 'NONE',  ( 0.0000000000000000000, 0.0000000000000000000, 2.430208303031071271 ) ) ;
#57 = SPHERICAL_SURFACE ( 'NONE', #191, 0.1968500000000000250 ) ;
#58 = LINE ( 'NONE', #243, #301 ) ;
#59 = DIRECTION ( 'NONE',  ( -0.0000000000000000000, -0.0000000000000000000, -1.000000000000000000 ) ) ;
#60 = CARTESIAN_POINT ( 'NONE',  ( 0.0000000000000000000, 0.0000000000000000000, 3.937007999999999619 ) ) ;
#61 = EDGE_LOOP ( 'NONE', ( #46, #92, #154, #228 ) ) ;
#62 = CIRCLE ( 'NONE', #278, 0.1968504999999999838 ) ;
#63 = CARTESIAN_POINT ( 'NONE',  ( 0.0000000000000000000, 0.0000000000000000000, 3.937007999999999619 ) ) ;
#64 = ORIENTED_EDGE ( 'NONE', *, *, #155, .F. ) ;
#65 = FACE_OUTER_BOUND ( 'NONE', #337, .T. ) ;
#66 = EDGE_LOOP ( 'NONE', ( #202, #311, #206, #141 ) ) ;
#67 = LINE ( 'NONE', #287, #81 ) ;
#68 = CIRCLE ( 'NONE', #24, 0.1318899999999999517 ) ;
#69 = MECHANICAL_DESIGN_GEOMETRIC_PRESENTATION_REPRESENTATION (  '', ( #100 ), #268 ) ;
#70 = LINE ( 'NONE', #147, #3 ) ;
#71 =( CONVERSION_BASED_UNIT ( 'INCH', #174 ) LENGTH_UNIT ( ) NAMED_UNIT ( #246 ) );
#72 = CARTESIAN_POINT ( 'NONE',  ( 0.0000000000000000000, 0.0000000000000000000, 3.937007999999999619 ) ) ;
#73 = DIRECTION ( 'NONE',  ( -1.000000000000000000, 0.0000000000000000000, 0.0000000000000000000 ) ) ;
#74 = DIRECTION ( 'NONE',  ( -0.1803273764767827636, 2.208373444009317402E-17, 0.9836066476457958618 ) ) ;
#75 = DIRECTION ( 'NONE',  ( -1.000000000000000000, 0.0000000000000000000, 0.0000000000000000000 ) ) ;
#76 = CARTESIAN_POINT ( 'NONE',  ( 0.0000000000000000000, 0.1318899999999999795, 0.3429833309002433550 ) ) ;
#77 = SURFACE_STYLE_FILL_AREA ( #34 ) ;
#78 = DIRECTION ( 'NONE',  ( 1.000000000000000000, 0.0000000000000000000, 0.0000000000000000000 ) ) ;
#79 = CARTESIAN_POINT ( 'NONE',  ( 0.0000000000000000000, 0.0000000000000000000, 0.3429833309002433550 ) ) ;
#80 = DIRECTION ( 'NONE',  ( 0.0000000000000000000, 0.0000000000000000000, 1.000000000000000000 ) ) ;
#81 = VECTOR ( 'NONE', #305, 39.37007874015748143 ) ;
#82 = AXIS2_PLACEMENT_3D ( 'NONE', #1, #220, #78 ) ;
#83 = FACE_OUTER_BOUND ( 'NONE', #99, .T. ) ;
#84 = LENGTH_MEASURE_WITH_UNIT ( LENGTH_MEASURE( 0.02539999999999999897 ), #255 );
#85 = ADVANCED_FACE ( 'NONE', ( #52 ), #242, .T. ) ;
#86 = DIRECTION ( 'NONE',  ( -0.0000000000000000000, -0.0000000000000000000, -1.000000000000000000 ) ) ;
#87 = ORIENTED_EDGE ( 'NONE', *, *, #123, .T. ) ;
#88 = AXIS2_PLACEMENT_3D ( 'NONE', #235, #261, #294 ) ;
#89 = DIRECTION ( 'NONE',  ( 1.000000000000000000, 0.0000000000000000000, 0.0000000000000000000 ) ) ;
#90 = ORIENTED_EDGE ( 'NONE', *, *, #342, .T. ) ;
#91 = CYLINDRICAL_SURFACE ( 'NONE', #30, 0.1968504999999999838 ) ;
#92 = ORIENTED_EDGE ( 'NONE', *, *, #164, .F. ) ;
#93 = CARTESIAN_POINT ( 'NONE',  ( -0.1968504999999999838, 0.0000000000000000000, 2.322834999999999983 ) ) ;
#94 = ORIENTED_EDGE ( 'NONE', *, *, #172, .F. ) ;
#95 = CONICAL_SURFACE ( 'NONE', #231, 0.1818504999999994431, 0.7853981633974403964 ) ;
#96 = CARTESIAN_POINT ( 'NONE',  ( -0.2165355499999997713, 2.651795682091113752E-17, 2.430208303031071271 ) ) ;
#97 = ORIENTED_EDGE ( 'NONE', *, *, #257, .T. ) ;
#98 = APPLICATION_PROTOCOL_DEFINITION ( 'draft international standard', 'automotive_design', 1998, #159 ) ;
#99 = EDGE_LOOP ( 'NONE', ( #149, #304, #230, #140 ) ) ;
#100 = STYLED_ITEM ( 'NONE', ( #187 ), #248 ) ;
#101 = FILL_AREA_STYLE ('',( #151 ) ) ;
#102 = VERTEX_POINT ( 'NONE', #105 ) ;
#103 = SURFACE_SIDE_STYLE ('',( #241 ) ) ;
#104 = EDGE_CURVE ( 'NONE', #280, #259, #132, .T. ) ;
#105 = CARTESIAN_POINT ( 'NONE',  ( 0.1968504999999999838, 2.410723347355560646E-17, 2.322834999999999983 ) ) ;
#106 = UNCERTAINTY_MEASURE_WITH_UNIT (LENGTH_MEASURE( 1.000000000000000082E-05 ), #332, 'distance_accuracy_value', 'NONE');
#107 = FACE_OUTER_BOUND ( 'NONE', #260, .T. ) ;
#108 = ADVANCED_FACE ( 'NONE', ( #293 ), #51, .T. ) ;
#109 = AXIS2_PLACEMENT_3D ( 'NONE', #181, #319, #336 ) ;
#110 = ADVANCED_FACE ( 'NONE', ( #176 ), #95, .T. ) ;
#111 = FACE_OUTER_BOUND ( 'NONE', #291, .T. ) ;
#112 = DIRECTION ( 'NONE',  ( -1.000000000000000000, 0.0000000000000000000, 0.0000000000000000000 ) ) ;
#113 = CARTESIAN_POINT ( 'NONE',  ( 0.0000000000000000000, 0.0000000000000000000, 2.322834999999999983 ) ) ;
#114 =( GEOMETRIC_REPRESENTATION_CONTEXT ( 3 ) GLOBAL_UNCERTAINTY_ASSIGNED_CONTEXT ( ( #106 ) ) GLOBAL_UNIT_ASSIGNED_CONTEXT ( ( #332, #225, #195 ) ) REPRESENTATION_CONTEXT ( 'NONE', 'WORKASPACE' ) );
#115 = CARTESIAN_POINT ( 'NONE',  ( 1.615186663395443625E-17, -0.1318899999999999795, 0.3429833309002433550 ) ) ;
#116 = EDGE_CURVE ( 'NONE', #285, #38, #227, .T. ) ;
#117 = ORIENTED_EDGE ( 'NONE', *, *, #257, .F. ) ;
#118 = EDGE_CURVE ( 'NONE', #102, #259, #62, .T. ) ;
#119 = EDGE_CURVE ( 'NONE', #166, #283, #58, .T. ) ;
#120 = ORIENTED_EDGE ( 'NONE', *, *, #118, .T. ) ;
#121 = DIRECTION ( 'NONE',  ( 1.000000000000000000, 0.0000000000000000000, 0.0000000000000000000 ) ) ;
#122 = ORIENTED_EDGE ( 'NONE', *, *, #172, .T. ) ;
#123 = EDGE_CURVE ( 'NONE', #259, #102, #150, .T. ) ;
#124 = DIRECTION ( 'NONE',  ( -1.000000000000000000, 0.0000000000000000000, 0.0000000000000000000 ) ) ;
#125 = ORIENTED_EDGE ( 'NONE', *, *, #45, .F. ) ;
#126 = VERTEX_POINT ( 'NONE', #157 ) ;
#127 = AXIS2_PLACEMENT_3D ( 'NONE', #79, #325, #322 ) ;
#128 = CARTESIAN_POINT ( 'NONE',  ( 0.0000000000000000000, 0.0000000000000000000, 0.0000000000000000000 ) ) ;
#129 = ORIENTED_EDGE ( 'NONE', *, *, #183, .F. ) ;
#130 = LINE ( 'NONE', #264, #186 ) ;
#131 = DIRECTION ( 'NONE',  ( 1.000000000000000000, 1.224646799147353207E-16, -0.0000000000000000000 ) ) ;
#132 = LINE ( 'NONE', #96, #330 ) ;
#133 = DIRECTION ( 'NONE',  ( 1.000000000000000000, 0.0000000000000000000, 0.0000000000000000000 ) ) ;
#134 = PRODUCT_RELATED_PRODUCT_CATEGORY ( 'part', '', ( #281 ) ) ;
#135 = AXIS2_PLACEMENT_3D ( 'NONE', #316, #210, #26 ) ;
#136 = LINE ( 'NONE', #271, #177 ) ;
#137 = DIRECTION ( 'NONE',  ( 1.000000000000000000, 0.0000000000000000000, -0.0000000000000000000 ) ) ;
#138 = DIRECTION ( 'NONE',  ( 0.0000000000000000000, 0.0000000000000000000, 1.000000000000000000 ) ) ;
#139 = DIRECTION ( 'NONE',  ( 0.0000000000000000000, 0.0000000000000000000, -1.000000000000000000 ) ) ;
#140 = ORIENTED_EDGE ( 'NONE', *, *, #48, .T. ) ;
#141 = ORIENTED_EDGE ( 'NONE', *, *, #48, .F. ) ;
#142 = PRODUCT_DEFINITION_SHAPE ( 'NONE', 'NONE',  #31 ) ;
#143 = CARTESIAN_POINT ( 'NONE',  ( 0.1818504999999994431, 2.318874837419505661E-17, 3.937007999999999619 ) ) ;
#144 = EDGE_LOOP ( 'NONE', ( #125, #339, #340, #117 ) ) ;
#145 = CLOSED_SHELL ( 'NONE', ( #85, #275, #244, #19, #263, #179, #204, #110, #178, #194, #108 ) ) ;
#146 = AXIS2_PLACEMENT_3D ( 'NONE', #250, #252, #221 ) ;
#147 = CARTESIAN_POINT ( 'NONE',  ( 0.1968504999999999838, 2.410723347355560646E-17, 3.937007999999999619 ) ) ;
#148 = ORIENTED_EDGE ( 'NONE', *, *, #5, .F. ) ;
#149 = ORIENTED_EDGE ( 'NONE', *, *, #42, .F. ) ;
#150 = CIRCLE ( 'NONE', #343, 0.1968504999999999838 ) ;
#151 = FILL_AREA_STYLE_COLOUR ( '', #233 ) ;
#152 = DIRECTION ( 'NONE',  ( 0.0000000000000000000, 0.0000000000000000000, -1.000000000000000000 ) ) ;
#153 = DIRECTION ( 'NONE',  ( -1.000000000000000000, 0.0000000000000000000, 0.0000000000000000000 ) ) ;
#154 = ORIENTED_EDGE ( 'NONE', *, *, #155, .T. ) ;
#155 = EDGE_CURVE ( 'NONE', #166, #102, #136, .T. ) ;
#156 = ORIENTED_EDGE ( 'NONE', *, *, #119, .F. ) ;
#157 = CARTESIAN_POINT ( 'NONE',  ( -0.1818504999999994431, 0.0000000000000000000, 3.937007999999999619 ) ) ;
#158 = DIRECTION ( 'NONE',  ( 0.0000000000000000000, 1.000000000000000000, 0.0000000000000000000 ) ) ;
#159 = APPLICATION_CONTEXT ( 'automotive_design' ) ;
#160 = CARTESIAN_POINT ( 'NONE',  ( 0.0000000000000000000, 0.0000000000000000000, 2.322834999999999983 ) ) ;
#161 = CARTESIAN_POINT ( 'NONE',  ( 0.1318899999999997574, 0.0000000000000000000, 1.968503999999999809 ) ) ;
#162 =( GEOMETRIC_REPRESENTATION_CONTEXT ( 3 ) GLOBAL_UNCERTAINTY_ASSIGNED_CONTEXT ( ( #185 ) ) GLOBAL_UNIT_ASSIGNED_CONTEXT ( ( #71, #21, #266 ) ) REPRESENTATION_CONTEXT ( 'NONE', 'WORKASPACE' ) );
#163 = ORIENTED_EDGE ( 'NONE', *, *, #269, .T. ) ;
#164 = EDGE_CURVE ( 'NONE', #166, #280, #197, .T. ) ;
#165 = DIRECTION ( 'NONE',  ( -0.0000000000000000000, -0.0000000000000000000, -1.000000000000000000 ) ) ;
#166 = VERTEX_POINT ( 'NONE', #161 ) ;
#167 = CARTESIAN_POINT ( 'NONE',  ( 0.0000000000000000000, 0.0000000000000000000, 3.922007999999999051 ) ) ;
#168 = EDGE_LOOP ( 'NONE', ( #7, #289, #37, #64 ) ) ;
#169 = DIRECTION ( 'NONE',  ( 0.0000000000000000000, 0.0000000000000000000, 1.000000000000000000 ) ) ;
#170 = ORIENTED_EDGE ( 'NONE', *, *, #183, .T. ) ;
#171 = AXIS2_PLACEMENT_3D ( 'NONE', #56, #55, #277 ) ;
#172 = EDGE_CURVE ( 'NONE', #15, #259, #299, .T. ) ;
#173 = EDGE_LOOP ( 'NONE', ( #156, #200, #25, #148, #12 ) ) ;
#174 = LENGTH_MEASURE_WITH_UNIT ( LENGTH_MEASURE( 0.02539999999999999897 ), #17 );
#175 = CARTESIAN_POINT ( 'NONE',  ( 0.0000000000000000000, 0.0000000000000000000, 0.3429833309002433550 ) ) ;
#176 = FACE_OUTER_BOUND ( 'NONE', #144, .T. ) ;
#177 = VECTOR ( 'NONE', #345, 39.37007874015747433 ) ;
#178 = ADVANCED_FACE ( 'NONE', ( #192 ), #302, .T. ) ;
#179 = ADVANCED_FACE ( 'NONE', ( #111 ), #190, .T. ) ;
#180 = ORIENTED_EDGE ( 'NONE', *, *, #342, .F. ) ;
#181 = CARTESIAN_POINT ( 'NONE',  ( 0.0000000000000000000, 0.0000000000000000000, 0.0000000000000000000 ) ) ;
#182 = ORIENTED_EDGE ( 'NONE', *, *, #329, .F. ) ;
#183 = EDGE_CURVE ( 'NONE', #15, #20, #286, .T. ) ;
#184 = LINE ( 'NONE', #209, #222 ) ;
#185 = UNCERTAINTY_MEASURE_WITH_UNIT (LENGTH_MEASURE( 1.000000000000000082E-05 ), #71, 'distance_accuracy_value', 'NONE');
#186 = VECTOR ( 'NONE', #265, 39.37007874015748143 ) ;
#187 = PRESENTATION_STYLE_ASSIGNMENT (( #297 ) ) ;
#188 = FILL_AREA_STYLE_COLOUR ( '', #324 ) ;
#189 = PRODUCT_DEFINITION_CONTEXT ( 'detailed design', #159, 'design' ) ;
#190 = CYLINDRICAL_SURFACE ( 'NONE', #49, 0.1968504999999999838 ) ;
#191 = AXIS2_PLACEMENT_3D ( 'NONE', #33, #133, #158 ) ;
#192 = FACE_OUTER_BOUND ( 'NONE', #61, .T. ) ;
#193 = CARTESIAN_POINT ( 'NONE',  ( 0.0000000000000000000, 1.205358612060782468E-17, 0.0000000000000000000 ) ) ;
#194 = ADVANCED_FACE ( 'NONE', ( #83 ), #57, .T. ) ;
#195 =( NAMED_UNIT ( * ) SI_UNIT ( $, .STERADIAN. ) SOLID_ANGLE_UNIT ( ) );
#196 = ORIENTED_EDGE ( 'NONE', *, *, #119, .T. ) ;
#197 = CIRCLE ( 'NONE', #247, 0.1318899999999997574 ) ;
#198 = CARTESIAN_POINT ( 'NONE',  ( -0.1318899999999999517, 0.0000000000000000000, 0.3429833309002433550 ) ) ;
#199 = AXIS2_PLACEMENT_3D ( 'NONE', #167, #139, #303 ) ;
#200 = ORIENTED_EDGE ( 'NONE', *, *, #164, .T. ) ;
#201 =( CONVERSION_BASED_UNIT ( 'INCH', #219 ) LENGTH_UNIT ( ) NAMED_UNIT ( #215 ) );
#202 = ORIENTED_EDGE ( 'NONE', *, *, #236, .T. ) ;
#203 = DIRECTION ( 'NONE',  ( 0.0000000000000000000, 1.000000000000000000, 0.0000000000000000000 ) ) ;
#204 = ADVANCED_FACE ( 'NONE', ( #107 ), #326, .T. ) ;
#205 = AXIS2_PLACEMENT_3D ( 'NONE', #128, #234, #317 ) ;
#206 = ORIENTED_EDGE ( 'NONE', *, *, #42, .T. ) ;
#207 = CONICAL_SURFACE ( 'NONE', #171, 0.2165355499999997713, 0.1813192738195756881 ) ;
#208 = CARTESIAN_POINT ( 'NONE',  ( 0.0000000000000000000, 0.0000000000000000000, 0.0000000000000000000 ) ) ;
#209 = CARTESIAN_POINT ( 'NONE',  ( 0.1818504999999994431, 2.227026327483450676E-17, 3.937007999999999619 ) ) ;
#210 = DIRECTION ( 'NONE',  ( -1.000000000000000000, 0.0000000000000000000, 0.0000000000000000000 ) ) ;
#211 = CIRCLE ( 'NONE', #292, 0.1818504999999994431 ) ;
#212 = ORIENTED_EDGE ( 'NONE', *, *, #116, .F. ) ;
#213 = SURFACE_STYLE_USAGE ( .BOTH. , #103 ) ;
#214 = VERTEX_POINT ( 'NONE', #193 ) ;
#215 = DIMENSIONAL_EXPONENTS ( 1.000000000000000000, 0.0000000000000000000, 0.0000000000000000000, 0.0000000000000000000, 0.0000000000000000000, 0.0000000000000000000, 0.0000000000000000000 ) ;
#216 = APPLICATION_CONTEXT ( 'automotive_design' ) ;
#217 = CARTESIAN_POINT ( 'NONE',  ( 0.0000000000000000000, 0.0000000000000000000, 3.937007999999999619 ) ) ;
#218 = CONICAL_SURFACE ( 'NONE', #88, 0.1818504999999994431, 0.7853981633974403964 ) ;
#219 = LENGTH_MEASURE_WITH_UNIT ( LENGTH_MEASURE( 0.02539999999999999897 ), #296 );
#220 = DIRECTION ( 'NONE',  ( 0.0000000000000000000, 0.0000000000000000000, -1.000000000000000000 ) ) ;
#221 = DIRECTION ( 'NONE',  ( 1.000000000000000000, 0.0000000000000000000, 0.0000000000000000000 ) ) ;
#222 = VECTOR ( 'NONE', #237, 39.37007874015748143 ) ;
#223 = PRESENTATION_LAYER_ASSIGNMENT (  '', '', ( #100 ) ) ;
#224 = DIRECTION ( 'NONE',  ( 1.000000000000000000, 0.0000000000000000000, 0.0000000000000000000 ) ) ;
#225 =( NAMED_UNIT ( * ) PLANE_ANGLE_UNIT ( ) SI_UNIT ( $, .RADIAN. ) );
#226 = ORIENTED_EDGE ( 'NONE', *, *, #269, .F. ) ;
#227 = CIRCLE ( 'NONE', #308, 0.1318899999999999517 ) ;
#228 = ORIENTED_EDGE ( 'NONE', *, *, #123, .F. ) ;
#229 = CARTESIAN_POINT ( 'NONE',  ( 0.0000000000000000000, 0.0000000000000000000, 3.937007999999999619 ) ) ;
#230 = ORIENTED_EDGE ( 'NONE', *, *, #116, .T. ) ;
#231 = AXIS2_PLACEMENT_3D ( 'NONE', #72, #152, #153 ) ;
#232 = EDGE_LOOP ( 'NONE', ( #226, #39, #129, #182 ) ) ;
#233 = COLOUR_RGB ( '',0.7921568627450980005, 0.8196078431372548767, 0.9333333333333333481 ) ;
#234 = DIRECTION ( 'NONE',  ( -0.0000000000000000000, -0.0000000000000000000, -1.000000000000000000 ) ) ;
#235 = CARTESIAN_POINT ( 'NONE',  ( 0.0000000000000000000, 0.0000000000000000000, 3.937007999999999619 ) ) ;
#236 = EDGE_CURVE ( 'NONE', #38, #283, #8, .T. ) ;
#237 = DIRECTION ( 'NONE',  ( 0.7071067811865419106, 8.659560562354863833E-17, -0.7071067811865531239 ) ) ;
#238 = CIRCLE ( 'NONE', #40, 0.1968500000000000250 ) ;
#239 = AXIS2_PLACEMENT_3D ( 'NONE', #270, #295, #335 ) ;
#240 = AXIS2_PLACEMENT_3D ( 'NONE', #229, #138, #89 ) ;
#241 = SURFACE_STYLE_FILL_AREA ( #101 ) ;
#242 = CYLINDRICAL_SURFACE ( 'NONE', #205, 0.1318899999999998685 ) ;
#243 = CARTESIAN_POINT ( 'NONE',  ( 0.1318899999999998685, 1.615186663395442393E-17, 0.0000000000000000000 ) ) ;
#244 = ADVANCED_FACE ( 'NONE', ( #274 ), #207, .T. ) ;
#245 = CARTESIAN_POINT ( 'NONE',  ( -0.1968504999999999838, 0.0000000000000000000, 3.937007999999999619 ) ) ;
#246 = DIMENSIONAL_EXPONENTS ( 1.000000000000000000, 0.0000000000000000000, 0.0000000000000000000, 0.0000000000000000000, 0.0000000000000000000, 0.0000000000000000000, 0.0000000000000000000 ) ;
#247 = AXIS2_PLACEMENT_3D ( 'NONE', #272, #59, #112 ) ;
#248 = MANIFOLD_SOLID_BREP ( 'Cut-Revolve3', #145 ) ;
#249 = AXIS2_PLACEMENT_3D ( 'NONE', #4, #121, #203 ) ;
#250 = CARTESIAN_POINT ( 'NONE',  ( 0.0000000000000000000, 0.0000000000000000000, 2.430208303031071271 ) ) ;
#251 = EDGE_CURVE ( 'NONE', #280, #166, #331, .T. ) ;
#252 = DIRECTION ( 'NONE',  ( 0.0000000000000000000, 0.0000000000000000000, 1.000000000000000000 ) ) ;
#253 = DIRECTION ( 'NONE',  ( -0.0000000000000000000, -0.0000000000000000000, -1.000000000000000000 ) ) ;
#254 = AXIS2_PLACEMENT_3D ( 'NONE', #341, #86, #124 ) ;
#255 =( LENGTH_UNIT ( ) NAMED_UNIT ( * ) SI_UNIT ( $, .METRE. ) );
#256 = SPHERICAL_SURFACE ( 'NONE', #249, 0.1968500000000000250 ) ;
#257 = EDGE_CURVE ( 'NONE', #20, #15, #35, .T. ) ;
#258 = VERTEX_POINT ( 'NONE', #115 ) ;
#259 = VERTEX_POINT ( 'NONE', #93 ) ;
#260 = EDGE_LOOP ( 'NONE', ( #44, #163 ) ) ;
#261 = DIRECTION ( 'NONE',  ( 0.0000000000000000000, 0.0000000000000000000, -1.000000000000000000 ) ) ;
#262 = MECHANICAL_DESIGN_GEOMETRIC_PRESENTATION_REPRESENTATION (  '', ( #318 ), #162 ) ;
#263 = ADVANCED_FACE ( 'NONE', ( #65 ), #91, .T. ) ;
#264 = CARTESIAN_POINT ( 'NONE',  ( -0.1318899999999998685, 0.0000000000000000000, 0.0000000000000000000 ) ) ;
#265 = DIRECTION ( 'NONE',  ( -0.0000000000000000000, -0.0000000000000000000, -1.000000000000000000 ) ) ;
#266 =( NAMED_UNIT ( * ) SI_UNIT ( $, .STERADIAN. ) SOLID_ANGLE_UNIT ( ) );
#267 = DIRECTION ( 'NONE',  ( -0.0000000000000000000, -0.0000000000000000000, -1.000000000000000000 ) ) ;
#268 =( GEOMETRIC_REPRESENTATION_CONTEXT ( 3 ) GLOBAL_UNCERTAINTY_ASSIGNED_CONTEXT ( ( #54 ) ) GLOBAL_UNIT_ASSIGNED_CONTEXT ( ( #201, #282, #43 ) ) REPRESENTATION_CONTEXT ( 'NONE', 'WORKASPACE' ) );
#269 = EDGE_CURVE ( 'NONE', #307, #126, #288, .T. ) ;
#270 = CARTESIAN_POINT ( 'NONE',  ( 0.0000000000000000000, 0.0000000000000000000, 0.3429833309002433550 ) ) ;
#271 = CARTESIAN_POINT ( 'NONE',  ( 0.2165355499999997713, 0.0000000000000000000, 2.430208303031071271 ) ) ;
#272 = CARTESIAN_POINT ( 'NONE',  ( 0.0000000000000000000, 0.0000000000000000000, 1.968503999999999809 ) ) ;
#273 = VECTOR ( 'NONE', #253, 39.37007874015748143 ) ;
#274 = FACE_OUTER_BOUND ( 'NONE', #168, .T. ) ;
#275 = ADVANCED_FACE ( 'NONE', ( #36 ), #256, .T. ) ;
#276 = DIRECTION ( 'NONE',  ( -0.0000000000000000000, -0.0000000000000000000, -1.000000000000000000 ) ) ;
#277 = DIRECTION ( 'NONE',  ( 1.000000000000000000, 0.0000000000000000000, 0.0000000000000000000 ) ) ;
#278 = AXIS2_PLACEMENT_3D ( 'NONE', #113, #300, #224 ) ;
#279 = CARTESIAN_POINT ( 'NONE',  ( 0.1318899999999999517, 1.615186663395443625E-17, 0.3429833309002433550 ) ) ;
#280 = VERTEX_POINT ( 'NONE', #310 ) ;
#281 = PRODUCT ( 'Micro_SBMM-100-450', 'Micro_SBMM-100-450', '', ( #13 ) ) ;
#282 =( NAMED_UNIT ( * ) PLANE_ANGLE_UNIT ( ) SI_UNIT ( $, .RADIAN. ) );
#283 = VERTEX_POINT ( 'NONE', #279 ) ;
#284 = DIRECTION ( 'NONE',  ( -0.0000000000000000000, -0.0000000000000000000, -1.000000000000000000 ) ) ;
#285 = VERTEX_POINT ( 'NONE', #198 ) ;
#286 = CIRCLE ( 'NONE', #82, 0.1968504999999999838 ) ;
#287 = CARTESIAN_POINT ( 'NONE',  ( -0.1818504999999994431, 0.0000000000000000000, 3.937007999999999619 ) ) ;
#288 = CIRCLE ( 'NONE', #240, 0.1818504999999994431 ) ;
#289 = ORIENTED_EDGE ( 'NONE', *, *, #104, .T. ) ;
#290 = DIRECTION ( 'NONE',  ( -0.0000000000000000000, -0.0000000000000000000, -1.000000000000000000 ) ) ;
#291 = EDGE_LOOP ( 'NONE', ( #180, #97, #122, #87 ) ) ;
#292 = AXIS2_PLACEMENT_3D ( 'NONE', #63, #169, #306 ) ;
#293 = FACE_OUTER_BOUND ( 'NONE', #173, .T. ) ;
#294 = DIRECTION ( 'NONE',  ( -1.000000000000000000, 0.0000000000000000000, 0.0000000000000000000 ) ) ;
#295 = DIRECTION ( 'NONE',  ( -0.0000000000000000000, -0.0000000000000000000, -1.000000000000000000 ) ) ;
#296 =( LENGTH_UNIT ( ) NAMED_UNIT ( * ) SI_UNIT ( $, .METRE. ) );
#297 = SURFACE_STYLE_USAGE ( .BOTH. , #32 ) ;
#298 = CARTESIAN_POINT ( 'NONE',  ( 0.0000000000000000000, 0.0000000000000000000, 3.937007999999999619 ) ) ;
#299 = LINE ( 'NONE', #245, #273 ) ;
#300 = DIRECTION ( 'NONE',  ( 0.0000000000000000000, 0.0000000000000000000, 1.000000000000000000 ) ) ;
#301 = VECTOR ( 'NONE', #328, 39.37007874015748143 ) ;
#302 = CONICAL_SURFACE ( 'NONE', #146, 0.2165355499999997713, 0.1813192738195756881 ) ;
#303 = DIRECTION ( 'NONE',  ( 1.000000000000000000, 0.0000000000000000000, 0.0000000000000000000 ) ) ;
#304 = ORIENTED_EDGE ( 'NONE', *, *, #5, .T. ) ;
#305 = DIRECTION ( 'NONE',  ( -0.7071067811865419106, 0.0000000000000000000, -0.7071067811865531239 ) ) ;
#306 = DIRECTION ( 'NONE',  ( 1.000000000000000000, 0.0000000000000000000, 0.0000000000000000000 ) ) ;
#307 = VERTEX_POINT ( 'NONE', #143 ) ;
#308 = AXIS2_PLACEMENT_3D ( 'NONE', #175, #290, #47 ) ;
#309 = PRESENTATION_LAYER_ASSIGNMENT (  '', '', ( #318 ) ) ;
#310 = CARTESIAN_POINT ( 'NONE',  ( -0.1318899999999997574, 2.012955005375500749E-17, 1.968503999999999809 ) ) ;
#311 = ORIENTED_EDGE ( 'NONE', *, *, #23, .T. ) ;
#312 = SHAPE_DEFINITION_REPRESENTATION ( #142, #14 ) ;
#313 = DIRECTION ( 'NONE',  ( -0.0000000000000000000, -0.0000000000000000000, -1.000000000000000000 ) ) ;
#314 = EDGE_CURVE ( 'NONE', #126, #307, #211, .T. ) ;
#315 = PRESENTATION_STYLE_ASSIGNMENT (( #213 ) ) ;
#316 = CARTESIAN_POINT ( 'NONE',  ( 0.0000000000000000000, 0.0000000000000000000, 0.1968500000000000250 ) ) ;
#317 = DIRECTION ( 'NONE',  ( -1.000000000000000000, 0.0000000000000000000, 0.0000000000000000000 ) ) ;
#318 = STYLED_ITEM ( 'NONE', ( #315 ), #14 ) ;
#319 = DIRECTION ( 'NONE',  ( 0.0000000000000000000, 0.0000000000000000000, 1.000000000000000000 ) ) ;
#320 = CARTESIAN_POINT ( 'NONE',  ( 0.0000000000000000000, 0.0000000000000000000, 0.3429833309002433550 ) ) ;
#321 = FACE_OUTER_BOUND ( 'NONE', #232, .T. ) ;
#322 = DIRECTION ( 'NONE',  ( -1.000000000000000000, 0.0000000000000000000, 0.0000000000000000000 ) ) ;
#323 = AXIS2_PLACEMENT_3D ( 'NONE', #208, #313, #73 ) ;
#324 = COLOUR_RGB ( '',0.7921568627450980005, 0.8196078431372548767, 0.9333333333333333481 ) ;
#325 = DIRECTION ( 'NONE',  ( -0.0000000000000000000, -0.0000000000000000000, -1.000000000000000000 ) ) ;
#326 = PLANE ( 'NONE',  #344 ) ;
#327 = DIRECTION ( 'NONE',  ( 0.0000000000000000000, 0.0000000000000000000, 1.000000000000000000 ) ) ;
#328 = DIRECTION ( 'NONE',  ( -0.0000000000000000000, -0.0000000000000000000, -1.000000000000000000 ) ) ;
#329 = EDGE_CURVE ( 'NONE', #126, #15, #67, .T. ) ;
#330 = VECTOR ( 'NONE', #74, 39.37007874015747433 ) ;
#331 = CIRCLE ( 'NONE', #254, 0.1318899999999997574 ) ;
#332 =( CONVERSION_BASED_UNIT ( 'INCH', #84 ) LENGTH_UNIT ( ) NAMED_UNIT ( #28 ) );
#333 = EDGE_LOOP ( 'NONE', ( #9, #196, #53, #212, #334 ) ) ;
#334 = ORIENTED_EDGE ( 'NONE', *, *, #11, .F. ) ;
#335 = DIRECTION ( 'NONE',  ( -1.000000000000000000, 0.0000000000000000000, 0.0000000000000000000 ) ) ;
#336 = DIRECTION ( 'NONE',  ( 1.000000000000000000, 0.0000000000000000000, 0.0000000000000000000 ) ) ;
#337 = EDGE_LOOP ( 'NONE', ( #170, #90, #120, #94 ) ) ;
#338 = CARTESIAN_POINT ( 'NONE',  ( 0.1968504999999999838, 2.410723347355560646E-17, 3.922007999999999051 ) ) ;
#339 = ORIENTED_EDGE ( 'NONE', *, *, #314, .F. ) ;
#340 = ORIENTED_EDGE ( 'NONE', *, *, #329, .T. ) ;
#341 = CARTESIAN_POINT ( 'NONE',  ( 0.0000000000000000000, 0.0000000000000000000, 1.968503999999999809 ) ) ;
#342 = EDGE_CURVE ( 'NONE', #20, #102, #70, .T. ) ;
#343 = AXIS2_PLACEMENT_3D ( 'NONE', #160, #80, #29 ) ;
#344 = AXIS2_PLACEMENT_3D ( 'NONE', #217, #327, #137 ) ;
#345 = DIRECTION ( 'NONE',  ( 0.1803273764767827636, 0.0000000000000000000, 0.9836066476457958618 ) ) ;
ENDSEC;
END-ISO-10303-21;
