ISO-10303-21;
HEADER;
FILE_DESCRIPTION (( 'STEP AP214' ),
    '1' );
FILE_NAME ('24032.STEP',
    '2023-06-22T16:53:42',
    ( '' ),
    ( '' ),
    'SwSTEP 2.0',
    'SolidWorks 2023',
    '' );
FILE_SCHEMA (( 'AUTOMOTIVE_DESIGN' ));
ENDSEC;

DATA;
#1 = COLOUR_RGB ( '',0.7921568627450980005, 0.8196078431372548767, 0.9333333333333333481 ) ;
#2 = PRESENTATION_LAYER_ASSIGNMENT (  '', '', ( #307 ) ) ;
#3 = LENGTH_MEASURE_WITH_UNIT ( LENGTH_MEASURE( 0.02539999999999999897 ), #144 );
#4 = AXIS2_PLACEMENT_3D ( 'NONE', #100, #260, #129 ) ;
#5 = CIRCLE ( 'NONE', #217, 0.1250000000000000000 ) ;
#6 = PRESENTATION_STYLE_ASSIGNMENT (( #28 ) ) ;
#7 = EDGE_CURVE ( 'NONE', #35, #169, #77, .T. ) ;
#8 = DIRECTION ( 'NONE',  ( -0.000000000000000000, -1.000000000000000000, -0.000000000000000000 ) ) ;
#9 = DIRECTION ( 'NONE',  ( -1.000000000000000000, 0.000000000000000000, 0.000000000000000000 ) ) ;
#10 = ORIENTED_EDGE ( 'NONE', *, *, #188, .T. ) ;
#11 = LINE ( 'NONE', #213, #20 ) ;
#12 = ORIENTED_EDGE ( 'NONE', *, *, #259, .T. ) ;
#13 = FILL_AREA_STYLE_COLOUR ( '', #116 ) ;
#14 = DIRECTION ( 'NONE',  ( -3.498990854706719663E-17, 1.000000000000000000, -0.000000000000000000 ) ) ;
#15 = ORIENTED_EDGE ( 'NONE', *, *, #142, .F. ) ;
#16 = VECTOR ( 'NONE', #67, 39.37007874015748143 ) ;
#17 = ADVANCED_FACE ( 'NONE', ( #262 ), #126, .T. ) ;
#18 = DIRECTION ( 'NONE',  ( -3.498990854706719663E-17, 1.000000000000000000, -0.000000000000000000 ) ) ;
#19 = DIRECTION ( 'NONE',  ( 0.000000000000000000, 0.000000000000000000, 1.000000000000000000 ) ) ;
#20 = VECTOR ( 'NONE', #105, 39.37007874015748143 ) ;
#21 =( GEOMETRIC_REPRESENTATION_CONTEXT ( 3 ) GLOBAL_UNCERTAINTY_ASSIGNED_CONTEXT ( ( #80 ) ) GLOBAL_UNIT_ASSIGNED_CONTEXT ( ( #136, #201, #303 ) ) REPRESENTATION_CONTEXT ( 'NONE', 'WORKASPACE' ) );
#22 =( CONVERSION_BASED_UNIT ( 'INCH', #229 ) LENGTH_UNIT ( ) NAMED_UNIT ( #182 ) );
#23 = DIMENSIONAL_EXPONENTS ( 1.000000000000000000, 0.000000000000000000, 0.000000000000000000, 0.000000000000000000, 0.000000000000000000, 0.000000000000000000, 0.000000000000000000 ) ;
#24 = PRESENTATION_STYLE_ASSIGNMENT (( #258 ) ) ;
#25 = UNCERTAINTY_MEASURE_WITH_UNIT (LENGTH_MEASURE( 1.000000000000000082E-05 ), #141, 'distance_accuracy_value', 'NONE');
#26 = COLOUR_RGB ( '',0.7921568627450980005, 0.8196078431372548767, 0.9333333333333333481 ) ;
#27 = APPLICATION_CONTEXT ( 'automotive_design' ) ;
#28 = SURFACE_STYLE_USAGE ( .BOTH. , #71 ) ;
#29 = ADVANCED_FACE ( 'NONE', ( #279 ), #227, .T. ) ;
#30 = CLOSED_SHELL ( 'NONE', ( #37, #29, #208, #17 ) ) ;
#31 = PRODUCT ( '24032', '24032', '', ( #281 ) ) ;
#32 = SURFACE_STYLE_USAGE ( .BOTH. , #84 ) ;
#33 = FACE_OUTER_BOUND ( 'NONE', #172, .T. ) ;
#34 = ORIENTED_EDGE ( 'NONE', *, *, #161, .T. ) ;
#35 = VERTEX_POINT ( 'NONE', #230 ) ;
#36 = AXIS2_PLACEMENT_3D ( 'NONE', #183, #143, #234 ) ;
#37 = ADVANCED_FACE ( 'NONE', ( #47 ), #69, .T. ) ;
#38 = LINE ( 'NONE', #132, #257 ) ;
#39 = FILL_AREA_STYLE_COLOUR ( '', #66 ) ;
#40 = FACE_OUTER_BOUND ( 'NONE', #60, .T. ) ;
#41 = CARTESIAN_POINT ( 'NONE',  ( 0.000000000000000000, 0.7499999999999998890, 0.000000000000000000 ) ) ;
#42 = PRESENTATION_LAYER_ASSIGNMENT (  '', '', ( #178 ) ) ;
#43 = SURFACE_SIDE_STYLE ('',( #115 ) ) ;
#44 =( NAMED_UNIT ( * ) PLANE_ANGLE_UNIT ( ) SI_UNIT ( $, .RADIAN. ) );
#45 = CIRCLE ( 'NONE', #209, 0.1250000000000000278 ) ;
#46 = MANIFOLD_SOLID_BREP ( 'Revolve - Cutting Edge', #30 ) ;
#47 = FACE_OUTER_BOUND ( 'NONE', #239, .T. ) ;
#48 = AXIS2_PLACEMENT_3D ( 'NONE', #139, #19, #206 ) ;
#49 = FILL_AREA_STYLE_COLOUR ( '', #86 ) ;
#50 = ADVANCED_FACE ( 'NONE', ( #121 ), #207, .F. ) ;
#51 =( NAMED_UNIT ( * ) SI_UNIT ( $, .STERADIAN. ) SOLID_ANGLE_UNIT ( ) );
#52 = UNCERTAINTY_MEASURE_WITH_UNIT (LENGTH_MEASURE( 1.000000000000000082E-05 ), #275, 'distance_accuracy_value', 'NONE');
#53 = DIMENSIONAL_EXPONENTS ( 1.000000000000000000, 0.000000000000000000, 0.000000000000000000, 0.000000000000000000, 0.000000000000000000, 0.000000000000000000, 0.000000000000000000 ) ;
#54 = DIRECTION ( 'NONE',  ( -1.000000000000000000, 0.000000000000000000, 0.000000000000000000 ) ) ;
#55 = ORIENTED_EDGE ( 'NONE', *, *, #188, .F. ) ;
#56 = AXIS2_PLACEMENT_3D ( 'NONE', #134, #298, #9 ) ;
#57 = EDGE_CURVE ( 'NONE', #63, #35, #11, .T. ) ;
#58 = ORIENTED_EDGE ( 'NONE', *, *, #287, .T. ) ;
#59 = PRODUCT_DEFINITION_SHAPE ( 'NONE', 'NONE',  #200 ) ;
#60 = EDGE_LOOP ( 'NONE', ( #55, #12, #83, #102 ) ) ;
#61 =( GEOMETRIC_REPRESENTATION_CONTEXT ( 3 ) GLOBAL_UNCERTAINTY_ASSIGNED_CONTEXT ( ( #52 ) ) GLOBAL_UNIT_ASSIGNED_CONTEXT ( ( #275, #44, #93 ) ) REPRESENTATION_CONTEXT ( 'NONE', 'WORKASPACE' ) );
#62 = LENGTH_MEASURE_WITH_UNIT ( LENGTH_MEASURE( 0.02539999999999999897 ), #294 );
#63 = VERTEX_POINT ( 'NONE', #290 ) ;
#64 = CARTESIAN_POINT ( 'NONE',  ( 0.000000000000000000, 0.7500000000000001110, 0.000000000000000000 ) ) ;
#65 = CARTESIAN_POINT ( 'NONE',  ( -0.1250000000000000000, 0.7499999999999998890, 0.000000000000000000 ) ) ;
#66 = COLOUR_RGB ( '',1.000000000000000000, 0.000000000000000000, 0.000000000000000000 ) ;
#67 = DIRECTION ( 'NONE',  ( -0.000000000000000000, -1.000000000000000000, -0.000000000000000000 ) ) ;
#68 = CIRCLE ( 'NONE', #56, 0.1250000000000000555 ) ;
#69 = CYLINDRICAL_SURFACE ( 'NONE', #36, 0.1250000000000000278 ) ;
#70 = EDGE_CURVE ( 'NONE', #135, #212, #68, .T. ) ;
#71 = SURFACE_SIDE_STYLE ('',( #236 ) ) ;
#72 =( GEOMETRIC_REPRESENTATION_CONTEXT ( 3 ) GLOBAL_UNCERTAINTY_ASSIGNED_CONTEXT ( ( #162 ) ) GLOBAL_UNIT_ASSIGNED_CONTEXT ( ( #123, #96, #145 ) ) REPRESENTATION_CONTEXT ( 'NONE', 'WORKASPACE' ) );
#73 = DIRECTION ( 'NONE',  ( 0.000000000000000000, -0.000000000000000000, 1.000000000000000000 ) ) ;
#74 = CYLINDRICAL_SURFACE ( 'NONE', #269, 0.1250000000000000278 ) ;
#75 =( CONVERSION_BASED_UNIT ( 'INCH', #62 ) LENGTH_UNIT ( ) NAMED_UNIT ( #285 ) );
#76 = ORIENTED_EDGE ( 'NONE', *, *, #226, .T. ) ;
#77 = CIRCLE ( 'NONE', #95, 0.1250000000000000278 ) ;
#78 = CIRCLE ( 'NONE', #146, 0.1250000000000000000 ) ;
#79 = CARTESIAN_POINT ( 'NONE',  ( 1.530808498934191817E-17, 0.7500000000000001110, 0.1250000000000000000 ) ) ;
#80 = UNCERTAINTY_MEASURE_WITH_UNIT (LENGTH_MEASURE( 1.000000000000000082E-05 ), #136, 'distance_accuracy_value', 'NONE');
#81 = EDGE_LOOP ( 'NONE', ( #58, #10, #104, #214 ) ) ;
#82 = DIRECTION ( 'NONE',  ( -3.498990854706719663E-17, 1.000000000000000000, -0.000000000000000000 ) ) ;
#83 = ORIENTED_EDGE ( 'NONE', *, *, #240, .T. ) ;
#84 = SURFACE_SIDE_STYLE ('',( #238 ) ) ;
#85 = SURFACE_STYLE_USAGE ( .BOTH. , #133 ) ;
#86 = COLOUR_RGB ( '',1.000000000000000000, 0.000000000000000000, 0.000000000000000000 ) ;
#87 = ADVANCED_FACE ( 'NONE', ( #40 ), #74, .T. ) ;
#88 = AXIS2_PLACEMENT_3D ( 'NONE', #64, #271, #202 ) ;
#89 = CARTESIAN_POINT ( 'NONE',  ( 0.1250000000000000278, 0.7499999999999998890, 1.530808498934192125E-17 ) ) ;
#90 = DIRECTION ( 'NONE',  ( 0.000000000000000000, 0.000000000000000000, -1.000000000000000000 ) ) ;
#91 = AXIS2_PLACEMENT_3D ( 'NONE', #210, #147, #73 ) ;
#92 = MECHANICAL_DESIGN_GEOMETRIC_PRESENTATION_REPRESENTATION (  '', ( #179 ), #130 ) ;
#93 =( NAMED_UNIT ( * ) SI_UNIT ( $, .STERADIAN. ) SOLID_ANGLE_UNIT ( ) );
#94 = DIMENSIONAL_EXPONENTS ( 1.000000000000000000, 0.000000000000000000, 0.000000000000000000, 0.000000000000000000, 0.000000000000000000, 0.000000000000000000, 0.000000000000000000 ) ;
#95 = AXIS2_PLACEMENT_3D ( 'NONE', #292, #8, #174 ) ;
#96 =( NAMED_UNIT ( * ) PLANE_ANGLE_UNIT ( ) SI_UNIT ( $, .RADIAN. ) );
#97 =( NAMED_UNIT ( * ) SI_UNIT ( $, .STERADIAN. ) SOLID_ANGLE_UNIT ( ) );
#98 = CARTESIAN_POINT ( 'NONE',  ( 0.1250000000000000000, 2.500000000000000000, 0.000000000000000000 ) ) ;
#99 = CIRCLE ( 'NONE', #4, 0.1250000000000000555 ) ;
#100 = CARTESIAN_POINT ( 'NONE',  ( -6.123233995736759873E-17, 2.500000000000000000, 0.000000000000000000 ) ) ;
#101 = CARTESIAN_POINT ( 'NONE',  ( -6.123233995736759873E-17, 2.500000000000000000, 0.000000000000000000 ) ) ;
#102 = ORIENTED_EDGE ( 'NONE', *, *, #70, .F. ) ;
#103 = CARTESIAN_POINT ( 'NONE',  ( 0.1250000000000000278, 2.500000000000000000, 1.530808498934192125E-17 ) ) ;
#104 = ORIENTED_EDGE ( 'NONE', *, *, #122, .F. ) ;
#105 = DIRECTION ( 'NONE',  ( -0.000000000000000000, -1.000000000000000000, -0.000000000000000000 ) ) ;
#106 = VERTEX_POINT ( 'NONE', #79 ) ;
#107 = FACE_OUTER_BOUND ( 'NONE', #81, .T. ) ;
#108 = ORIENTED_EDGE ( 'NONE', *, *, #7, .T. ) ;
#109 =( LENGTH_UNIT ( ) NAMED_UNIT ( * ) SI_UNIT ( $, .METRE. ) );
#110 = ORIENTED_EDGE ( 'NONE', *, *, #267, .F. ) ;
#111 = ADVANCED_BREP_SHAPE_REPRESENTATION ( '24032', ( #46, #156, #48 ), #21 ) ;
#112 = CARTESIAN_POINT ( 'NONE',  ( 1.530808498934191817E-17, 0.000000000000000000, 0.1250000000000000278 ) ) ;
#113 = ADVANCED_FACE ( 'NONE', ( #33 ), #167, .F. ) ;
#114 =( GEOMETRIC_REPRESENTATION_CONTEXT ( 3 ) GLOBAL_UNCERTAINTY_ASSIGNED_CONTEXT ( ( #211 ) ) GLOBAL_UNIT_ASSIGNED_CONTEXT ( ( #284, #254, #97 ) ) REPRESENTATION_CONTEXT ( 'NONE', 'WORKASPACE' ) );
#115 = SURFACE_STYLE_FILL_AREA ( #196 ) ;
#116 = COLOUR_RGB ( '',1.000000000000000000, 0.000000000000000000, 0.000000000000000000 ) ;
#117 = SURFACE_SIDE_STYLE ('',( #140 ) ) ;
#118 = LENGTH_MEASURE_WITH_UNIT ( LENGTH_MEASURE( 0.02539999999999999897 ), #164 );
#119 = MECHANICAL_DESIGN_GEOMETRIC_PRESENTATION_REPRESENTATION (  '', ( #244 ), #72 ) ;
#120 = APPLICATION_PROTOCOL_DEFINITION ( 'draft international standard', 'automotive_design', 1998, #27 ) ;
#121 = FACE_OUTER_BOUND ( 'NONE', #216, .T. ) ;
#122 = EDGE_CURVE ( 'NONE', #212, #135, #99, .T. ) ;
#123 =( CONVERSION_BASED_UNIT ( 'INCH', #3 ) LENGTH_UNIT ( ) NAMED_UNIT ( #23 ) );
#124 = MECHANICAL_DESIGN_GEOMETRIC_PRESENTATION_REPRESENTATION (  '', ( #198 ), #306 ) ;
#125 = AXIS2_PLACEMENT_3D ( 'NONE', #101, #82, #171 ) ;
#126 = PLANE ( 'NONE',  #251 ) ;
#127 = DIRECTION ( 'NONE',  ( 0.000000000000000000, 0.000000000000000000, -1.000000000000000000 ) ) ;
#128 = ORIENTED_EDGE ( 'NONE', *, *, #70, .T. ) ;
#129 = DIRECTION ( 'NONE',  ( -1.000000000000000000, 0.000000000000000000, 0.000000000000000000 ) ) ;
#130 =( GEOMETRIC_REPRESENTATION_CONTEXT ( 3 ) GLOBAL_UNCERTAINTY_ASSIGNED_CONTEXT ( ( #237 ) ) GLOBAL_UNIT_ASSIGNED_CONTEXT ( ( #75, #154, #215 ) ) REPRESENTATION_CONTEXT ( 'NONE', 'WORKASPACE' ) );
#131 = AXIS2_PLACEMENT_3D ( 'NONE', #300, #308, #224 ) ;
#132 = CARTESIAN_POINT ( 'NONE',  ( 0.1249999999999999584, 2.500000000000000000, 1.530808498934191817E-17 ) ) ;
#133 = SURFACE_SIDE_STYLE ('',( #152 ) ) ;
#134 = CARTESIAN_POINT ( 'NONE',  ( -6.123233995736759873E-17, 2.500000000000000000, 0.000000000000000000 ) ) ;
#135 = VERTEX_POINT ( 'NONE', #103 ) ;
#136 =( CONVERSION_BASED_UNIT ( 'INCH', #304 ) LENGTH_UNIT ( ) NAMED_UNIT ( #231 ) );
#137 = DIRECTION ( 'NONE',  ( -1.000000000000000000, 0.000000000000000000, 0.000000000000000000 ) ) ;
#138 = SURFACE_STYLE_USAGE ( .BOTH. , #43 ) ;
#139 = CARTESIAN_POINT ( 'NONE',  ( 0.000000000000000000, 0.000000000000000000, 0.000000000000000000 ) ) ;
#140 = SURFACE_STYLE_FILL_AREA ( #280 ) ;
#141 =( CONVERSION_BASED_UNIT ( 'INCH', #225 ) LENGTH_UNIT ( ) NAMED_UNIT ( #205 ) );
#142 = EDGE_CURVE ( 'NONE', #169, #35, #45, .T. ) ;
#143 = DIRECTION ( 'NONE',  ( -0.000000000000000000, -1.000000000000000000, -0.000000000000000000 ) ) ;
#144 =( LENGTH_UNIT ( ) NAMED_UNIT ( * ) SI_UNIT ( $, .METRE. ) );
#145 =( NAMED_UNIT ( * ) SI_UNIT ( $, .STERADIAN. ) SOLID_ANGLE_UNIT ( ) );
#146 = AXIS2_PLACEMENT_3D ( 'NONE', #41, #18, #137 ) ;
#147 = DIRECTION ( 'NONE',  ( 0.000000000000000000, 1.000000000000000000, 0.000000000000000000 ) ) ;
#148 = DIRECTION ( 'NONE',  ( -0.000000000000000000, -1.000000000000000000, -0.000000000000000000 ) ) ;
#149 = ORIENTED_EDGE ( 'NONE', *, *, #57, .F. ) ;
#150 = FACE_OUTER_BOUND ( 'NONE', #299, .T. ) ;
#151 = FILL_AREA_STYLE ('',( #39 ) ) ;
#152 = SURFACE_STYLE_FILL_AREA ( #151 ) ;
#153 = ORIENTED_EDGE ( 'NONE', *, *, #226, .F. ) ;
#154 =( NAMED_UNIT ( * ) PLANE_ANGLE_UNIT ( ) SI_UNIT ( $, .RADIAN. ) );
#155 = ORIENTED_EDGE ( 'NONE', *, *, #122, .T. ) ;
#156 = MANIFOLD_SOLID_BREP ( 'Revolve - Tool Body (Straight Shanked)', #222 ) ;
#157 = PRESENTATION_STYLE_ASSIGNMENT (( #138 ) ) ;
#158 = DIRECTION ( 'NONE',  ( 0.000000000000000000, 0.000000000000000000, -1.000000000000000000 ) ) ;
#159 = SURFACE_STYLE_USAGE ( .BOTH. , #117 ) ;
#160 = MECHANICAL_DESIGN_GEOMETRIC_PRESENTATION_REPRESENTATION (  '', ( #185 ), #114 ) ;
#161 = EDGE_CURVE ( 'NONE', #106, #63, #5, .T. ) ;
#162 = UNCERTAINTY_MEASURE_WITH_UNIT (LENGTH_MEASURE( 1.000000000000000082E-05 ), #123, 'distance_accuracy_value', 'NONE');
#163 = ADVANCED_FACE ( 'NONE', ( #107 ), #296, .T. ) ;
#164 =( LENGTH_UNIT ( ) NAMED_UNIT ( * ) SI_UNIT ( $, .METRE. ) );
#165 = CIRCLE ( 'NONE', #88, 0.1250000000000000000 ) ;
#166 = FILL_AREA_STYLE_COLOUR ( '', #26 ) ;
#167 = PLANE ( 'NONE',  #261 ) ;
#168 = DIRECTION ( 'NONE',  ( -3.498990854706719663E-17, 1.000000000000000000, -0.000000000000000000 ) ) ;
#169 = VERTEX_POINT ( 'NONE', #190 ) ;
#170 = DIRECTION ( 'NONE',  ( -3.498990854706719663E-17, 1.000000000000000000, -0.000000000000000000 ) ) ;
#171 = DIRECTION ( 'NONE',  ( -1.000000000000000000, 0.000000000000000000, 0.000000000000000000 ) ) ;
#172 = EDGE_LOOP ( 'NONE', ( #220, #265 ) ) ;
#173 = PRESENTATION_STYLE_ASSIGNMENT (( #32 ) ) ;
#174 = DIRECTION ( 'NONE',  ( 0.000000000000000000, 0.000000000000000000, -1.000000000000000000 ) ) ;
#175 = LINE ( 'NONE', #177, #277 ) ;
#176 = CARTESIAN_POINT ( 'NONE',  ( 0.000000000000000000, 0.000000000000000000, 0.000000000000000000 ) ) ;
#177 = CARTESIAN_POINT ( 'NONE',  ( -0.1250000000000001110, 2.500000000000000000, 0.000000000000000000 ) ) ;
#178 = STYLED_ITEM ( 'NONE', ( #270 ), #17 ) ;
#179 = STYLED_ITEM ( 'NONE', ( #173 ), #156 ) ;
#180 = LINE ( 'NONE', #112, #16 ) ;
#181 =( LENGTH_UNIT ( ) NAMED_UNIT ( * ) SI_UNIT ( $, .METRE. ) );
#182 = DIMENSIONAL_EXPONENTS ( 1.000000000000000000, 0.000000000000000000, 0.000000000000000000, 0.000000000000000000, 0.000000000000000000, 0.000000000000000000, 0.000000000000000000 ) ;
#183 = CARTESIAN_POINT ( 'NONE',  ( 0.000000000000000000, 0.000000000000000000, 0.000000000000000000 ) ) ;
#184 =( NAMED_UNIT ( * ) PLANE_ANGLE_UNIT ( ) SI_UNIT ( $, .RADIAN. ) );
#185 = STYLED_ITEM ( 'NONE', ( #24 ), #46 ) ;
#186 = SURFACE_SIDE_STYLE ('',( #253 ) ) ;
#187 = PRODUCT_DEFINITION_FORMATION_WITH_SPECIFIED_SOURCE ( 'ANY', '', #31, .NOT_KNOWN. ) ;
#188 = EDGE_CURVE ( 'NONE', #297, #135, #38, .T. ) ;
#189 = DIRECTION ( 'NONE',  ( 1.000000000000000000, 3.498990854706719663E-17, 0.000000000000000000 ) ) ;
#190 = CARTESIAN_POINT ( 'NONE',  ( 1.530808498934192125E-17, 0.000000000000000000, 0.1250000000000000555 ) ) ;
#191 = ORIENTED_EDGE ( 'NONE', *, *, #161, .F. ) ;
#192 = FILL_AREA_STYLE_COLOUR ( '', #1 ) ;
#193 = EDGE_LOOP ( 'NONE', ( #108, #195 ) ) ;
#194 = DIRECTION ( 'NONE',  ( -0.000000000000000000, -1.000000000000000000, -0.000000000000000000 ) ) ;
#195 = ORIENTED_EDGE ( 'NONE', *, *, #142, .T. ) ;
#196 = FILL_AREA_STYLE ('',( #13 ) ) ;
#197 = ORIENTED_EDGE ( 'NONE', *, *, #57, .T. ) ;
#198 = STYLED_ITEM ( 'NONE', ( #203 ), #29 ) ;
#199 = AXIS2_PLACEMENT_3D ( 'NONE', #176, #273, #90 ) ;
#200 = PRODUCT_DEFINITION ( 'UNKNOWN', '', #187, #264 ) ;
#201 =( NAMED_UNIT ( * ) PLANE_ANGLE_UNIT ( ) SI_UNIT ( $, .RADIAN. ) );
#202 = DIRECTION ( 'NONE',  ( 0.000000000000000000, 0.000000000000000000, -1.000000000000000000 ) ) ;
#203 = PRESENTATION_STYLE_ASSIGNMENT (( #159 ) ) ;
#204 = SHAPE_DEFINITION_REPRESENTATION ( #59, #111 ) ;
#205 = DIMENSIONAL_EXPONENTS ( 1.000000000000000000, 0.000000000000000000, 0.000000000000000000, 0.000000000000000000, 0.000000000000000000, 0.000000000000000000, 0.000000000000000000 ) ;
#206 = DIRECTION ( 'NONE',  ( 1.000000000000000000, 0.000000000000000000, 0.000000000000000000 ) ) ;
#207 = PLANE ( 'NONE',  #293 ) ;
#208 = ADVANCED_FACE ( 'NONE', ( #150 ), #218, .T. ) ;
#209 = AXIS2_PLACEMENT_3D ( 'NONE', #241, #148, #219 ) ;
#210 = CARTESIAN_POINT ( 'NONE',  ( 0.000000000000000000, 0.7500000000000001110, 0.000000000000000000 ) ) ;
#211 = UNCERTAINTY_MEASURE_WITH_UNIT (LENGTH_MEASURE( 1.000000000000000082E-05 ), #284, 'distance_accuracy_value', 'NONE');
#212 = VERTEX_POINT ( 'NONE', #249 ) ;
#213 = CARTESIAN_POINT ( 'NONE',  ( 0.000000000000000000, 0.000000000000000000, -0.1250000000000000278 ) ) ;
#214 = ORIENTED_EDGE ( 'NONE', *, *, #240, .F. ) ;
#215 =( NAMED_UNIT ( * ) SI_UNIT ( $, .STERADIAN. ) SOLID_ANGLE_UNIT ( ) );
#216 = EDGE_LOOP ( 'NONE', ( #155, #128 ) ) ;
#217 = AXIS2_PLACEMENT_3D ( 'NONE', #243, #194, #127 ) ;
#218 = CYLINDRICAL_SURFACE ( 'NONE', #199, 0.1250000000000000278 ) ;
#219 = DIRECTION ( 'NONE',  ( 0.000000000000000000, 0.000000000000000000, -1.000000000000000000 ) ) ;
#220 = ORIENTED_EDGE ( 'NONE', *, *, #287, .F. ) ;
#221 = CARTESIAN_POINT ( 'NONE',  ( 0.000000000000000000, 0.000000000000000000, 0.000000000000000000 ) ) ;
#222 = CLOSED_SHELL ( 'NONE', ( #163, #113, #87, #50 ) ) ;
#223 = APPLICATION_PROTOCOL_DEFINITION ( 'draft international standard', 'automotive_design', 1998, #286 ) ;
#224 = DIRECTION ( 'NONE',  ( -1.000000000000000000, 0.000000000000000000, 0.000000000000000000 ) ) ;
#225 = LENGTH_MEASURE_WITH_UNIT ( LENGTH_MEASURE( 0.02539999999999999897 ), #109 );
#226 = EDGE_CURVE ( 'NONE', #106, #169, #180, .T. ) ;
#227 = PLANE ( 'NONE',  #91 ) ;
#228 = PRESENTATION_LAYER_ASSIGNMENT (  '', '', ( #185 ) ) ;
#229 = LENGTH_MEASURE_WITH_UNIT ( LENGTH_MEASURE( 0.02539999999999999897 ), #181 );
#230 = CARTESIAN_POINT ( 'NONE',  ( 0.000000000000000000, 0.000000000000000000, -0.1250000000000000278 ) ) ;
#231 = DIMENSIONAL_EXPONENTS ( 1.000000000000000000, 0.000000000000000000, 0.000000000000000000, 0.000000000000000000, 0.000000000000000000, 0.000000000000000000, 0.000000000000000000 ) ;
#232 = COLOUR_RGB ( '',1.000000000000000000, 0.000000000000000000, 0.000000000000000000 ) ;
#233 = MECHANICAL_DESIGN_GEOMETRIC_PRESENTATION_REPRESENTATION (  '', ( #307 ), #252 ) ;
#234 = DIRECTION ( 'NONE',  ( 0.000000000000000000, 0.000000000000000000, -1.000000000000000000 ) ) ;
#235 = FILL_AREA_STYLE ('',( #166 ) ) ;
#236 = SURFACE_STYLE_FILL_AREA ( #283 ) ;
#237 = UNCERTAINTY_MEASURE_WITH_UNIT (LENGTH_MEASURE( 1.000000000000000082E-05 ), #75, 'distance_accuracy_value', 'NONE');
#238 = SURFACE_STYLE_FILL_AREA ( #263 ) ;
#239 = EDGE_LOOP ( 'NONE', ( #295, #76, #302, #149 ) ) ;
#240 = EDGE_CURVE ( 'NONE', #247, #212, #175, .T. ) ;
#241 = CARTESIAN_POINT ( 'NONE',  ( 0.000000000000000000, 0.000000000000000000, 0.000000000000000000 ) ) ;
#242 = UNCERTAINTY_MEASURE_WITH_UNIT (LENGTH_MEASURE( 1.000000000000000082E-05 ), #22, 'distance_accuracy_value', 'NONE');
#243 = CARTESIAN_POINT ( 'NONE',  ( 0.000000000000000000, 0.7500000000000001110, 0.000000000000000000 ) ) ;
#244 = STYLED_ITEM ( 'NONE', ( #6 ), #37 ) ;
#245 = EDGE_LOOP ( 'NONE', ( #110, #191 ) ) ;
#246 = CARTESIAN_POINT ( 'NONE',  ( 7.651835625825786972E-35, 0.7500000000000001110, 0.000000000000000000 ) ) ;
#247 = VERTEX_POINT ( 'NONE', #65 ) ;
#248 = FILL_AREA_STYLE_COLOUR ( '', #232 ) ;
#249 = CARTESIAN_POINT ( 'NONE',  ( -0.1250000000000001388, 2.500000000000000000, 0.000000000000000000 ) ) ;
#250 =( LENGTH_UNIT ( ) NAMED_UNIT ( * ) SI_UNIT ( $, .METRE. ) );
#251 = AXIS2_PLACEMENT_3D ( 'NONE', #221, #272, #158 ) ;
#252 =( GEOMETRIC_REPRESENTATION_CONTEXT ( 3 ) GLOBAL_UNCERTAINTY_ASSIGNED_CONTEXT ( ( #25 ) ) GLOBAL_UNIT_ASSIGNED_CONTEXT ( ( #141, #278, #274 ) ) REPRESENTATION_CONTEXT ( 'NONE', 'WORKASPACE' ) );
#253 = SURFACE_STYLE_FILL_AREA ( #235 ) ;
#254 =( NAMED_UNIT ( * ) PLANE_ANGLE_UNIT ( ) SI_UNIT ( $, .RADIAN. ) );
#255 = PRESENTATION_LAYER_ASSIGNMENT (  '', '', ( #244 ) ) ;
#256 = PRESENTATION_LAYER_ASSIGNMENT (  '', '', ( #179 ) ) ;
#257 = VECTOR ( 'NONE', #168, 39.37007874015748143 ) ;
#258 = SURFACE_STYLE_USAGE ( .BOTH. , #186 ) ;
#259 = EDGE_CURVE ( 'NONE', #297, #247, #288, .T. ) ;
#260 = DIRECTION ( 'NONE',  ( -3.498990854706719663E-17, 1.000000000000000000, -0.000000000000000000 ) ) ;
#261 = AXIS2_PLACEMENT_3D ( 'NONE', #246, #291, #268 ) ;
#262 = FACE_OUTER_BOUND ( 'NONE', #193, .T. ) ;
#263 = FILL_AREA_STYLE ('',( #192 ) ) ;
#264 = PRODUCT_DEFINITION_CONTEXT ( 'detailed design', #27, 'design' ) ;
#265 = ORIENTED_EDGE ( 'NONE', *, *, #259, .F. ) ;
#266 = CARTESIAN_POINT ( 'NONE',  ( -6.123233995736759873E-17, 2.500000000000000000, 0.000000000000000000 ) ) ;
#267 = EDGE_CURVE ( 'NONE', #63, #106, #165, .T. ) ;
#268 = DIRECTION ( 'NONE',  ( -1.000000000000000000, -3.498990854706719663E-17, 0.000000000000000000 ) ) ;
#269 = AXIS2_PLACEMENT_3D ( 'NONE', #266, #170, #54 ) ;
#270 = PRESENTATION_STYLE_ASSIGNMENT (( #85 ) ) ;
#271 = DIRECTION ( 'NONE',  ( -0.000000000000000000, -1.000000000000000000, -0.000000000000000000 ) ) ;
#272 = DIRECTION ( 'NONE',  ( 0.000000000000000000, -1.000000000000000000, -0.000000000000000000 ) ) ;
#273 = DIRECTION ( 'NONE',  ( -0.000000000000000000, -1.000000000000000000, -0.000000000000000000 ) ) ;
#274 =( NAMED_UNIT ( * ) SI_UNIT ( $, .STERADIAN. ) SOLID_ANGLE_UNIT ( ) );
#275 =( CONVERSION_BASED_UNIT ( 'INCH', #309 ) LENGTH_UNIT ( ) NAMED_UNIT ( #94 ) );
#276 = MECHANICAL_DESIGN_GEOMETRIC_PRESENTATION_REPRESENTATION (  '', ( #178 ), #61 ) ;
#277 = VECTOR ( 'NONE', #14, 39.37007874015748143 ) ;
#278 =( NAMED_UNIT ( * ) PLANE_ANGLE_UNIT ( ) SI_UNIT ( $, .RADIAN. ) );
#279 = FACE_OUTER_BOUND ( 'NONE', #245, .T. ) ;
#280 = FILL_AREA_STYLE ('',( #248 ) ) ;
#281 = PRODUCT_CONTEXT ( 'NONE', #286, 'mechanical' ) ;
#282 = PRODUCT_RELATED_PRODUCT_CATEGORY ( 'part', '', ( #31 ) ) ;
#283 = FILL_AREA_STYLE ('',( #49 ) ) ;
#284 =( CONVERSION_BASED_UNIT ( 'INCH', #118 ) LENGTH_UNIT ( ) NAMED_UNIT ( #53 ) );
#285 = DIMENSIONAL_EXPONENTS ( 1.000000000000000000, 0.000000000000000000, 0.000000000000000000, 0.000000000000000000, 0.000000000000000000, 0.000000000000000000, 0.000000000000000000 ) ;
#286 = APPLICATION_CONTEXT ( 'automotive_design' ) ;
#287 = EDGE_CURVE ( 'NONE', #247, #297, #78, .T. ) ;
#288 = CIRCLE ( 'NONE', #131, 0.1250000000000000000 ) ;
#289 = DIRECTION ( 'NONE',  ( 3.498990854706719663E-17, -1.000000000000000000, 0.000000000000000000 ) ) ;
#290 = CARTESIAN_POINT ( 'NONE',  ( 0.000000000000000000, 0.7500000000000001110, -0.1250000000000000000 ) ) ;
#291 = DIRECTION ( 'NONE',  ( -3.498990854706719663E-17, 1.000000000000000000, 0.000000000000000000 ) ) ;
#292 = CARTESIAN_POINT ( 'NONE',  ( 0.000000000000000000, 0.000000000000000000, 0.000000000000000000 ) ) ;
#293 = AXIS2_PLACEMENT_3D ( 'NONE', #98, #289, #189 ) ;
#294 =( LENGTH_UNIT ( ) NAMED_UNIT ( * ) SI_UNIT ( $, .METRE. ) );
#295 = ORIENTED_EDGE ( 'NONE', *, *, #267, .T. ) ;
#296 = CYLINDRICAL_SURFACE ( 'NONE', #125, 0.1250000000000000278 ) ;
#297 = VERTEX_POINT ( 'NONE', #89 ) ;
#298 = DIRECTION ( 'NONE',  ( -3.498990854706719663E-17, 1.000000000000000000, -0.000000000000000000 ) ) ;
#299 = EDGE_LOOP ( 'NONE', ( #153, #34, #197, #15 ) ) ;
#300 = CARTESIAN_POINT ( 'NONE',  ( 0.000000000000000000, 0.7499999999999998890, 0.000000000000000000 ) ) ;
#301 = PRESENTATION_LAYER_ASSIGNMENT (  '', '', ( #198 ) ) ;
#302 = ORIENTED_EDGE ( 'NONE', *, *, #7, .F. ) ;
#303 =( NAMED_UNIT ( * ) SI_UNIT ( $, .STERADIAN. ) SOLID_ANGLE_UNIT ( ) );
#304 = LENGTH_MEASURE_WITH_UNIT ( LENGTH_MEASURE( 0.02539999999999999897 ), #250 );
#305 =( LENGTH_UNIT ( ) NAMED_UNIT ( * ) SI_UNIT ( $, .METRE. ) );
#306 =( GEOMETRIC_REPRESENTATION_CONTEXT ( 3 ) GLOBAL_UNCERTAINTY_ASSIGNED_CONTEXT ( ( #242 ) ) GLOBAL_UNIT_ASSIGNED_CONTEXT ( ( #22, #184, #51 ) ) REPRESENTATION_CONTEXT ( 'NONE', 'WORKASPACE' ) );
#307 = STYLED_ITEM ( 'NONE', ( #157 ), #208 ) ;
#308 = DIRECTION ( 'NONE',  ( -3.498990854706719663E-17, 1.000000000000000000, -0.000000000000000000 ) ) ;
#309 = LENGTH_MEASURE_WITH_UNIT ( LENGTH_MEASURE( 0.02539999999999999897 ), #305 );
ENDSEC;
END-ISO-10303-21;
