ISO-10303-21;
HEADER;
FILE_DESCRIPTION (( 'STEP AP214' ),
    '1' );
FILE_NAME ('59520.STEP',
    '2023-07-24T15:08:50',
    ( '' ),
    ( '' ),
    'SwSTEP 2.0',
    'SolidWorks 2023',
    '' );
FILE_SCHEMA (( 'AUTOMOTIVE_DESIGN' ));
ENDSEC;

DATA;
#1 =( LENGTH_UNIT ( ) NAMED_UNIT ( * ) SI_UNIT ( .MILLI., .METRE. ) );
#2 = PRODUCT_DEFINITION_SHAPE ( 'NONE', 'NONE',  #56 ) ;
#3 = APPLICATION_PROTOCOL_DEFINITION ( 'draft international standard', 'automotive_design', 1998, #223 ) ;
#4 = DIRECTION ( 'NONE',  ( -0.000000000000000000, -1.000000000000000000, -0.000000000000000000 ) ) ;
#5 = EDGE_CURVE ( 'NONE', #88, #266, #343, .T. ) ;
#6 = EDGE_LOOP ( 'NONE', ( #259, #288, #54, #279 ) ) ;
#7 = SURFACE_STYLE_FILL_AREA ( #312 ) ;
#8 = DIRECTION ( 'NONE',  ( 0.000000000000000000, 0.000000000000000000, -1.000000000000000000 ) ) ;
#9 =( GEOMETRIC_REPRESENTATION_CONTEXT ( 3 ) GLOBAL_UNCERTAINTY_ASSIGNED_CONTEXT ( ( #270 ) ) GLOBAL_UNIT_ASSIGNED_CONTEXT ( ( #1, #216, #158 ) ) REPRESENTATION_CONTEXT ( 'NONE', 'WORKASPACE' ) );
#10 = CARTESIAN_POINT ( 'NONE',  ( 1.469576158976823750E-15, 63.00000000000000000, 0.000000000000000000 ) ) ;
#11 = EDGE_LOOP ( 'NONE', ( #48, #252, #102, #123 ) ) ;
#12 = PRESENTATION_LAYER_ASSIGNMENT (  '', '', ( #238 ) ) ;
#13 = EDGE_CURVE ( 'NONE', #80, #88, #104, .T. ) ;
#14 = SURFACE_STYLE_FILL_AREA ( #61 ) ;
#15 = AXIS2_PLACEMENT_3D ( 'NONE', #250, #129, #325 ) ;
#16 = CARTESIAN_POINT ( 'NONE',  ( -3.999999999999996447, 63.00000000000000000, 0.000000000000000000 ) ) ;
#17 = DIRECTION ( 'NONE',  ( 0.000000000000000000, 0.000000000000000000, -1.000000000000000000 ) ) ;
#18 = DIRECTION ( 'NONE',  ( -1.000000000000000000, -9.448620473410002383E-17, 0.000000000000000000 ) ) ;
#19 = ORIENTED_EDGE ( 'NONE', *, *, #170, .F. ) ;
#20 = SURFACE_SIDE_STYLE ('',( #315 ) ) ;
#21 = PRODUCT_DEFINITION_FORMATION_WITH_SPECIFIED_SOURCE ( 'ANY', '', #66, .NOT_KNOWN. ) ;
#22 = FACE_OUTER_BOUND ( 'NONE', #347, .T. ) ;
#23 = ORIENTED_EDGE ( 'NONE', *, *, #230, .T. ) ;
#24 = EDGE_CURVE ( 'NONE', #93, #140, #156, .T. ) ;
#25 = DIRECTION ( 'NONE',  ( 9.448620473410002383E-17, -1.000000000000000000, 0.000000000000000000 ) ) ;
#26 = PRESENTATION_STYLE_ASSIGNMENT (( #256 ) ) ;
#27 = DIRECTION ( 'NONE',  ( -9.448620473410002383E-17, 1.000000000000000000, -0.000000000000000000 ) ) ;
#28 = ORIENTED_EDGE ( 'NONE', *, *, #197, .F. ) ;
#29 = FILL_AREA_STYLE_COLOUR ( '', #152 ) ;
#30 = EDGE_LOOP ( 'NONE', ( #23, #272 ) ) ;
#31 = MECHANICAL_DESIGN_GEOMETRIC_PRESENTATION_REPRESENTATION (  '', ( #246 ), #68 ) ;
#32 = DIRECTION ( 'NONE',  ( 0.000000000000000000, 0.000000000000000000, 1.000000000000000000 ) ) ;
#33 = CARTESIAN_POINT ( 'NONE',  ( 0.000000000000000000, 0.5000000000000000000, 0.000000000000000000 ) ) ;
#34 = DIRECTION ( 'NONE',  ( -0.000000000000000000, -1.000000000000000000, -0.000000000000000000 ) ) ;
#35 = PRESENTATION_STYLE_ASSIGNMENT (( #301 ) ) ;
#36 = DIRECTION ( 'NONE',  ( -0.000000000000000000, -1.000000000000000000, -0.000000000000000000 ) ) ;
#37 =( LENGTH_UNIT ( ) NAMED_UNIT ( * ) SI_UNIT ( .MILLI., .METRE. ) );
#38 = EDGE_LOOP ( 'NONE', ( #114, #244, #177, #172 ) ) ;
#39 = COLOUR_RGB ( '',0.7921568627450980005, 0.8196078431372548767, 0.9333333333333333481 ) ;
#40 = AXIS2_PLACEMENT_3D ( 'NONE', #326, #76, #292 ) ;
#41 = FILL_AREA_STYLE_COLOUR ( '', #160 ) ;
#42 = FILL_AREA_STYLE_COLOUR ( '', #218 ) ;
#43 =( GEOMETRIC_REPRESENTATION_CONTEXT ( 3 ) GLOBAL_UNCERTAINTY_ASSIGNED_CONTEXT ( ( #360 ) ) GLOBAL_UNIT_ASSIGNED_CONTEXT ( ( #274, #332, #83 ) ) REPRESENTATION_CONTEXT ( 'NONE', 'WORKASPACE' ) );
#44 = PRODUCT_DEFINITION_CONTEXT ( 'detailed design', #137, 'design' ) ;
#45 = DIRECTION ( 'NONE',  ( -1.000000000000000000, 0.000000000000000000, 0.000000000000000000 ) ) ;
#46 = CARTESIAN_POINT ( 'NONE',  ( 4.898587196589412829E-16, 0.5000000000000000000, 4.000000000000000000 ) ) ;
#47 = AXIS2_PLACEMENT_3D ( 'NONE', #131, #232, #363 ) ;
#48 = ORIENTED_EDGE ( 'NONE', *, *, #197, .T. ) ;
#49 = EDGE_CURVE ( 'NONE', #282, #150, #132, .T. ) ;
#50 = LINE ( 'NONE', #253, #119 ) ;
#51 = AXIS2_PLACEMENT_3D ( 'NONE', #10, #222, #198 ) ;
#52 = AXIS2_PLACEMENT_3D ( 'NONE', #173, #127, #149 ) ;
#53 = TOROIDAL_SURFACE ( 'NONE', #52, 3.500000000000000000, 0.5000000000000000000 ) ;
#54 = ORIENTED_EDGE ( 'NONE', *, *, #118, .T. ) ;
#55 = DIRECTION ( 'NONE',  ( 1.000000000000000000, 0.000000000000000000, 0.000000000000000000 ) ) ;
#56 = PRODUCT_DEFINITION ( 'UNKNOWN', '', #21, #44 ) ;
#57 = UNCERTAINTY_MEASURE_WITH_UNIT (LENGTH_MEASURE( 1.000000000000000082E-05 ), #120, 'distance_accuracy_value', 'NONE');
#58 = CARTESIAN_POINT ( 'NONE',  ( 3.999999999999999112, 11.99999999999999645, 4.898587196589409870E-16 ) ) ;
#59 = AXIS2_PLACEMENT_3D ( 'NONE', #79, #209, #263 ) ;
#60 = ORIENTED_EDGE ( 'NONE', *, *, #230, .F. ) ;
#61 = FILL_AREA_STYLE ('',( #41 ) ) ;
#62 = AXIS2_PLACEMENT_3D ( 'NONE', #85, #330, #367 ) ;
#63 = ORIENTED_EDGE ( 'NONE', *, *, #130, .F. ) ;
#64 = DIRECTION ( 'NONE',  ( 0.000000000000000000, -0.000000000000000000, 1.000000000000000000 ) ) ;
#65 = ADVANCED_FACE ( 'NONE', ( #237 ), #106, .T. ) ;
#66 = PRODUCT ( '59520', '59520', '', ( #135 ) ) ;
#67 = ORIENTED_EDGE ( 'NONE', *, *, #130, .T. ) ;
#68 =( GEOMETRIC_REPRESENTATION_CONTEXT ( 3 ) GLOBAL_UNCERTAINTY_ASSIGNED_CONTEXT ( ( #57 ) ) GLOBAL_UNIT_ASSIGNED_CONTEXT ( ( #120, #99, #321 ) ) REPRESENTATION_CONTEXT ( 'NONE', 'WORKASPACE' ) );
#69 = SURFACE_STYLE_FILL_AREA ( #74 ) ;
#70 = CARTESIAN_POINT ( 'NONE',  ( 0.000000000000000000, 0.000000000000000000, 0.000000000000000000 ) ) ;
#71 = ADVANCED_FACE ( 'NONE', ( #251 ), #53, .T. ) ;
#72 = SURFACE_STYLE_USAGE ( .BOTH. , #20 ) ;
#73 = CARTESIAN_POINT ( 'NONE',  ( 3.999999999999998224, 63.00000000000000000, 4.898587196589408884E-16 ) ) ;
#74 = FILL_AREA_STYLE ('',( #103 ) ) ;
#75 = EDGE_CURVE ( 'NONE', #190, #88, #355, .T. ) ;
#76 = DIRECTION ( 'NONE',  ( -9.448620473410002383E-17, 1.000000000000000000, -0.000000000000000000 ) ) ;
#77 =( GEOMETRIC_REPRESENTATION_CONTEXT ( 3 ) GLOBAL_UNCERTAINTY_ASSIGNED_CONTEXT ( ( #291 ) ) GLOBAL_UNIT_ASSIGNED_CONTEXT ( ( #340, #336, #215 ) ) REPRESENTATION_CONTEXT ( 'NONE', 'WORKASPACE' ) );
#78 = CARTESIAN_POINT ( 'NONE',  ( 0.000000000000000000, 0.000000000000000000, 0.000000000000000000 ) ) ;
#79 = CARTESIAN_POINT ( 'NONE',  ( 1.469576158976823750E-15, 63.00000000000000000, 0.000000000000000000 ) ) ;
#80 = VERTEX_POINT ( 'NONE', #202 ) ;
#81 = COLOUR_RGB ( '',1.000000000000000000, 0.000000000000000000, 0.000000000000000000 ) ;
#82 = CARTESIAN_POINT ( 'NONE',  ( 1.469576158976823750E-15, 63.00000000000000000, 0.000000000000000000 ) ) ;
#83 =( NAMED_UNIT ( * ) SI_UNIT ( $, .STERADIAN. ) SOLID_ANGLE_UNIT ( ) );
#84 = DIRECTION ( 'NONE',  ( 0.000000000000000000, 0.000000000000000000, -1.000000000000000000 ) ) ;
#85 = CARTESIAN_POINT ( 'NONE',  ( 1.469576158976823750E-15, 63.00000000000000000, 0.000000000000000000 ) ) ;
#86 = PRESENTATION_STYLE_ASSIGNMENT (( #188 ) ) ;
#87 = AXIS2_PLACEMENT_3D ( 'NONE', #271, #36, #296 ) ;
#88 = VERTEX_POINT ( 'NONE', #46 ) ;
#89 = MECHANICAL_DESIGN_GEOMETRIC_PRESENTATION_REPRESENTATION (  '', ( #317 ), #354 ) ;
#90 = SURFACE_STYLE_FILL_AREA ( #342 ) ;
#91 = SURFACE_STYLE_USAGE ( .BOTH. , #144 ) ;
#92 = SURFACE_STYLE_USAGE ( .BOTH. , #346 ) ;
#93 = VERTEX_POINT ( 'NONE', #16 ) ;
#94 =( GEOMETRIC_REPRESENTATION_CONTEXT ( 3 ) GLOBAL_UNCERTAINTY_ASSIGNED_CONTEXT ( ( #181 ) ) GLOBAL_UNIT_ASSIGNED_CONTEXT ( ( #168, #142, #344 ) ) REPRESENTATION_CONTEXT ( 'NONE', 'WORKASPACE' ) );
#95 =( NAMED_UNIT ( * ) PLANE_ANGLE_UNIT ( ) SI_UNIT ( $, .RADIAN. ) );
#96 = CARTESIAN_POINT ( 'NONE',  ( 0.000000000000000000, 0.000000000000000000, 0.000000000000000000 ) ) ;
#97 = FILL_AREA_STYLE ('',( #121 ) ) ;
#98 = MECHANICAL_DESIGN_GEOMETRIC_PRESENTATION_REPRESENTATION (  '', ( #238 ), #191 ) ;
#99 =( NAMED_UNIT ( * ) PLANE_ANGLE_UNIT ( ) SI_UNIT ( $, .RADIAN. ) );
#100 = MANIFOLD_SOLID_BREP ( 'Revolve - Tool Body (Straight Shanked)', #143 ) ;
#101 = AXIS2_PLACEMENT_3D ( 'NONE', #176, #289, #227 ) ;
#102 = ORIENTED_EDGE ( 'NONE', *, *, #75, .F. ) ;
#103 = FILL_AREA_STYLE_COLOUR ( '', #294 ) ;
#104 = LINE ( 'NONE', #293, #262 ) ;
#105 = VECTOR ( 'NONE', #179, 1000.000000000000000 ) ;
#106 = PLANE ( 'NONE',  #205 ) ;
#107 = EDGE_LOOP ( 'NONE', ( #276, #201, #331, #164 ) ) ;
#108 = CYLINDRICAL_SURFACE ( 'NONE', #62, 3.999999999999996447 ) ;
#109 =( NAMED_UNIT ( * ) SI_UNIT ( $, .STERADIAN. ) SOLID_ANGLE_UNIT ( ) );
#110 = DIRECTION ( 'NONE',  ( 0.000000000000000000, 0.000000000000000000, -1.000000000000000000 ) ) ;
#111 = SURFACE_SIDE_STYLE ('',( #7 ) ) ;
#112 = CIRCLE ( 'NONE', #234, 4.000000000000000000 ) ;
#113 = FILL_AREA_STYLE_COLOUR ( '', #39 ) ;
#114 = ORIENTED_EDGE ( 'NONE', *, *, #310, .T. ) ;
#115 = COLOUR_RGB ( '',1.000000000000000000, 0.000000000000000000, 0.000000000000000000 ) ;
#116 = AXIS2_PLACEMENT_3D ( 'NONE', #33, #236, #338 ) ;
#117 = CYLINDRICAL_SURFACE ( 'NONE', #362, 4.000000000000000000 ) ;
#118 = EDGE_CURVE ( 'NONE', #150, #93, #50, .T. ) ;
#119 = VECTOR ( 'NONE', #27, 1000.000000000000000 ) ;
#120 =( LENGTH_UNIT ( ) NAMED_UNIT ( * ) SI_UNIT ( .MILLI., .METRE. ) );
#121 = FILL_AREA_STYLE_COLOUR ( '', #286 ) ;
#122 = CARTESIAN_POINT ( 'NONE',  ( 0.000000000000000000, 0.5000000000000000000, 0.000000000000000000 ) ) ;
#123 = ORIENTED_EDGE ( 'NONE', *, *, #273, .F. ) ;
#124 = STYLED_ITEM ( 'NONE', ( #169 ), #352 ) ;
#125 = AXIS2_PLACEMENT_3D ( 'NONE', #122, #231, #284 ) ;
#126 = CARTESIAN_POINT ( 'NONE',  ( 4.000000000000000000, 63.00000000000000000, 0.000000000000000000 ) ) ;
#127 = DIRECTION ( 'NONE',  ( -0.000000000000000000, -1.000000000000000000, -0.000000000000000000 ) ) ;
#128 = FACE_OUTER_BOUND ( 'NONE', #345, .T. ) ;
#129 = DIRECTION ( 'NONE',  ( -1.000000000000000000, 0.000000000000000000, 0.000000000000000000 ) ) ;
#130 = EDGE_CURVE ( 'NONE', #190, #254, #324, .T. ) ;
#131 = CARTESIAN_POINT ( 'NONE',  ( 4.286263797015736595E-16, 0.5000000000000000000, 3.500000000000000000 ) ) ;
#132 = CIRCLE ( 'NONE', #40, 3.999999999999993339 ) ;
#133 = VECTOR ( 'NONE', #182, 1000.000000000000000 ) ;
#134 = AXIS2_PLACEMENT_3D ( 'NONE', #96, #357, #353 ) ;
#135 = PRODUCT_CONTEXT ( 'NONE', #223, 'mechanical' ) ;
#136 = DIRECTION ( 'NONE',  ( -9.448620473410002383E-17, 1.000000000000000000, -0.000000000000000000 ) ) ;
#137 = APPLICATION_CONTEXT ( 'automotive_design' ) ;
#138 = FACE_OUTER_BOUND ( 'NONE', #183, .T. ) ;
#139 =( NAMED_UNIT ( * ) SI_UNIT ( $, .STERADIAN. ) SOLID_ANGLE_UNIT ( ) );
#140 = VERTEX_POINT ( 'NONE', #153 ) ;
#141 = APPLICATION_PROTOCOL_DEFINITION ( 'draft international standard', 'automotive_design', 1998, #137 ) ;
#142 =( NAMED_UNIT ( * ) PLANE_ANGLE_UNIT ( ) SI_UNIT ( $, .RADIAN. ) );
#143 = CLOSED_SHELL ( 'NONE', ( #233, #180, #257, #147 ) ) ;
#144 = SURFACE_SIDE_STYLE ('',( #14 ) ) ;
#145 = STYLED_ITEM ( 'NONE', ( #165 ), #366 ) ;
#146 = DIRECTION ( 'NONE',  ( -0.000000000000000000, -1.000000000000000000, -0.000000000000000000 ) ) ;
#147 = ADVANCED_FACE ( 'NONE', ( #22 ), #178, .F. ) ;
#148 = CARTESIAN_POINT ( 'NONE',  ( 0.000000000000000000, 0.000000000000000000, 0.000000000000000000 ) ) ;
#149 = DIRECTION ( 'NONE',  ( 0.000000000000000000, 0.000000000000000000, -1.000000000000000000 ) ) ;
#150 = VERTEX_POINT ( 'NONE', #204 ) ;
#151 = STYLED_ITEM ( 'NONE', ( #280 ), #302 ) ;
#152 = COLOUR_RGB ( '',1.000000000000000000, 0.000000000000000000, 0.000000000000000000 ) ;
#153 = CARTESIAN_POINT ( 'NONE',  ( 4.000000000000000000, 63.00000000000000000, 4.898587196589409870E-16 ) ) ;
#154 = SURFACE_SIDE_STYLE ('',( #328 ) ) ;
#155 = FACE_OUTER_BOUND ( 'NONE', #11, .T. ) ;
#156 = CIRCLE ( 'NONE', #59, 3.999999999999998224 ) ;
#157 = ORIENTED_EDGE ( 'NONE', *, *, #24, .T. ) ;
#158 =( NAMED_UNIT ( * ) SI_UNIT ( $, .STERADIAN. ) SOLID_ANGLE_UNIT ( ) );
#159 = VERTEX_POINT ( 'NONE', #206 ) ;
#160 = COLOUR_RGB ( '',1.000000000000000000, 0.000000000000000000, 0.000000000000000000 ) ;
#161 = LINE ( 'NONE', #187, #133 ) ;
#162 = ORIENTED_EDGE ( 'NONE', *, *, #49, .F. ) ;
#163 = CIRCLE ( 'NONE', #134, 3.500000000000000000 ) ;
#164 = ORIENTED_EDGE ( 'NONE', *, *, #290, .F. ) ;
#165 = PRESENTATION_STYLE_ASSIGNMENT (( #307 ) ) ;
#166 = AXIS2_PLACEMENT_3D ( 'NONE', #306, #32, #55 ) ;
#167 = DIRECTION ( 'NONE',  ( 0.000000000000000000, 1.000000000000000000, 0.000000000000000000 ) ) ;
#168 =( LENGTH_UNIT ( ) NAMED_UNIT ( * ) SI_UNIT ( .MILLI., .METRE. ) );
#169 = PRESENTATION_STYLE_ASSIGNMENT (( #91 ) ) ;
#170 = EDGE_CURVE ( 'NONE', #266, #254, #163, .T. ) ;
#171 = CARTESIAN_POINT ( 'NONE',  ( 0.000000000000000000, 12.00000000000000000, 0.000000000000000000 ) ) ;
#172 = ORIENTED_EDGE ( 'NONE', *, *, #118, .F. ) ;
#173 = CARTESIAN_POINT ( 'NONE',  ( 0.000000000000000000, 0.5000000000000000000, 0.000000000000000000 ) ) ;
#174 = SURFACE_SIDE_STYLE ('',( #297 ) ) ;
#175 = AXIS2_PLACEMENT_3D ( 'NONE', #70, #4, #110 ) ;
#176 = CARTESIAN_POINT ( 'NONE',  ( 0.000000000000000000, 12.00000000000000000, 0.000000000000000000 ) ) ;
#177 = ORIENTED_EDGE ( 'NONE', *, *, #24, .F. ) ;
#178 = PLANE ( 'NONE',  #341 ) ;
#179 = DIRECTION ( 'NONE',  ( -9.448620473410002383E-17, 1.000000000000000000, -0.000000000000000000 ) ) ;
#180 = ADVANCED_FACE ( 'NONE', ( #200 ), #322, .F. ) ;
#181 = UNCERTAINTY_MEASURE_WITH_UNIT (LENGTH_MEASURE( 1.000000000000000082E-05 ), #168, 'distance_accuracy_value', 'NONE');
#182 = DIRECTION ( 'NONE',  ( -0.000000000000000000, -1.000000000000000000, -0.000000000000000000 ) ) ;
#183 = EDGE_LOOP ( 'NONE', ( #28, #299 ) ) ;
#184 = SHAPE_DEFINITION_REPRESENTATION ( #2, #203 ) ;
#185 = FACE_OUTER_BOUND ( 'NONE', #38, .T. ) ;
#186 = UNCERTAINTY_MEASURE_WITH_UNIT (LENGTH_MEASURE( 1.000000000000000082E-05 ), #320, 'distance_accuracy_value', 'NONE');
#187 = CARTESIAN_POINT ( 'NONE',  ( 0.000000000000000000, 0.000000000000000000, -4.000000000000000000 ) ) ;
#188 = SURFACE_STYLE_USAGE ( .BOTH. , #174 ) ;
#189 = CARTESIAN_POINT ( 'NONE',  ( 0.000000000000000000, 0.000000000000000000, -3.500000000000000000 ) ) ;
#190 = VERTEX_POINT ( 'NONE', #318 ) ;
#191 =( GEOMETRIC_REPRESENTATION_CONTEXT ( 3 ) GLOBAL_UNCERTAINTY_ASSIGNED_CONTEXT ( ( #334 ) ) GLOBAL_UNIT_ASSIGNED_CONTEXT ( ( #37, #285, #139 ) ) REPRESENTATION_CONTEXT ( 'NONE', 'WORKASPACE' ) );
#192 = SURFACE_SIDE_STYLE ('',( #90 ) ) ;
#193 = EDGE_CURVE ( 'NONE', #282, #140, #255, .T. ) ;
#194 = CARTESIAN_POINT ( 'NONE',  ( 0.000000000000000000, 12.00000000000000000, 0.000000000000000000 ) ) ;
#195 = CARTESIAN_POINT ( 'NONE',  ( 0.000000000000000000, 0.000000000000000000, 0.000000000000000000 ) ) ;
#196 = FILL_AREA_STYLE_COLOUR ( '', #81 ) ;
#197 = EDGE_CURVE ( 'NONE', #159, #80, #305, .T. ) ;
#198 = DIRECTION ( 'NONE',  ( -1.000000000000000000, 0.000000000000000000, 0.000000000000000000 ) ) ;
#199 = ORIENTED_EDGE ( 'NONE', *, *, #290, .T. ) ;
#200 = FACE_OUTER_BOUND ( 'NONE', #258, .T. ) ;
#201 = ORIENTED_EDGE ( 'NONE', *, *, #358, .T. ) ;
#202 = CARTESIAN_POINT ( 'NONE',  ( 4.898587196589412829E-16, 12.00000000000000000, 4.000000000000000000 ) ) ;
#203 = ADVANCED_BREP_SHAPE_REPRESENTATION ( '59520', ( #366, #100, #166 ), #77 ) ;
#204 = CARTESIAN_POINT ( 'NONE',  ( -3.999999999999987121, 11.99999999999999645, 0.000000000000000000 ) ) ;
#205 = AXIS2_PLACEMENT_3D ( 'NONE', #148, #226, #17 ) ;
#206 = CARTESIAN_POINT ( 'NONE',  ( 0.000000000000000000, 12.00000000000000000, -4.000000000000000000 ) ) ;
#207 =( NAMED_UNIT ( * ) SI_UNIT ( $, .STERADIAN. ) SOLID_ANGLE_UNIT ( ) );
#208 = AXIS2_PLACEMENT_3D ( 'NONE', #224, #245, #45 ) ;
#209 = DIRECTION ( 'NONE',  ( -9.448620473410002383E-17, 1.000000000000000000, -0.000000000000000000 ) ) ;
#210 = AXIS2_PLACEMENT_3D ( 'NONE', #361, #314, #18 ) ;
#211 = ADVANCED_FACE ( 'NONE', ( #128 ), #264, .T. ) ;
#212 =( NAMED_UNIT ( * ) PLANE_ANGLE_UNIT ( ) SI_UNIT ( $, .RADIAN. ) );
#213 = FILL_AREA_STYLE_COLOUR ( '', #115 ) ;
#214 = PRESENTATION_LAYER_ASSIGNMENT (  '', '', ( #151 ) ) ;
#215 =( NAMED_UNIT ( * ) SI_UNIT ( $, .STERADIAN. ) SOLID_ANGLE_UNIT ( ) );
#216 =( NAMED_UNIT ( * ) PLANE_ANGLE_UNIT ( ) SI_UNIT ( $, .RADIAN. ) );
#217 = SURFACE_STYLE_USAGE ( .BOTH. , #287 ) ;
#218 = COLOUR_RGB ( '',1.000000000000000000, 0.000000000000000000, 0.000000000000000000 ) ;
#219 = ORIENTED_EDGE ( 'NONE', *, *, #5, .F. ) ;
#220 = MECHANICAL_DESIGN_GEOMETRIC_PRESENTATION_REPRESENTATION (  '', ( #235 ), #9 ) ;
#221 = PRODUCT_RELATED_PRODUCT_CATEGORY ( 'part', '', ( #66 ) ) ;
#222 = DIRECTION ( 'NONE',  ( -9.448620473410002383E-17, 1.000000000000000000, -0.000000000000000000 ) ) ;
#223 = APPLICATION_CONTEXT ( 'automotive_design' ) ;
#224 = CARTESIAN_POINT ( 'NONE',  ( 6.288372600415924928E-15, 11.99999999999999645, 0.000000000000000000 ) ) ;
#225 = DIRECTION ( 'NONE',  ( 1.000000000000000000, 9.448620473410002383E-17, 0.000000000000000000 ) ) ;
#226 = DIRECTION ( 'NONE',  ( 0.000000000000000000, -1.000000000000000000, -0.000000000000000000 ) ) ;
#227 = DIRECTION ( 'NONE',  ( 0.000000000000000000, 0.000000000000000000, -1.000000000000000000 ) ) ;
#228 = MECHANICAL_DESIGN_GEOMETRIC_PRESENTATION_REPRESENTATION (  '', ( #145 ), #43 ) ;
#229 = PRESENTATION_LAYER_ASSIGNMENT (  '', '', ( #145 ) ) ;
#230 = EDGE_CURVE ( 'NONE', #254, #266, #298, .T. ) ;
#231 = DIRECTION ( 'NONE',  ( -0.000000000000000000, -1.000000000000000000, -0.000000000000000000 ) ) ;
#232 = DIRECTION ( 'NONE',  ( 1.000000000000000000, 0.000000000000000000, -1.224646799147353207E-16 ) ) ;
#233 = ADVANCED_FACE ( 'NONE', ( #185 ), #108, .T. ) ;
#234 = AXIS2_PLACEMENT_3D ( 'NONE', #171, #146, #8 ) ;
#235 = STYLED_ITEM ( 'NONE', ( #369 ), #211 ) ;
#236 = DIRECTION ( 'NONE',  ( -0.000000000000000000, -1.000000000000000000, -0.000000000000000000 ) ) ;
#237 = FACE_OUTER_BOUND ( 'NONE', #30, .T. ) ;
#238 = STYLED_ITEM ( 'NONE', ( #86 ), #65 ) ;
#239 = CYLINDRICAL_SURFACE ( 'NONE', #316, 4.000000000000000000 ) ;
#240 =( LENGTH_UNIT ( ) NAMED_UNIT ( * ) SI_UNIT ( .MILLI., .METRE. ) );
#241 = CIRCLE ( 'NONE', #87, 4.000000000000000000 ) ;
#242 = FILL_AREA_STYLE ('',( #29 ) ) ;
#243 = PLANE ( 'NONE',  #269 ) ;
#244 = ORIENTED_EDGE ( 'NONE', *, *, #193, .T. ) ;
#245 = DIRECTION ( 'NONE',  ( -9.448620473410002383E-17, 1.000000000000000000, -0.000000000000000000 ) ) ;
#246 = STYLED_ITEM ( 'NONE', ( #356 ), #100 ) ;
#247 =( GEOMETRIC_REPRESENTATION_CONTEXT ( 3 ) GLOBAL_UNCERTAINTY_ASSIGNED_CONTEXT ( ( #327 ) ) GLOBAL_UNIT_ASSIGNED_CONTEXT ( ( #281, #95, #309 ) ) REPRESENTATION_CONTEXT ( 'NONE', 'WORKASPACE' ) );
#248 = DIRECTION ( 'NONE',  ( 0.000000000000000000, 0.000000000000000000, -1.000000000000000000 ) ) ;
#249 = MECHANICAL_DESIGN_GEOMETRIC_PRESENTATION_REPRESENTATION (  '', ( #295 ), #303 ) ;
#250 = CARTESIAN_POINT ( 'NONE',  ( 0.000000000000000000, 0.5000000000000000000, -3.500000000000000000 ) ) ;
#251 = FACE_OUTER_BOUND ( 'NONE', #265, .T. ) ;
#252 = ORIENTED_EDGE ( 'NONE', *, *, #13, .T. ) ;
#253 = CARTESIAN_POINT ( 'NONE',  ( -3.999999999999994671, 63.00000000000000000, 0.000000000000000000 ) ) ;
#254 = VERTEX_POINT ( 'NONE', #189 ) ;
#255 = LINE ( 'NONE', #73, #105 ) ;
#256 = SURFACE_STYLE_USAGE ( .BOTH. , #111 ) ;
#257 = ADVANCED_FACE ( 'NONE', ( #333 ), #260, .T. ) ;
#258 = EDGE_LOOP ( 'NONE', ( #319, #162 ) ) ;
#259 = ORIENTED_EDGE ( 'NONE', *, *, #193, .F. ) ;
#260 = CYLINDRICAL_SURFACE ( 'NONE', #364, 3.999999999999996447 ) ;
#261 = PRESENTATION_LAYER_ASSIGNMENT (  '', '', ( #124 ) ) ;
#262 = VECTOR ( 'NONE', #34, 1000.000000000000000 ) ;
#263 = DIRECTION ( 'NONE',  ( -1.000000000000000000, 0.000000000000000000, 0.000000000000000000 ) ) ;
#264 = TOROIDAL_SURFACE ( 'NONE', #116, 3.500000000000000000, 0.5000000000000000000 ) ;
#265 = EDGE_LOOP ( 'NONE', ( #219, #199, #67, #19 ) ) ;
#266 = VERTEX_POINT ( 'NONE', #268 ) ;
#267 = ADVANCED_FACE ( 'NONE', ( #155 ), #239, .T. ) ;
#268 = CARTESIAN_POINT ( 'NONE',  ( 4.592425496802573972E-16, 0.000000000000000000, 3.500000000000000000 ) ) ;
#269 = AXIS2_PLACEMENT_3D ( 'NONE', #194, #167, #64 ) ;
#270 = UNCERTAINTY_MEASURE_WITH_UNIT (LENGTH_MEASURE( 1.000000000000000082E-05 ), #1, 'distance_accuracy_value', 'NONE');
#271 = CARTESIAN_POINT ( 'NONE',  ( 0.000000000000000000, 0.5000000000000000000, 0.000000000000000000 ) ) ;
#272 = ORIENTED_EDGE ( 'NONE', *, *, #170, .T. ) ;
#273 = EDGE_CURVE ( 'NONE', #159, #190, #161, .T. ) ;
#274 =( LENGTH_UNIT ( ) NAMED_UNIT ( * ) SI_UNIT ( .MILLI., .METRE. ) );
#275 = CIRCLE ( 'NONE', #208, 3.999999999999993339 ) ;
#276 = ORIENTED_EDGE ( 'NONE', *, *, #13, .F. ) ;
#277 = PRESENTATION_LAYER_ASSIGNMENT (  '', '', ( #246 ) ) ;
#278 = SURFACE_STYLE_FILL_AREA ( #308 ) ;
#279 = ORIENTED_EDGE ( 'NONE', *, *, #313, .F. ) ;
#280 = PRESENTATION_STYLE_ASSIGNMENT (( #92 ) ) ;
#281 =( LENGTH_UNIT ( ) NAMED_UNIT ( * ) SI_UNIT ( .MILLI., .METRE. ) );
#282 = VERTEX_POINT ( 'NONE', #58 ) ;
#283 = PRESENTATION_LAYER_ASSIGNMENT (  '', '', ( #317 ) ) ;
#284 = DIRECTION ( 'NONE',  ( 0.000000000000000000, 0.000000000000000000, -1.000000000000000000 ) ) ;
#285 =( NAMED_UNIT ( * ) PLANE_ANGLE_UNIT ( ) SI_UNIT ( $, .RADIAN. ) );
#286 = COLOUR_RGB ( '',0.7921568627450980005, 0.8196078431372548767, 0.9333333333333333481 ) ;
#287 = SURFACE_SIDE_STYLE ('',( #69 ) ) ;
#288 = ORIENTED_EDGE ( 'NONE', *, *, #49, .T. ) ;
#289 = DIRECTION ( 'NONE',  ( -0.000000000000000000, -1.000000000000000000, -0.000000000000000000 ) ) ;
#290 = EDGE_CURVE ( 'NONE', #88, #190, #241, .T. ) ;
#291 = UNCERTAINTY_MEASURE_WITH_UNIT (LENGTH_MEASURE( 1.000000000000000082E-05 ), #340, 'distance_accuracy_value', 'NONE');
#292 = DIRECTION ( 'NONE',  ( -1.000000000000000000, 0.000000000000000000, 0.000000000000000000 ) ) ;
#293 = CARTESIAN_POINT ( 'NONE',  ( 4.898587196589412829E-16, 0.000000000000000000, 4.000000000000000000 ) ) ;
#294 = COLOUR_RGB ( '',1.000000000000000000, 0.000000000000000000, 0.000000000000000000 ) ;
#295 = STYLED_ITEM ( 'NONE', ( #35 ), #267 ) ;
#296 = DIRECTION ( 'NONE',  ( 0.000000000000000000, 0.000000000000000000, -1.000000000000000000 ) ) ;
#297 = SURFACE_STYLE_FILL_AREA ( #329 ) ;
#298 = CIRCLE ( 'NONE', #175, 3.500000000000000000 ) ;
#299 = ORIENTED_EDGE ( 'NONE', *, *, #358, .F. ) ;
#300 = DIRECTION ( 'NONE',  ( -1.000000000000000000, 0.000000000000000000, 0.000000000000000000 ) ) ;
#301 = SURFACE_STYLE_USAGE ( .BOTH. , #154 ) ;
#302 = ADVANCED_FACE ( 'NONE', ( #138 ), #243, .T. ) ;
#303 =( GEOMETRIC_REPRESENTATION_CONTEXT ( 3 ) GLOBAL_UNCERTAINTY_ASSIGNED_CONTEXT ( ( #368 ) ) GLOBAL_UNIT_ASSIGNED_CONTEXT ( ( #240, #212, #109 ) ) REPRESENTATION_CONTEXT ( 'NONE', 'WORKASPACE' ) );
#304 = ORIENTED_EDGE ( 'NONE', *, *, #75, .T. ) ;
#305 = CIRCLE ( 'NONE', #101, 4.000000000000000000 ) ;
#306 = CARTESIAN_POINT ( 'NONE',  ( 0.000000000000000000, 0.000000000000000000, 0.000000000000000000 ) ) ;
#307 = SURFACE_STYLE_USAGE ( .BOTH. , #192 ) ;
#308 = FILL_AREA_STYLE ('',( #42 ) ) ;
#309 =( NAMED_UNIT ( * ) SI_UNIT ( $, .STERADIAN. ) SOLID_ANGLE_UNIT ( ) );
#310 = EDGE_CURVE ( 'NONE', #150, #282, #275, .T. ) ;
#311 = DIRECTION ( 'NONE',  ( -0.000000000000000000, -1.000000000000000000, -0.000000000000000000 ) ) ;
#312 = FILL_AREA_STYLE ('',( #196 ) ) ;
#313 = EDGE_CURVE ( 'NONE', #140, #93, #323, .T. ) ;
#314 = DIRECTION ( 'NONE',  ( -9.448620473410002383E-17, 1.000000000000000000, 0.000000000000000000 ) ) ;
#315 = SURFACE_STYLE_FILL_AREA ( #97 ) ;
#316 = AXIS2_PLACEMENT_3D ( 'NONE', #78, #335, #84 ) ;
#317 = STYLED_ITEM ( 'NONE', ( #26 ), #71 ) ;
#318 = CARTESIAN_POINT ( 'NONE',  ( 0.000000000000000000, 0.5000000000000000000, -4.000000000000000000 ) ) ;
#319 = ORIENTED_EDGE ( 'NONE', *, *, #310, .F. ) ;
#320 =( LENGTH_UNIT ( ) NAMED_UNIT ( * ) SI_UNIT ( .MILLI., .METRE. ) );
#321 =( NAMED_UNIT ( * ) SI_UNIT ( $, .STERADIAN. ) SOLID_ANGLE_UNIT ( ) );
#322 = PLANE ( 'NONE',  #210 ) ;
#323 = CIRCLE ( 'NONE', #51, 3.999999999999998224 ) ;
#324 = CIRCLE ( 'NONE', #15, 0.5000000000000000000 ) ;
#325 = DIRECTION ( 'NONE',  ( 0.000000000000000000, 0.000000000000000000, 1.000000000000000000 ) ) ;
#326 = CARTESIAN_POINT ( 'NONE',  ( 6.288372600415924928E-15, 11.99999999999999645, 0.000000000000000000 ) ) ;
#327 = UNCERTAINTY_MEASURE_WITH_UNIT (LENGTH_MEASURE( 1.000000000000000082E-05 ), #281, 'distance_accuracy_value', 'NONE');
#328 = SURFACE_STYLE_FILL_AREA ( #242 ) ;
#329 = FILL_AREA_STYLE ('',( #213 ) ) ;
#330 = DIRECTION ( 'NONE',  ( -9.448620473410002383E-17, 1.000000000000000000, -0.000000000000000000 ) ) ;
#331 = ORIENTED_EDGE ( 'NONE', *, *, #273, .T. ) ;
#332 =( NAMED_UNIT ( * ) PLANE_ANGLE_UNIT ( ) SI_UNIT ( $, .RADIAN. ) );
#333 = FACE_OUTER_BOUND ( 'NONE', #6, .T. ) ;
#334 = UNCERTAINTY_MEASURE_WITH_UNIT (LENGTH_MEASURE( 1.000000000000000082E-05 ), #37, 'distance_accuracy_value', 'NONE');
#335 = DIRECTION ( 'NONE',  ( -0.000000000000000000, -1.000000000000000000, -0.000000000000000000 ) ) ;
#336 =( NAMED_UNIT ( * ) PLANE_ANGLE_UNIT ( ) SI_UNIT ( $, .RADIAN. ) );
#337 = CLOSED_SHELL ( 'NONE', ( #267, #211, #65, #71, #352, #302 ) ) ;
#338 = DIRECTION ( 'NONE',  ( 0.000000000000000000, 0.000000000000000000, -1.000000000000000000 ) ) ;
#339 = ORIENTED_EDGE ( 'NONE', *, *, #5, .T. ) ;
#340 =( LENGTH_UNIT ( ) NAMED_UNIT ( * ) SI_UNIT ( .MILLI., .METRE. ) );
#341 = AXIS2_PLACEMENT_3D ( 'NONE', #126, #25, #225 ) ;
#342 = FILL_AREA_STYLE ('',( #113 ) ) ;
#343 = CIRCLE ( 'NONE', #47, 0.5000000000000000000 ) ;
#344 =( NAMED_UNIT ( * ) SI_UNIT ( $, .STERADIAN. ) SOLID_ANGLE_UNIT ( ) );
#345 = EDGE_LOOP ( 'NONE', ( #304, #339, #60, #63 ) ) ;
#346 = SURFACE_SIDE_STYLE ('',( #278 ) ) ;
#347 = EDGE_LOOP ( 'NONE', ( #157, #350 ) ) ;
#348 = MECHANICAL_DESIGN_GEOMETRIC_PRESENTATION_REPRESENTATION (  '', ( #151 ), #94 ) ;
#349 = FACE_OUTER_BOUND ( 'NONE', #107, .T. ) ;
#350 = ORIENTED_EDGE ( 'NONE', *, *, #313, .T. ) ;
#351 = PRESENTATION_LAYER_ASSIGNMENT (  '', '', ( #295 ) ) ;
#352 = ADVANCED_FACE ( 'NONE', ( #349 ), #117, .T. ) ;
#353 = DIRECTION ( 'NONE',  ( 0.000000000000000000, 0.000000000000000000, -1.000000000000000000 ) ) ;
#354 =( GEOMETRIC_REPRESENTATION_CONTEXT ( 3 ) GLOBAL_UNCERTAINTY_ASSIGNED_CONTEXT ( ( #186 ) ) GLOBAL_UNIT_ASSIGNED_CONTEXT ( ( #320, #359, #207 ) ) REPRESENTATION_CONTEXT ( 'NONE', 'WORKASPACE' ) );
#355 = CIRCLE ( 'NONE', #125, 4.000000000000000000 ) ;
#356 = PRESENTATION_STYLE_ASSIGNMENT (( #72 ) ) ;
#357 = DIRECTION ( 'NONE',  ( -0.000000000000000000, -1.000000000000000000, -0.000000000000000000 ) ) ;
#358 = EDGE_CURVE ( 'NONE', #80, #159, #112, .T. ) ;
#359 =( NAMED_UNIT ( * ) PLANE_ANGLE_UNIT ( ) SI_UNIT ( $, .RADIAN. ) );
#360 = UNCERTAINTY_MEASURE_WITH_UNIT (LENGTH_MEASURE( 1.000000000000000082E-05 ), #274, 'distance_accuracy_value', 'NONE');
#361 = CARTESIAN_POINT ( 'NONE',  ( 6.288372600415925717E-15, 12.00000000000000000, 0.000000000000000000 ) ) ;
#362 = AXIS2_PLACEMENT_3D ( 'NONE', #195, #311, #248 ) ;
#363 = DIRECTION ( 'NONE',  ( -1.224646799147353454E-16, 0.000000000000000000, -1.000000000000000000 ) ) ;
#364 = AXIS2_PLACEMENT_3D ( 'NONE', #82, #136, #300 ) ;
#365 = PRESENTATION_LAYER_ASSIGNMENT (  '', '', ( #235 ) ) ;
#366 = MANIFOLD_SOLID_BREP ( 'Revolve - Cutting Edge', #337 ) ;
#367 = DIRECTION ( 'NONE',  ( -1.000000000000000000, 0.000000000000000000, 0.000000000000000000 ) ) ;
#368 = UNCERTAINTY_MEASURE_WITH_UNIT (LENGTH_MEASURE( 1.000000000000000082E-05 ), #240, 'distance_accuracy_value', 'NONE');
#369 = PRESENTATION_STYLE_ASSIGNMENT (( #217 ) ) ;
#370 = MECHANICAL_DESIGN_GEOMETRIC_PRESENTATION_REPRESENTATION (  '', ( #124 ), #247 ) ;
ENDSEC;
END-ISO-10303-21;
