ISO-10303-21;
HEADER;
FILE_DESCRIPTION (( 'STEP AP214' ),
    '1' );
FILE_NAME ('07035.STEP',
    '2023-07-12T13:05:26',
    ( '' ),
    ( '' ),
    'SwSTEP 2.0',
    'SolidWorks 2023',
    '' );
FILE_SCHEMA (( 'AUTOMOTIVE_DESIGN' ));
ENDSEC;

DATA;
#1 = ORIENTED_EDGE ( 'NONE', *, *, #18, .F. ) ;
#2 = FACE_OUTER_BOUND ( 'NONE', #182, .T. ) ;
#3 = ORIENTED_EDGE ( 'NONE', *, *, #30, .T. ) ;
#4 = EDGE_LOOP ( 'NONE', ( #161, #66 ) ) ;
#5 = ORIENTED_EDGE ( 'NONE', *, *, #153, .T. ) ;
#6 =( GEOMETRIC_REPRESENTATION_CONTEXT ( 3 ) GLOBAL_UNCERTAINTY_ASSIGNED_CONTEXT ( ( #7 ) ) GLOBAL_UNIT_ASSIGNED_CONTEXT ( ( #56, #106, #267 ) ) REPRESENTATION_CONTEXT ( 'NONE', 'WORKASPACE' ) );
#7 = UNCERTAINTY_MEASURE_WITH_UNIT (LENGTH_MEASURE( 1.000000000000000082E-05 ), #56, 'distance_accuracy_value', 'NONE');
#8 = DIRECTION ( 'NONE',  ( -1.220982727043392245E-16, 1.000000000000000000, -0.000000000000000000 ) ) ;
#9 = CONICAL_SURFACE ( 'NONE', #228, 0.04000000000000000083, 1.047197551196600074 ) ;
#10 = FILL_AREA_STYLE_COLOUR ( '', #145 ) ;
#11 = CARTESIAN_POINT ( 'NONE',  ( -0.2499999999999994449, 0.1212435565298207590, 0.000000000000000000 ) ) ;
#12 =( GEOMETRIC_REPRESENTATION_CONTEXT ( 3 ) GLOBAL_UNCERTAINTY_ASSIGNED_CONTEXT ( ( #226 ) ) GLOBAL_UNIT_ASSIGNED_CONTEXT ( ( #213, #229, #185 ) ) REPRESENTATION_CONTEXT ( 'NONE', 'WORKASPACE' ) );
#13 = AXIS2_PLACEMENT_3D ( 'NONE', #283, #49, #186 ) ;
#14 =( GEOMETRIC_REPRESENTATION_CONTEXT ( 3 ) GLOBAL_UNCERTAINTY_ASSIGNED_CONTEXT ( ( #198 ) ) GLOBAL_UNIT_ASSIGNED_CONTEXT ( ( #133, #179, #306 ) ) REPRESENTATION_CONTEXT ( 'NONE', 'WORKASPACE' ) );
#15 = LENGTH_MEASURE_WITH_UNIT ( LENGTH_MEASURE( 0.02539999999999999897 ), #40 );
#16 = DIRECTION ( 'NONE',  ( -1.220982727043392245E-16, 1.000000000000000000, -0.000000000000000000 ) ) ;
#17 = ADVANCED_FACE ( 'NONE', ( #255 ), #124, .F. ) ;
#18 = EDGE_CURVE ( 'NONE', #21, #97, #75, .T. ) ;
#19 = SURFACE_STYLE_FILL_AREA ( #86 ) ;
#20 = STYLED_ITEM ( 'NONE', ( #150 ), #207 ) ;
#21 = VERTEX_POINT ( 'NONE', #239 ) ;
#22 = PRESENTATION_STYLE_ASSIGNMENT (( #256 ) ) ;
#23 = DIRECTION ( 'NONE',  ( 0.8660254037844397068, 0.4999999999999979461, 1.060575238724908024E-16 ) ) ;
#24 = LENGTH_MEASURE_WITH_UNIT ( LENGTH_MEASURE( 0.02539999999999999897 ), #258 );
#25 = EDGE_LOOP ( 'NONE', ( #211, #3, #188, #206 ) ) ;
#26 = COLOUR_RGB ( '',1.000000000000000000, 0.000000000000000000, 0.000000000000000000 ) ;
#27 = ORIENTED_EDGE ( 'NONE', *, *, #98, .T. ) ;
#28 = LINE ( 'NONE', #254, #209 ) ;
#29 = CARTESIAN_POINT ( 'NONE',  ( 2.288366353992201027E-35, 9.567374465321613513E-19, 0.000000000000000000 ) ) ;
#30 = EDGE_CURVE ( 'NONE', #54, #21, #139, .T. ) ;
#31 = FACE_OUTER_BOUND ( 'NONE', #214, .T. ) ;
#32 = CYLINDRICAL_SURFACE ( 'NONE', #48, 0.2499999999999998890 ) ;
#33 = AXIS2_PLACEMENT_3D ( 'NONE', #60, #152, #197 ) ;
#34 =( CONVERSION_BASED_UNIT ( 'INCH', #195 ) LENGTH_UNIT ( ) NAMED_UNIT ( #281 ) );
#35 =( NAMED_UNIT ( * ) SI_UNIT ( $, .STERADIAN. ) SOLID_ANGLE_UNIT ( ) );
#36 = DIRECTION ( 'NONE',  ( -1.000000000000000000, -1.365923996832133088E-16, 0.000000000000000000 ) ) ;
#37 = STYLED_ITEM ( 'NONE', ( #22 ), #282 ) ;
#38 = AXIS2_PLACEMENT_3D ( 'NONE', #81, #170, #80 ) ;
#39 = AXIS2_PLACEMENT_3D ( 'NONE', #134, #16, #87 ) ;
#40 =( LENGTH_UNIT ( ) NAMED_UNIT ( * ) SI_UNIT ( $, .METRE. ) );
#41 = ADVANCED_FACE ( 'NONE', ( #2 ), #9, .T. ) ;
#42 = CARTESIAN_POINT ( 'NONE',  ( 2.899956267070462108E-18, 0.1212435565298207590, 0.000000000000000000 ) ) ;
#43 = FILL_AREA_STYLE_COLOUR ( '', #178 ) ;
#44 = DIMENSIONAL_EXPONENTS ( 1.000000000000000000, 0.000000000000000000, 0.000000000000000000, 0.000000000000000000, 0.000000000000000000, 0.000000000000000000, 0.000000000000000000 ) ;
#45 = PLANE ( 'NONE',  #132 ) ;
#46 = DIMENSIONAL_EXPONENTS ( 1.000000000000000000, 0.000000000000000000, 0.000000000000000000, 0.000000000000000000, 0.000000000000000000, 0.000000000000000000, 0.000000000000000000 ) ;
#47 = CARTESIAN_POINT ( 'NONE',  ( 2.288366353992201027E-35, 9.567374465321613513E-19, 0.000000000000000000 ) ) ;
#48 = AXIS2_PLACEMENT_3D ( 'NONE', #126, #82, #193 ) ;
#49 = DIRECTION ( 'NONE',  ( -2.391843616330403571E-17, -1.000000000000000000, -0.000000000000000000 ) ) ;
#50 = PRESENTATION_STYLE_ASSIGNMENT (( #257 ) ) ;
#51 = SURFACE_STYLE_USAGE ( .BOTH. , #180 ) ;
#52 = ORIENTED_EDGE ( 'NONE', *, *, #118, .F. ) ;
#53 = SURFACE_STYLE_FILL_AREA ( #260 ) ;
#54 = VERTEX_POINT ( 'NONE', #110 ) ;
#55 = ORIENTED_EDGE ( 'NONE', *, *, #212, .F. ) ;
#56 =( CONVERSION_BASED_UNIT ( 'INCH', #69 ) LENGTH_UNIT ( ) NAMED_UNIT ( #46 ) );
#57 = DIRECTION ( 'NONE',  ( -1.220982727043392245E-16, 1.000000000000000000, -0.000000000000000000 ) ) ;
#58 = CARTESIAN_POINT ( 'NONE',  ( -6.123233995736772199E-17, 3.000000000000000444, 0.000000000000000000 ) ) ;
#59 = CARTESIAN_POINT ( 'NONE',  ( 0.2500000000000000000, 0.1212435565298208284, 3.061616997868382402E-17 ) ) ;
#60 = CARTESIAN_POINT ( 'NONE',  ( 0.000000000000000000, 0.000000000000000000, 0.000000000000000000 ) ) ;
#61 = AXIS2_PLACEMENT_3D ( 'NONE', #242, #57, #171 ) ;
#62 = SURFACE_STYLE_USAGE ( .BOTH. , #157 ) ;
#63 = DIRECTION ( 'NONE',  ( -2.391843616330403879E-17, -1.000000000000000000, 0.000000000000000000 ) ) ;
#64 = CIRCLE ( 'NONE', #274, 0.2499999999999997224 ) ;
#65 = SURFACE_STYLE_FILL_AREA ( #279 ) ;
#66 = ORIENTED_EDGE ( 'NONE', *, *, #92, .F. ) ;
#67 = FACE_OUTER_BOUND ( 'NONE', #25, .T. ) ;
#68 = FILL_AREA_STYLE ('',( #285 ) ) ;
#69 = LENGTH_MEASURE_WITH_UNIT ( LENGTH_MEASURE( 0.02539999999999999897 ), #144 );
#70 = ORIENTED_EDGE ( 'NONE', *, *, #118, .T. ) ;
#71 = EDGE_CURVE ( 'NONE', #120, #91, #64, .T. ) ;
#72 = DIMENSIONAL_EXPONENTS ( 1.000000000000000000, 0.000000000000000000, 0.000000000000000000, 0.000000000000000000, 0.000000000000000000, 0.000000000000000000, 0.000000000000000000 ) ;
#73 = ORIENTED_EDGE ( 'NONE', *, *, #130, .T. ) ;
#74 = ORIENTED_EDGE ( 'NONE', *, *, #30, .F. ) ;
#75 = CIRCLE ( 'NONE', #13, 0.2500000000000000000 ) ;
#76 = MECHANICAL_DESIGN_GEOMETRIC_PRESENTATION_REPRESENTATION (  '', ( #20 ), #14 ) ;
#77 = FILL_AREA_STYLE ('',( #10 ) ) ;
#78 =( GEOMETRIC_REPRESENTATION_CONTEXT ( 3 ) GLOBAL_UNCERTAINTY_ASSIGNED_CONTEXT ( ( #270 ) ) GLOBAL_UNIT_ASSIGNED_CONTEXT ( ( #301, #250, #35 ) ) REPRESENTATION_CONTEXT ( 'NONE', 'WORKASPACE' ) );
#79 = DIRECTION ( 'NONE',  ( 1.000000000000000000, 0.000000000000000000, 0.000000000000000000 ) ) ;
#80 = DIRECTION ( 'NONE',  ( 1.000000000000000000, -2.391843616330403263E-17, 0.000000000000000000 ) ) ;
#81 = CARTESIAN_POINT ( 'NONE',  ( 2.288366353992201027E-35, 9.567374465321613513E-19, 0.000000000000000000 ) ) ;
#82 = DIRECTION ( 'NONE',  ( -1.220982727043392245E-16, 1.000000000000000000, -0.000000000000000000 ) ) ;
#83 = ADVANCED_FACE ( 'NONE', ( #296 ), #32, .T. ) ;
#84 = APPLICATION_PROTOCOL_DEFINITION ( 'draft international standard', 'automotive_design', 1998, #107 ) ;
#85 =( LENGTH_UNIT ( ) NAMED_UNIT ( * ) SI_UNIT ( $, .METRE. ) );
#86 = FILL_AREA_STYLE ('',( #43 ) ) ;
#87 = DIRECTION ( 'NONE',  ( -1.000000000000000000, 0.000000000000000000, 0.000000000000000000 ) ) ;
#88 = STYLED_ITEM ( 'NONE', ( #140 ), #305 ) ;
#89 = PRESENTATION_LAYER_ASSIGNMENT (  '', '', ( #151 ) ) ;
#90 = FILL_AREA_STYLE_COLOUR ( '', #304 ) ;
#91 = VERTEX_POINT ( 'NONE', #59 ) ;
#92 = EDGE_CURVE ( 'NONE', #91, #120, #238, .T. ) ;
#93 = SURFACE_STYLE_FILL_AREA ( #205 ) ;
#94 = CARTESIAN_POINT ( 'NONE',  ( 2.288366353992201027E-35, 9.567374465321613513E-19, 0.000000000000000000 ) ) ;
#95 = DIRECTION ( 'NONE',  ( 2.391843616330403571E-17, 1.000000000000000000, 0.000000000000000000 ) ) ;
#96 = VECTOR ( 'NONE', #8, 39.37007874015748143 ) ;
#97 = VERTEX_POINT ( 'NONE', #173 ) ;
#98 = EDGE_CURVE ( 'NONE', #184, #54, #143, .T. ) ;
#99 = DIRECTION ( 'NONE',  ( -1.220982727043392245E-16, 1.000000000000000000, -0.000000000000000000 ) ) ;
#100 = DIRECTION ( 'NONE',  ( -1.000000000000000000, -1.220982727043392245E-16, 0.000000000000000000 ) ) ;
#101 = PRESENTATION_LAYER_ASSIGNMENT (  '', '', ( #88 ) ) ;
#102 = DIRECTION ( 'NONE',  ( -1.220982727043392245E-16, 1.000000000000000000, -0.000000000000000000 ) ) ;
#103 = MECHANICAL_DESIGN_GEOMETRIC_PRESENTATION_REPRESENTATION (  '', ( #151 ), #264 ) ;
#104 = CARTESIAN_POINT ( 'NONE',  ( 0.2499999999999998335, 3.000000000000000444, 3.061616997868381785E-17 ) ) ;
#105 = PRODUCT_DEFINITION ( 'UNKNOWN', '', #291, #111 ) ;
#106 =( NAMED_UNIT ( * ) PLANE_ANGLE_UNIT ( ) SI_UNIT ( $, .RADIAN. ) );
#107 = APPLICATION_CONTEXT ( 'automotive_design' ) ;
#108 = DIRECTION ( 'NONE',  ( -1.220982727043392245E-16, 1.000000000000000000, -0.000000000000000000 ) ) ;
#109 = PRESENTATION_LAYER_ASSIGNMENT (  '', '', ( #37 ) ) ;
#110 = CARTESIAN_POINT ( 'NONE',  ( 0.04000000000000000083, 0.000000000000000000, 1.775737858763662224E-17 ) ) ;
#111 = PRODUCT_DEFINITION_CONTEXT ( 'detailed design', #107, 'design' ) ;
#112 =( CONVERSION_BASED_UNIT ( 'INCH', #15 ) LENGTH_UNIT ( ) NAMED_UNIT ( #235 ) );
#113 =( LENGTH_UNIT ( ) NAMED_UNIT ( * ) SI_UNIT ( $, .METRE. ) );
#114 =( NAMED_UNIT ( * ) SI_UNIT ( $, .STERADIAN. ) SOLID_ANGLE_UNIT ( ) );
#115 = SURFACE_SIDE_STYLE ('',( #19 ) ) ;
#116 = FILL_AREA_STYLE_COLOUR ( '', #117 ) ;
#117 = COLOUR_RGB ( '',0.7921568627450980005, 0.8196078431372548767, 0.9333333333333333481 ) ;
#118 = EDGE_CURVE ( 'NONE', #91, #166, #215, .T. ) ;
#119 = CARTESIAN_POINT ( 'NONE',  ( -0.2499999999999999722, 3.000000000000000444, 0.000000000000000000 ) ) ;
#120 = VERTEX_POINT ( 'NONE', #11 ) ;
#121 = EDGE_LOOP ( 'NONE', ( #162, #73 ) ) ;
#122 = SURFACE_SIDE_STYLE ('',( #93 ) ) ;
#123 = ORIENTED_EDGE ( 'NONE', *, *, #247, .T. ) ;
#124 = PLANE ( 'NONE',  #299 ) ;
#125 = EDGE_LOOP ( 'NONE', ( #52, #234, #142, #289 ) ) ;
#126 = CARTESIAN_POINT ( 'NONE',  ( -6.123233995736772199E-17, 3.000000000000000444, 0.000000000000000000 ) ) ;
#127 = SURFACE_STYLE_USAGE ( .BOTH. , #149 ) ;
#128 = CLOSED_SHELL ( 'NONE', ( #282, #207, #41, #305 ) ) ;
#129 = DIRECTION ( 'NONE',  ( -2.391843616330403571E-17, -1.000000000000000000, -0.000000000000000000 ) ) ;
#130 = EDGE_CURVE ( 'NONE', #166, #208, #221, .T. ) ;
#131 = DIRECTION ( 'NONE',  ( -1.220982727043392245E-16, 1.000000000000000000, -0.000000000000000000 ) ) ;
#132 = AXIS2_PLACEMENT_3D ( 'NONE', #249, #227, #275 ) ;
#133 =( CONVERSION_BASED_UNIT ( 'INCH', #300 ) LENGTH_UNIT ( ) NAMED_UNIT ( #287 ) );
#134 = CARTESIAN_POINT ( 'NONE',  ( -6.123233995736772199E-17, 3.000000000000000444, 0.000000000000000000 ) ) ;
#135 = AXIS2_PLACEMENT_3D ( 'NONE', #167, #191, #79 ) ;
#136 = UNCERTAINTY_MEASURE_WITH_UNIT (LENGTH_MEASURE( 1.000000000000000082E-05 ), #112, 'distance_accuracy_value', 'NONE');
#137 = PRESENTATION_STYLE_ASSIGNMENT (( #62 ) ) ;
#138 = DIRECTION ( 'NONE',  ( -0.8660254037844397068, 0.4999999999999979461, 0.000000000000000000 ) ) ;
#139 = LINE ( 'NONE', #232, #243 ) ;
#140 = PRESENTATION_STYLE_ASSIGNMENT (( #51 ) ) ;
#141 = SURFACE_STYLE_FILL_AREA ( #68 ) ;
#142 = ORIENTED_EDGE ( 'NONE', *, *, #272, .T. ) ;
#143 = CIRCLE ( 'NONE', #248, 0.04000000000000000083 ) ;
#144 =( LENGTH_UNIT ( ) NAMED_UNIT ( * ) SI_UNIT ( $, .METRE. ) );
#145 = COLOUR_RGB ( '',1.000000000000000000, 0.000000000000000000, 0.000000000000000000 ) ;
#146 = ORIENTED_EDGE ( 'NONE', *, *, #183, .T. ) ;
#147 = ORIENTED_EDGE ( 'NONE', *, *, #98, .F. ) ;
#148 = CARTESIAN_POINT ( 'NONE',  ( 0.2500000000000000000, 3.000000000000000444, 3.061616997868382402E-17 ) ) ;
#149 = SURFACE_SIDE_STYLE ('',( #222 ) ) ;
#150 = PRESENTATION_STYLE_ASSIGNMENT (( #127 ) ) ;
#151 = STYLED_ITEM ( 'NONE', ( #137 ), #233 ) ;
#152 = DIRECTION ( 'NONE',  ( 0.000000000000000000, 0.000000000000000000, 1.000000000000000000 ) ) ;
#153 = EDGE_CURVE ( 'NONE', #97, #21, #269, .T. ) ;
#154 = SHAPE_DEFINITION_REPRESENTATION ( #277, #196 ) ;
#155 = FACE_OUTER_BOUND ( 'NONE', #121, .T. ) ;
#156 = VECTOR ( 'NONE', #99, 39.37007874015748143 ) ;
#157 = SURFACE_SIDE_STYLE ('',( #65 ) ) ;
#158 =( NAMED_UNIT ( * ) PLANE_ANGLE_UNIT ( ) SI_UNIT ( $, .RADIAN. ) );
#159 = CARTESIAN_POINT ( 'NONE',  ( 2.902588493268279793E-16, 0.1212435565298207452, 0.000000000000000000 ) ) ;
#160 = SURFACE_SIDE_STYLE ('',( #141 ) ) ;
#161 = ORIENTED_EDGE ( 'NONE', *, *, #71, .F. ) ;
#162 = ORIENTED_EDGE ( 'NONE', *, *, #212, .T. ) ;
#163 = AXIS2_PLACEMENT_3D ( 'NONE', #47, #95, #231 ) ;
#164 = CONICAL_SURFACE ( 'NONE', #163, 0.04000000000000000083, 1.047197551196600074 ) ;
#165 = PRESENTATION_LAYER_ASSIGNMENT (  '', '', ( #308 ) ) ;
#166 = VERTEX_POINT ( 'NONE', #148 ) ;
#167 = CARTESIAN_POINT ( 'NONE',  ( 2.899956267070462878E-18, 0.1212435565298207868, 0.000000000000000000 ) ) ;
#168 = FACE_OUTER_BOUND ( 'NONE', #288, .T. ) ;
#169 =( GEOMETRIC_REPRESENTATION_CONTEXT ( 3 ) GLOBAL_UNCERTAINTY_ASSIGNED_CONTEXT ( ( #136 ) ) GLOBAL_UNIT_ASSIGNED_CONTEXT ( ( #112, #158, #284 ) ) REPRESENTATION_CONTEXT ( 'NONE', 'WORKASPACE' ) );
#170 = DIRECTION ( 'NONE',  ( -2.391843616330403571E-17, -1.000000000000000000, -0.000000000000000000 ) ) ;
#171 = DIRECTION ( 'NONE',  ( -1.000000000000000000, 0.000000000000000000, 0.000000000000000000 ) ) ;
#172 = APPLICATION_PROTOCOL_DEFINITION ( 'draft international standard', 'automotive_design', 1998, #251 ) ;
#173 = CARTESIAN_POINT ( 'NONE',  ( -0.2500000000000000000, 0.1212435565298207868, 0.000000000000000000 ) ) ;
#174 = AXIS2_PLACEMENT_3D ( 'NONE', #294, #63, #220 ) ;
#175 = DIRECTION ( 'NONE',  ( 2.391843616330403879E-17, 1.000000000000000000, 0.000000000000000000 ) ) ;
#176 =( NAMED_UNIT ( * ) PLANE_ANGLE_UNIT ( ) SI_UNIT ( $, .RADIAN. ) );
#177 = PRESENTATION_LAYER_ASSIGNMENT (  '', '', ( #200 ) ) ;
#178 = COLOUR_RGB ( '',0.7921568627450980005, 0.8196078431372548767, 0.9333333333333333481 ) ;
#179 =( NAMED_UNIT ( * ) PLANE_ANGLE_UNIT ( ) SI_UNIT ( $, .RADIAN. ) );
#180 = SURFACE_SIDE_STYLE ('',( #53 ) ) ;
#181 = FACE_OUTER_BOUND ( 'NONE', #259, .T. ) ;
#182 = EDGE_LOOP ( 'NONE', ( #74, #147, #123, #5 ) ) ;
#183 = EDGE_CURVE ( 'NONE', #54, #184, #307, .T. ) ;
#184 = VERTEX_POINT ( 'NONE', #266 ) ;
#185 =( NAMED_UNIT ( * ) SI_UNIT ( $, .STERADIAN. ) SOLID_ANGLE_UNIT ( ) );
#186 = DIRECTION ( 'NONE',  ( 1.000000000000000000, 0.000000000000000000, 0.000000000000000000 ) ) ;
#187 = ADVANCED_FACE ( 'NONE', ( #168 ), #271, .T. ) ;
#188 = ORIENTED_EDGE ( 'NONE', *, *, #18, .T. ) ;
#189 = PLANE ( 'NONE',  #223 ) ;
#190 = DIRECTION ( 'NONE',  ( -1.000000000000000000, 2.391843616330403263E-17, 0.000000000000000000 ) ) ;
#191 = DIRECTION ( 'NONE',  ( -2.391843616330403571E-17, -1.000000000000000000, -0.000000000000000000 ) ) ;
#192 = PRODUCT ( '07035', '07035', '', ( #297 ) ) ;
#193 = DIRECTION ( 'NONE',  ( -1.000000000000000000, 0.000000000000000000, 0.000000000000000000 ) ) ;
#194 = MECHANICAL_DESIGN_GEOMETRIC_PRESENTATION_REPRESENTATION (  '', ( #200 ), #280 ) ;
#195 = LENGTH_MEASURE_WITH_UNIT ( LENGTH_MEASURE( 0.02539999999999999897 ), #218 );
#196 = ADVANCED_BREP_SHAPE_REPRESENTATION ( '07035', ( #233, #240, #33 ), #78 ) ;
#197 = DIRECTION ( 'NONE',  ( 1.000000000000000000, 0.000000000000000000, 0.000000000000000000 ) ) ;
#198 = UNCERTAINTY_MEASURE_WITH_UNIT (LENGTH_MEASURE( 1.000000000000000082E-05 ), #133, 'distance_accuracy_value', 'NONE');
#199 = MECHANICAL_DESIGN_GEOMETRIC_PRESENTATION_REPRESENTATION (  '', ( #308 ), #169 ) ;
#200 = STYLED_ITEM ( 'NONE', ( #50 ), #41 ) ;
#201 = DIRECTION ( 'NONE',  ( -1.000000000000000000, 2.391843616330403879E-17, 0.000000000000000000 ) ) ;
#202 = SURFACE_STYLE_USAGE ( .BOTH. , #115 ) ;
#203 = CIRCLE ( 'NONE', #39, 0.2500000000000000555 ) ;
#204 = PLANE ( 'NONE',  #174 ) ;
#205 = FILL_AREA_STYLE ('',( #309 ) ) ;
#206 = ORIENTED_EDGE ( 'NONE', *, *, #247, .F. ) ;
#207 = ADVANCED_FACE ( 'NONE', ( #31 ), #189, .T. ) ;
#208 = VERTEX_POINT ( 'NONE', #252 ) ;
#209 = VECTOR ( 'NONE', #138, 39.37007874015748854 ) ;
#210 = CLOSED_SHELL ( 'NONE', ( #187, #17, #83, #237 ) ) ;
#211 = ORIENTED_EDGE ( 'NONE', *, *, #183, .F. ) ;
#212 = EDGE_CURVE ( 'NONE', #208, #166, #203, .T. ) ;
#213 =( CONVERSION_BASED_UNIT ( 'INCH', #24 ) LENGTH_UNIT ( ) NAMED_UNIT ( #72 ) );
#214 = EDGE_LOOP ( 'NONE', ( #286, #1 ) ) ;
#215 = LINE ( 'NONE', #104, #96 ) ;
#216 = AXIS2_PLACEMENT_3D ( 'NONE', #241, #102, #36 ) ;
#217 = DIRECTION ( 'NONE',  ( 2.391843616330403571E-17, 1.000000000000000000, 0.000000000000000000 ) ) ;
#218 =( LENGTH_UNIT ( ) NAMED_UNIT ( * ) SI_UNIT ( $, .METRE. ) );
#219 =( NAMED_UNIT ( * ) PLANE_ANGLE_UNIT ( ) SI_UNIT ( $, .RADIAN. ) );
#220 = DIRECTION ( 'NONE',  ( 1.000000000000000000, -2.391843616330403879E-17, 0.000000000000000000 ) ) ;
#221 = CIRCLE ( 'NONE', #263, 0.2500000000000000555 ) ;
#222 = SURFACE_STYLE_FILL_AREA ( #77 ) ;
#223 = AXIS2_PLACEMENT_3D ( 'NONE', #42, #175, #201 ) ;
#224 = LENGTH_MEASURE_WITH_UNIT ( LENGTH_MEASURE( 0.02539999999999999897 ), #253 );
#225 = LENGTH_MEASURE_WITH_UNIT ( LENGTH_MEASURE( 0.02539999999999999897 ), #85 );
#226 = UNCERTAINTY_MEASURE_WITH_UNIT (LENGTH_MEASURE( 1.000000000000000082E-05 ), #213, 'distance_accuracy_value', 'NONE');
#227 = DIRECTION ( 'NONE',  ( 1.220982727043392245E-16, -1.000000000000000000, 0.000000000000000000 ) ) ;
#228 = AXIS2_PLACEMENT_3D ( 'NONE', #94, #217, #190 ) ;
#229 =( NAMED_UNIT ( * ) PLANE_ANGLE_UNIT ( ) SI_UNIT ( $, .RADIAN. ) );
#230 = COLOUR_RGB ( '',1.000000000000000000, 0.000000000000000000, 0.000000000000000000 ) ;
#231 = DIRECTION ( 'NONE',  ( -1.000000000000000000, 2.391843616330403263E-17, 0.000000000000000000 ) ) ;
#232 = CARTESIAN_POINT ( 'NONE',  ( 0.04000000000000000083, 0.000000000000000000, 4.898587196589413537E-18 ) ) ;
#233 = MANIFOLD_SOLID_BREP ( 'Revolve - Cutting Edge', #128 ) ;
#234 = ORIENTED_EDGE ( 'NONE', *, *, #92, .T. ) ;
#235 = DIMENSIONAL_EXPONENTS ( 1.000000000000000000, 0.000000000000000000, 0.000000000000000000, 0.000000000000000000, 0.000000000000000000, 0.000000000000000000, 0.000000000000000000 ) ;
#236 = ORIENTED_EDGE ( 'NONE', *, *, #272, .F. ) ;
#237 = ADVANCED_FACE ( 'NONE', ( #155 ), #45, .F. ) ;
#238 = CIRCLE ( 'NONE', #216, 0.2499999999999997224 ) ;
#239 = CARTESIAN_POINT ( 'NONE',  ( 0.2500000000000000000, 0.1212435565298207868, 3.061616997868383634E-17 ) ) ;
#240 = MANIFOLD_SOLID_BREP ( 'Revolve - Tool Body (Tipped Off)', #210 ) ;
#241 = CARTESIAN_POINT ( 'NONE',  ( 2.902588493268279793E-16, 0.1212435565298208007, 0.000000000000000000 ) ) ;
#242 = CARTESIAN_POINT ( 'NONE',  ( -6.123233995736772199E-17, 3.000000000000000444, 0.000000000000000000 ) ) ;
#243 = VECTOR ( 'NONE', #23, 39.37007874015748854 ) ;
#244 =( NAMED_UNIT ( * ) SI_UNIT ( $, .STERADIAN. ) SOLID_ANGLE_UNIT ( ) );
#245 = DIRECTION ( 'NONE',  ( 1.000000000000000000, -2.391843616330403263E-17, 0.000000000000000000 ) ) ;
#246 = DIRECTION ( 'NONE',  ( -1.000000000000000000, -1.365923996832133088E-16, 0.000000000000000000 ) ) ;
#247 = EDGE_CURVE ( 'NONE', #184, #97, #28, .T. ) ;
#248 = AXIS2_PLACEMENT_3D ( 'NONE', #29, #129, #245 ) ;
#249 = CARTESIAN_POINT ( 'NONE',  ( 0.2500000000000000000, 3.000000000000000444, 0.000000000000000000 ) ) ;
#250 =( NAMED_UNIT ( * ) PLANE_ANGLE_UNIT ( ) SI_UNIT ( $, .RADIAN. ) );
#251 = APPLICATION_CONTEXT ( 'automotive_design' ) ;
#252 = CARTESIAN_POINT ( 'NONE',  ( -0.2500000000000001110, 3.000000000000000444, 0.000000000000000000 ) ) ;
#253 =( LENGTH_UNIT ( ) NAMED_UNIT ( * ) SI_UNIT ( $, .METRE. ) );
#254 = CARTESIAN_POINT ( 'NONE',  ( -0.04000000000000000083, 1.913474893064322703E-18, 0.000000000000000000 ) ) ;
#255 = FACE_OUTER_BOUND ( 'NONE', #4, .T. ) ;
#256 = SURFACE_STYLE_USAGE ( .BOTH. , #122 ) ;
#257 = SURFACE_STYLE_USAGE ( .BOTH. , #160 ) ;
#258 =( LENGTH_UNIT ( ) NAMED_UNIT ( * ) SI_UNIT ( $, .METRE. ) );
#259 = EDGE_LOOP ( 'NONE', ( #27, #146 ) ) ;
#260 = FILL_AREA_STYLE ('',( #90 ) ) ;
#261 = DIRECTION ( 'NONE',  ( -1.220982727043392245E-16, 1.000000000000000000, 0.000000000000000000 ) ) ;
#262 = MECHANICAL_DESIGN_GEOMETRIC_PRESENTATION_REPRESENTATION (  '', ( #37 ), #12 ) ;
#263 = AXIS2_PLACEMENT_3D ( 'NONE', #58, #131, #295 ) ;
#264 =( GEOMETRIC_REPRESENTATION_CONTEXT ( 3 ) GLOBAL_UNCERTAINTY_ASSIGNED_CONTEXT ( ( #292 ) ) GLOBAL_UNIT_ASSIGNED_CONTEXT ( ( #276, #176, #114 ) ) REPRESENTATION_CONTEXT ( 'NONE', 'WORKASPACE' ) );
#265 = ORIENTED_EDGE ( 'NONE', *, *, #71, .T. ) ;
#266 = CARTESIAN_POINT ( 'NONE',  ( -0.04000000000000000083, 1.913474893064322703E-18, 0.000000000000000000 ) ) ;
#267 =( NAMED_UNIT ( * ) SI_UNIT ( $, .STERADIAN. ) SOLID_ANGLE_UNIT ( ) );
#268 = MECHANICAL_DESIGN_GEOMETRIC_PRESENTATION_REPRESENTATION (  '', ( #88 ), #6 ) ;
#269 = CIRCLE ( 'NONE', #135, 0.2500000000000000000 ) ;
#270 = UNCERTAINTY_MEASURE_WITH_UNIT (LENGTH_MEASURE( 1.000000000000000082E-05 ), #301, 'distance_accuracy_value', 'NONE');
#271 = CYLINDRICAL_SURFACE ( 'NONE', #61, 0.2499999999999998890 ) ;
#272 = EDGE_CURVE ( 'NONE', #120, #208, #298, .T. ) ;
#273 = PRODUCT_RELATED_PRODUCT_CATEGORY ( 'part', '', ( #192 ) ) ;
#274 = AXIS2_PLACEMENT_3D ( 'NONE', #293, #108, #246 ) ;
#275 = DIRECTION ( 'NONE',  ( 1.000000000000000000, 1.220982727043392245E-16, 0.000000000000000000 ) ) ;
#276 =( CONVERSION_BASED_UNIT ( 'INCH', #224 ) LENGTH_UNIT ( ) NAMED_UNIT ( #302 ) );
#277 = PRODUCT_DEFINITION_SHAPE ( 'NONE', 'NONE',  #105 ) ;
#278 = UNCERTAINTY_MEASURE_WITH_UNIT (LENGTH_MEASURE( 1.000000000000000082E-05 ), #34, 'distance_accuracy_value', 'NONE');
#279 = FILL_AREA_STYLE ('',( #116 ) ) ;
#280 =( GEOMETRIC_REPRESENTATION_CONTEXT ( 3 ) GLOBAL_UNCERTAINTY_ASSIGNED_CONTEXT ( ( #278 ) ) GLOBAL_UNIT_ASSIGNED_CONTEXT ( ( #34, #219, #244 ) ) REPRESENTATION_CONTEXT ( 'NONE', 'WORKASPACE' ) );
#281 = DIMENSIONAL_EXPONENTS ( 1.000000000000000000, 0.000000000000000000, 0.000000000000000000, 0.000000000000000000, 0.000000000000000000, 0.000000000000000000, 0.000000000000000000 ) ;
#282 = ADVANCED_FACE ( 'NONE', ( #67 ), #164, .T. ) ;
#283 = CARTESIAN_POINT ( 'NONE',  ( 2.899956267070462878E-18, 0.1212435565298207868, 0.000000000000000000 ) ) ;
#284 =( NAMED_UNIT ( * ) SI_UNIT ( $, .STERADIAN. ) SOLID_ANGLE_UNIT ( ) );
#285 = FILL_AREA_STYLE_COLOUR ( '', #230 ) ;
#286 = ORIENTED_EDGE ( 'NONE', *, *, #153, .F. ) ;
#287 = DIMENSIONAL_EXPONENTS ( 1.000000000000000000, 0.000000000000000000, 0.000000000000000000, 0.000000000000000000, 0.000000000000000000, 0.000000000000000000, 0.000000000000000000 ) ;
#288 = EDGE_LOOP ( 'NONE', ( #265, #70, #55, #236 ) ) ;
#289 = ORIENTED_EDGE ( 'NONE', *, *, #130, .F. ) ;
#290 = PRESENTATION_LAYER_ASSIGNMENT (  '', '', ( #20 ) ) ;
#291 = PRODUCT_DEFINITION_FORMATION_WITH_SPECIFIED_SOURCE ( 'ANY', '', #192, .NOT_KNOWN. ) ;
#292 = UNCERTAINTY_MEASURE_WITH_UNIT (LENGTH_MEASURE( 1.000000000000000082E-05 ), #276, 'distance_accuracy_value', 'NONE');
#293 = CARTESIAN_POINT ( 'NONE',  ( 2.902588493268279793E-16, 0.1212435565298208007, 0.000000000000000000 ) ) ;
#294 = CARTESIAN_POINT ( 'NONE',  ( 1.144183176996100513E-35, 4.783687232660806757E-19, 0.000000000000000000 ) ) ;
#295 = DIRECTION ( 'NONE',  ( -1.000000000000000000, 0.000000000000000000, 0.000000000000000000 ) ) ;
#296 = FACE_OUTER_BOUND ( 'NONE', #125, .T. ) ;
#297 = PRODUCT_CONTEXT ( 'NONE', #251, 'mechanical' ) ;
#298 = LINE ( 'NONE', #119, #156 ) ;
#299 = AXIS2_PLACEMENT_3D ( 'NONE', #159, #261, #100 ) ;
#300 = LENGTH_MEASURE_WITH_UNIT ( LENGTH_MEASURE( 0.02539999999999999897 ), #113 );
#301 =( CONVERSION_BASED_UNIT ( 'INCH', #225 ) LENGTH_UNIT ( ) NAMED_UNIT ( #44 ) );
#302 = DIMENSIONAL_EXPONENTS ( 1.000000000000000000, 0.000000000000000000, 0.000000000000000000, 0.000000000000000000, 0.000000000000000000, 0.000000000000000000, 0.000000000000000000 ) ;
#303 = PRESENTATION_STYLE_ASSIGNMENT (( #202 ) ) ;
#304 = COLOUR_RGB ( '',1.000000000000000000, 0.000000000000000000, 0.000000000000000000 ) ;
#305 = ADVANCED_FACE ( 'NONE', ( #181 ), #204, .T. ) ;
#306 =( NAMED_UNIT ( * ) SI_UNIT ( $, .STERADIAN. ) SOLID_ANGLE_UNIT ( ) );
#307 = CIRCLE ( 'NONE', #38, 0.04000000000000000083 ) ;
#308 = STYLED_ITEM ( 'NONE', ( #303 ), #240 ) ;
#309 = FILL_AREA_STYLE_COLOUR ( '', #26 ) ;
ENDSEC;
END-ISO-10303-21;
