ISO-10303-21;
HEADER;
FILE_DESCRIPTION (( 'STEP AP214' ),
    '1' );
FILE_NAME ('01287.STEP',
    '2023-06-22T14:25:40',
    ( '' ),
    ( '' ),
    'SwSTEP 2.0',
    'SolidWorks 2023',
    '' );
FILE_SCHEMA (( 'AUTOMOTIVE_DESIGN' ));
ENDSEC;

DATA;
#1 = ADVANCED_FACE ( 'NONE', ( #130 ), #39, .T. ) ;
#2 = FACE_OUTER_BOUND ( 'NONE', #205, .T. ) ;
#3 = DIMENSIONAL_EXPONENTS ( 1.000000000000000000, 0.000000000000000000, 0.000000000000000000, 0.000000000000000000, 0.000000000000000000, 0.000000000000000000, 0.000000000000000000 ) ;
#4 = ORIENTED_EDGE ( 'NONE', *, *, #217, .T. ) ;
#5 = DIRECTION ( 'NONE',  ( -3.498990854706726443E-17, 1.000000000000000000, 0.000000000000000000 ) ) ;
#6 = EDGE_LOOP ( 'NONE', ( #276, #61, #79, #109 ) ) ;
#7 = CARTESIAN_POINT ( 'NONE',  ( 0.000000000000000000, 0.000000000000000000, -0.1562500000000000000 ) ) ;
#8 = ORIENTED_EDGE ( 'NONE', *, *, #300, .F. ) ;
#9 = COLOUR_RGB ( '',1.000000000000000000, 0.000000000000000000, 0.000000000000000000 ) ;
#10 = AXIS2_PLACEMENT_3D ( 'NONE', #24, #123, #168 ) ;
#11 = CARTESIAN_POINT ( 'NONE',  ( 9.564794532282272738E-35, 1.250000000000000000, 0.000000000000000000 ) ) ;
#12 = VERTEX_POINT ( 'NONE', #180 ) ;
#13 = EDGE_LOOP ( 'NONE', ( #4, #251, #177, #228 ) ) ;
#14 =( LENGTH_UNIT ( ) NAMED_UNIT ( * ) SI_UNIT ( $, .METRE. ) );
#15 = CIRCLE ( 'NONE', #99, 0.1562500000000000000 ) ;
#16 = CARTESIAN_POINT ( 'NONE',  ( 0.000000000000000000, 0.000000000000000000, 0.000000000000000000 ) ) ;
#17 = STYLED_ITEM ( 'NONE', ( #118 ), #266 ) ;
#18 = LINE ( 'NONE', #225, #186 ) ;
#19 =( LENGTH_UNIT ( ) NAMED_UNIT ( * ) SI_UNIT ( $, .METRE. ) );
#20 = AXIS2_PLACEMENT_3D ( 'NONE', #27, #146, #245 ) ;
#21 = SURFACE_STYLE_USAGE ( .BOTH. , #149 ) ;
#22 = UNCERTAINTY_MEASURE_WITH_UNIT (LENGTH_MEASURE( 1.000000000000000082E-05 ), #181, 'distance_accuracy_value', 'NONE');
#23 =( NAMED_UNIT ( * ) SI_UNIT ( $, .STERADIAN. ) SOLID_ANGLE_UNIT ( ) );
#24 = CARTESIAN_POINT ( 'NONE',  ( 0.000000000000000000, 0.000000000000000000, 0.000000000000000000 ) ) ;
#25 = CARTESIAN_POINT ( 'NONE',  ( -6.123233995736772199E-17, 3.000000000000000444, 0.000000000000000000 ) ) ;
#26 = PRODUCT_DEFINITION_CONTEXT ( 'detailed design', #212, 'design' ) ;
#27 = CARTESIAN_POINT ( 'NONE',  ( 0.000000000000000000, 0.000000000000000000, 0.000000000000000000 ) ) ;
#28 = CYLINDRICAL_SURFACE ( 'NONE', #104, 0.1562500000000000278 ) ;
#29 = PRODUCT_RELATED_PRODUCT_CATEGORY ( 'part', '', ( #190 ) ) ;
#30 = LENGTH_MEASURE_WITH_UNIT ( LENGTH_MEASURE( 0.02539999999999999897 ), #206 );
#31 = VERTEX_POINT ( 'NONE', #270 ) ;
#32 = DIRECTION ( 'NONE',  ( -3.498990854706726443E-17, 1.000000000000000000, -0.000000000000000000 ) ) ;
#33 = LENGTH_MEASURE_WITH_UNIT ( LENGTH_MEASURE( 0.02539999999999999897 ), #14 );
#34 = AXIS2_PLACEMENT_3D ( 'NONE', #11, #5, #56 ) ;
#35 = CARTESIAN_POINT ( 'NONE',  ( 0.000000000000000000, 0.000000000000000000, -0.1562500000000000000 ) ) ;
#36 = ORIENTED_EDGE ( 'NONE', *, *, #103, .T. ) ;
#37 = APPLICATION_CONTEXT ( 'automotive_design' ) ;
#38 =( NAMED_UNIT ( * ) PLANE_ANGLE_UNIT ( ) SI_UNIT ( $, .RADIAN. ) );
#39 = CYLINDRICAL_SURFACE ( 'NONE', #233, 0.1562500000000000000 ) ;
#40 =( CONVERSION_BASED_UNIT ( 'INCH', #90 ) LENGTH_UNIT ( ) NAMED_UNIT ( #204 ) );
#41 =( GEOMETRIC_REPRESENTATION_CONTEXT ( 3 ) GLOBAL_UNCERTAINTY_ASSIGNED_CONTEXT ( ( #120 ) ) GLOBAL_UNIT_ASSIGNED_CONTEXT ( ( #298, #304, #191 ) ) REPRESENTATION_CONTEXT ( 'NONE', 'WORKASPACE' ) );
#42 =( LENGTH_UNIT ( ) NAMED_UNIT ( * ) SI_UNIT ( $, .METRE. ) );
#43 = PRESENTATION_STYLE_ASSIGNMENT (( #166 ) ) ;
#44 =( NAMED_UNIT ( * ) PLANE_ANGLE_UNIT ( ) SI_UNIT ( $, .RADIAN. ) );
#45 = LENGTH_MEASURE_WITH_UNIT ( LENGTH_MEASURE( 0.02539999999999999897 ), #42 );
#46 = DIRECTION ( 'NONE',  ( -3.498990854706726443E-17, 1.000000000000000000, -0.000000000000000000 ) ) ;
#47 =( CONVERSION_BASED_UNIT ( 'INCH', #45 ) LENGTH_UNIT ( ) NAMED_UNIT ( #185 ) );
#48 = FILL_AREA_STYLE_COLOUR ( '', #275 ) ;
#49 = PLANE ( 'NONE',  #10 ) ;
#50 = PRESENTATION_LAYER_ASSIGNMENT (  '', '', ( #138 ) ) ;
#51 = DIRECTION ( 'NONE',  ( -0.000000000000000000, -1.000000000000000000, -0.000000000000000000 ) ) ;
#52 = FACE_OUTER_BOUND ( 'NONE', #127, .T. ) ;
#53 = VERTEX_POINT ( 'NONE', #57 ) ;
#54 = MECHANICAL_DESIGN_GEOMETRIC_PRESENTATION_REPRESENTATION (  '', ( #63 ), #194 ) ;
#55 = VECTOR ( 'NONE', #51, 39.37007874015748143 ) ;
#56 = DIRECTION ( 'NONE',  ( -1.000000000000000000, -3.498990854706726443E-17, 0.000000000000000000 ) ) ;
#57 = CARTESIAN_POINT ( 'NONE',  ( 0.1562500000000000000, 3.000000000000000444, 1.913510623667739771E-17 ) ) ;
#58 = DIRECTION ( 'NONE',  ( -3.498990854706726443E-17, 1.000000000000000000, -0.000000000000000000 ) ) ;
#59 = ORIENTED_EDGE ( 'NONE', *, *, #238, .T. ) ;
#60 = LINE ( 'NONE', #35, #55 ) ;
#61 = ORIENTED_EDGE ( 'NONE', *, *, #288, .T. ) ;
#62 = COLOUR_RGB ( '',1.000000000000000000, 0.000000000000000000, 0.000000000000000000 ) ;
#63 = STYLED_ITEM ( 'NONE', ( #161 ), #235 ) ;
#64 = SURFACE_STYLE_FILL_AREA ( #302 ) ;
#65 = EDGE_LOOP ( 'NONE', ( #8, #105 ) ) ;
#66 = ORIENTED_EDGE ( 'NONE', *, *, #83, .T. ) ;
#67 =( LENGTH_UNIT ( ) NAMED_UNIT ( * ) SI_UNIT ( $, .METRE. ) );
#68 = CIRCLE ( 'NONE', #20, 0.1562500000000000000 ) ;
#69 = SURFACE_SIDE_STYLE ('',( #64 ) ) ;
#70 = PRODUCT_CONTEXT ( 'NONE', #37, 'mechanical' ) ;
#71 = CARTESIAN_POINT ( 'NONE',  ( 0.000000000000000000, 1.250000000000000000, -0.1562500000000000000 ) ) ;
#72 = UNCERTAINTY_MEASURE_WITH_UNIT (LENGTH_MEASURE( 1.000000000000000082E-05 ), #142, 'distance_accuracy_value', 'NONE');
#73 = CARTESIAN_POINT ( 'NONE',  ( 0.000000000000000000, 0.000000000000000000, 0.000000000000000000 ) ) ;
#74 = CARTESIAN_POINT ( 'NONE',  ( 1.913510623667739463E-17, 0.000000000000000000, 0.1562500000000000000 ) ) ;
#75 = LENGTH_MEASURE_WITH_UNIT ( LENGTH_MEASURE( 0.02539999999999999897 ), #287 );
#76 = CLOSED_SHELL ( 'NONE', ( #235, #144, #1, #266 ) ) ;
#77 = CYLINDRICAL_SURFACE ( 'NONE', #125, 0.1562500000000000278 ) ;
#78 = DIRECTION ( 'NONE',  ( 0.000000000000000000, 1.000000000000000000, 0.000000000000000000 ) ) ;
#79 = ORIENTED_EDGE ( 'NONE', *, *, #285, .F. ) ;
#80 = CARTESIAN_POINT ( 'NONE',  ( -6.123233995736772199E-17, 3.000000000000000444, 0.000000000000000000 ) ) ;
#81 = DIRECTION ( 'NONE',  ( 0.000000000000000000, 0.000000000000000000, -1.000000000000000000 ) ) ;
#82 = CIRCLE ( 'NONE', #110, 0.1562500000000000833 ) ;
#83 = EDGE_CURVE ( 'NONE', #226, #211, #18, .T. ) ;
#84 = VERTEX_POINT ( 'NONE', #210 ) ;
#85 =( NAMED_UNIT ( * ) SI_UNIT ( $, .STERADIAN. ) SOLID_ANGLE_UNIT ( ) );
#86 = PLANE ( 'NONE',  #284 ) ;
#87 = ORIENTED_EDGE ( 'NONE', *, *, #139, .F. ) ;
#88 = AXIS2_PLACEMENT_3D ( 'NONE', #252, #273, #124 ) ;
#89 = CYLINDRICAL_SURFACE ( 'NONE', #148, 0.1562500000000000000 ) ;
#90 = LENGTH_MEASURE_WITH_UNIT ( LENGTH_MEASURE( 0.02539999999999999897 ), #259 );
#91 = FACE_OUTER_BOUND ( 'NONE', #128, .T. ) ;
#92 = MECHANICAL_DESIGN_GEOMETRIC_PRESENTATION_REPRESENTATION (  '', ( #295 ), #41 ) ;
#93 = AXIS2_PLACEMENT_3D ( 'NONE', #189, #140, #135 ) ;
#94 = CARTESIAN_POINT ( 'NONE',  ( 0.000000000000000000, 1.250000000000000000, 0.000000000000000000 ) ) ;
#95 = LINE ( 'NONE', #74, #247 ) ;
#96 =( NAMED_UNIT ( * ) SI_UNIT ( $, .STERADIAN. ) SOLID_ANGLE_UNIT ( ) );
#97 = CARTESIAN_POINT ( 'NONE',  ( 0.1562499999999999722, 3.000000000000000444, 1.913510623667739771E-17 ) ) ;
#98 = SURFACE_STYLE_FILL_AREA ( #286 ) ;
#99 = AXIS2_PLACEMENT_3D ( 'NONE', #290, #203, #250 ) ;
#100 = AXIS2_PLACEMENT_3D ( 'NONE', #239, #299, #214 ) ;
#101 = DIRECTION ( 'NONE',  ( -3.498990854706726443E-17, 1.000000000000000000, -0.000000000000000000 ) ) ;
#102 = SURFACE_STYLE_FILL_AREA ( #220 ) ;
#103 = EDGE_CURVE ( 'NONE', #84, #226, #15, .T. ) ;
#104 = AXIS2_PLACEMENT_3D ( 'NONE', #80, #179, #269 ) ;
#105 = ORIENTED_EDGE ( 'NONE', *, *, #103, .F. ) ;
#106 = FILL_AREA_STYLE ('',( #113 ) ) ;
#107 =( NAMED_UNIT ( * ) PLANE_ANGLE_UNIT ( ) SI_UNIT ( $, .RADIAN. ) );
#108 =( GEOMETRIC_REPRESENTATION_CONTEXT ( 3 ) GLOBAL_UNCERTAINTY_ASSIGNED_CONTEXT ( ( #22 ) ) GLOBAL_UNIT_ASSIGNED_CONTEXT ( ( #181, #107, #293 ) ) REPRESENTATION_CONTEXT ( 'NONE', 'WORKASPACE' ) );
#109 = ORIENTED_EDGE ( 'NONE', *, *, #83, .F. ) ;
#110 = AXIS2_PLACEMENT_3D ( 'NONE', #25, #46, #222 ) ;
#111 = SURFACE_STYLE_FILL_AREA ( #227 ) ;
#112 = FACE_OUTER_BOUND ( 'NONE', #13, .T. ) ;
#113 = FILL_AREA_STYLE_COLOUR ( '', #62 ) ;
#114 = ADVANCED_FACE ( 'NONE', ( #129 ), #77, .T. ) ;
#115 =( GEOMETRIC_REPRESENTATION_CONTEXT ( 3 ) GLOBAL_UNCERTAINTY_ASSIGNED_CONTEXT ( ( #72 ) ) GLOBAL_UNIT_ASSIGNED_CONTEXT ( ( #142, #262, #96 ) ) REPRESENTATION_CONTEXT ( 'NONE', 'WORKASPACE' ) );
#116 = FILL_AREA_STYLE ('',( #232 ) ) ;
#117 = AXIS2_PLACEMENT_3D ( 'NONE', #16, #192, #167 ) ;
#118 = PRESENTATION_STYLE_ASSIGNMENT (( #21 ) ) ;
#119 = DIRECTION ( 'NONE',  ( -0.000000000000000000, -1.000000000000000000, -0.000000000000000000 ) ) ;
#120 = UNCERTAINTY_MEASURE_WITH_UNIT (LENGTH_MEASURE( 1.000000000000000082E-05 ), #298, 'distance_accuracy_value', 'NONE');
#121 = APPLICATION_PROTOCOL_DEFINITION ( 'draft international standard', 'automotive_design', 1998, #37 ) ;
#122 = PRESENTATION_LAYER_ASSIGNMENT (  '', '', ( #63 ) ) ;
#123 = DIRECTION ( 'NONE',  ( 0.000000000000000000, -1.000000000000000000, -0.000000000000000000 ) ) ;
#124 = DIRECTION ( 'NONE',  ( 0.000000000000000000, 0.000000000000000000, -1.000000000000000000 ) ) ;
#125 = AXIS2_PLACEMENT_3D ( 'NONE', #157, #58, #131 ) ;
#126 =( GEOMETRIC_REPRESENTATION_CONTEXT ( 3 ) GLOBAL_UNCERTAINTY_ASSIGNED_CONTEXT ( ( #244 ) ) GLOBAL_UNIT_ASSIGNED_CONTEXT ( ( #40, #38, #165 ) ) REPRESENTATION_CONTEXT ( 'NONE', 'WORKASPACE' ) );
#127 = EDGE_LOOP ( 'NONE', ( #134, #36, #66, #160 ) ) ;
#128 = EDGE_LOOP ( 'NONE', ( #213, #272 ) ) ;
#129 = FACE_OUTER_BOUND ( 'NONE', #6, .T. ) ;
#130 = FACE_OUTER_BOUND ( 'NONE', #274, .T. ) ;
#131 = DIRECTION ( 'NONE',  ( -1.000000000000000000, 0.000000000000000000, 0.000000000000000000 ) ) ;
#132 = SURFACE_STYLE_FILL_AREA ( #106 ) ;
#133 = CIRCLE ( 'NONE', #188, 0.1562500000000000000 ) ;
#134 = ORIENTED_EDGE ( 'NONE', *, *, #288, .F. ) ;
#135 = DIRECTION ( 'NONE',  ( 0.000000000000000000, 0.000000000000000000, -1.000000000000000000 ) ) ;
#136 = ADVANCED_FACE ( 'NONE', ( #175 ), #183, .F. ) ;
#137 = ORIENTED_EDGE ( 'NONE', *, *, #217, .F. ) ;
#138 = STYLED_ITEM ( 'NONE', ( #43 ), #291 ) ;
#139 = EDGE_CURVE ( 'NONE', #31, #159, #224, .T. ) ;
#140 = DIRECTION ( 'NONE',  ( -0.000000000000000000, -1.000000000000000000, -0.000000000000000000 ) ) ;
#141 = CLOSED_SHELL ( 'NONE', ( #114, #136, #154, #173 ) ) ;
#142 =( CONVERSION_BASED_UNIT ( 'INCH', #243 ) LENGTH_UNIT ( ) NAMED_UNIT ( #267 ) );
#143 = MECHANICAL_DESIGN_GEOMETRIC_PRESENTATION_REPRESENTATION (  '', ( #202 ), #126 ) ;
#144 = ADVANCED_FACE ( 'NONE', ( #152 ), #86, .T. ) ;
#145 = DIRECTION ( 'NONE',  ( 0.000000000000000000, 0.000000000000000000, -1.000000000000000000 ) ) ;
#146 = DIRECTION ( 'NONE',  ( -0.000000000000000000, -1.000000000000000000, -0.000000000000000000 ) ) ;
#147 = SHAPE_DEFINITION_REPRESENTATION ( #209, #261 ) ;
#148 = AXIS2_PLACEMENT_3D ( 'NONE', #151, #172, #145 ) ;
#149 = SURFACE_SIDE_STYLE ('',( #102 ) ) ;
#150 = EDGE_CURVE ( 'NONE', #159, #156, #60, .T. ) ;
#151 = CARTESIAN_POINT ( 'NONE',  ( 0.000000000000000000, 0.000000000000000000, 0.000000000000000000 ) ) ;
#152 = FACE_OUTER_BOUND ( 'NONE', #257, .T. ) ;
#153 = COLOUR_RGB ( '',1.000000000000000000, 0.000000000000000000, 0.000000000000000000 ) ;
#154 = ADVANCED_FACE ( 'NONE', ( #52 ), #28, .T. ) ;
#155 = FILL_AREA_STYLE_COLOUR ( '', #9 ) ;
#156 = VERTEX_POINT ( 'NONE', #7 ) ;
#157 = CARTESIAN_POINT ( 'NONE',  ( -6.123233995736772199E-17, 3.000000000000000444, 0.000000000000000000 ) ) ;
#158 = DIMENSIONAL_EXPONENTS ( 1.000000000000000000, 0.000000000000000000, 0.000000000000000000, 0.000000000000000000, 0.000000000000000000, 0.000000000000000000, 0.000000000000000000 ) ;
#159 = VERTEX_POINT ( 'NONE', #71 ) ;
#160 = ORIENTED_EDGE ( 'NONE', *, *, #256, .F. ) ;
#161 = PRESENTATION_STYLE_ASSIGNMENT (( #236 ) ) ;
#162 = DIRECTION ( 'NONE',  ( -0.000000000000000000, -1.000000000000000000, -0.000000000000000000 ) ) ;
#163 = PRESENTATION_LAYER_ASSIGNMENT (  '', '', ( #264 ) ) ;
#164 = PRESENTATION_LAYER_ASSIGNMENT (  '', '', ( #202 ) ) ;
#165 =( NAMED_UNIT ( * ) SI_UNIT ( $, .STERADIAN. ) SOLID_ANGLE_UNIT ( ) );
#166 = SURFACE_STYLE_USAGE ( .BOTH. , #219 ) ;
#167 = DIRECTION ( 'NONE',  ( 0.000000000000000000, 0.000000000000000000, -1.000000000000000000 ) ) ;
#168 = DIRECTION ( 'NONE',  ( 0.000000000000000000, 0.000000000000000000, -1.000000000000000000 ) ) ;
#169 = MECHANICAL_DESIGN_GEOMETRIC_PRESENTATION_REPRESENTATION (  '', ( #264 ), #108 ) ;
#170 = AXIS2_PLACEMENT_3D ( 'NONE', #73, #171, #223 ) ;
#171 = DIRECTION ( 'NONE',  ( 0.000000000000000000, 0.000000000000000000, 1.000000000000000000 ) ) ;
#172 = DIRECTION ( 'NONE',  ( -0.000000000000000000, -1.000000000000000000, -0.000000000000000000 ) ) ;
#173 = ADVANCED_FACE ( 'NONE', ( #91 ), #215, .F. ) ;
#174 = PRODUCT_DEFINITION_FORMATION_WITH_SPECIFIED_SOURCE ( 'ANY', '', #190, .NOT_KNOWN. ) ;
#175 = FACE_OUTER_BOUND ( 'NONE', #65, .T. ) ;
#176 = DIRECTION ( 'NONE',  ( 0.000000000000000000, -0.000000000000000000, 1.000000000000000000 ) ) ;
#177 = ORIENTED_EDGE ( 'NONE', *, *, #238, .F. ) ;
#178 = PRESENTATION_LAYER_ASSIGNMENT (  '', '', ( #295 ) ) ;
#179 = DIRECTION ( 'NONE',  ( -3.498990854706726443E-17, 1.000000000000000000, -0.000000000000000000 ) ) ;
#180 = CARTESIAN_POINT ( 'NONE',  ( 1.913510623667739463E-17, 0.000000000000000000, 0.1562500000000000000 ) ) ;
#181 =( CONVERSION_BASED_UNIT ( 'INCH', #30 ) LENGTH_UNIT ( ) NAMED_UNIT ( #158 ) );
#182 = ORIENTED_EDGE ( 'NONE', *, *, #246, .F. ) ;
#183 = PLANE ( 'NONE',  #34 ) ;
#184 = CARTESIAN_POINT ( 'NONE',  ( 0.000000000000000000, 0.000000000000000000, 0.000000000000000000 ) ) ;
#185 = DIMENSIONAL_EXPONENTS ( 1.000000000000000000, 0.000000000000000000, 0.000000000000000000, 0.000000000000000000, 0.000000000000000000, 0.000000000000000000, 0.000000000000000000 ) ;
#186 = VECTOR ( 'NONE', #32, 39.37007874015748143 ) ;
#187 = PRESENTATION_STYLE_ASSIGNMENT (( #207 ) ) ;
#188 = AXIS2_PLACEMENT_3D ( 'NONE', #94, #195, #282 ) ;
#189 = CARTESIAN_POINT ( 'NONE',  ( 0.000000000000000000, 1.250000000000000000, 0.000000000000000000 ) ) ;
#190 = PRODUCT ( '01287', '01287', '', ( #70 ) ) ;
#191 =( NAMED_UNIT ( * ) SI_UNIT ( $, .STERADIAN. ) SOLID_ANGLE_UNIT ( ) );
#192 = DIRECTION ( 'NONE',  ( -0.000000000000000000, -1.000000000000000000, -0.000000000000000000 ) ) ;
#193 = PRESENTATION_STYLE_ASSIGNMENT (( #231 ) ) ;
#194 =( GEOMETRIC_REPRESENTATION_CONTEXT ( 3 ) GLOBAL_UNCERTAINTY_ASSIGNED_CONTEXT ( ( #309 ) ) GLOBAL_UNIT_ASSIGNED_CONTEXT ( ( #216, #44, #85 ) ) REPRESENTATION_CONTEXT ( 'NONE', 'WORKASPACE' ) );
#195 = DIRECTION ( 'NONE',  ( -3.498990854706726443E-17, 1.000000000000000000, -0.000000000000000000 ) ) ;
#196 = FILL_AREA_STYLE_COLOUR ( '', #241 ) ;
#197 = MANIFOLD_SOLID_BREP ( 'Revolve - Cutting Edge', #76 ) ;
#198 =( NAMED_UNIT ( * ) PLANE_ANGLE_UNIT ( ) SI_UNIT ( $, .RADIAN. ) );
#199 = CIRCLE ( 'NONE', #93, 0.1562500000000000000 ) ;
#200 = UNCERTAINTY_MEASURE_WITH_UNIT (LENGTH_MEASURE( 1.000000000000000082E-05 ), #218, 'distance_accuracy_value', 'NONE');
#201 =( NAMED_UNIT ( * ) SI_UNIT ( $, .STERADIAN. ) SOLID_ANGLE_UNIT ( ) );
#202 = STYLED_ITEM ( 'NONE', ( #193 ), #197 ) ;
#203 = DIRECTION ( 'NONE',  ( -3.498990854706726443E-17, 1.000000000000000000, -0.000000000000000000 ) ) ;
#204 = DIMENSIONAL_EXPONENTS ( 1.000000000000000000, 0.000000000000000000, 0.000000000000000000, 0.000000000000000000, 0.000000000000000000, 0.000000000000000000, 0.000000000000000000 ) ;
#205 = EDGE_LOOP ( 'NONE', ( #59, #255 ) ) ;
#206 =( LENGTH_UNIT ( ) NAMED_UNIT ( * ) SI_UNIT ( $, .METRE. ) );
#207 = SURFACE_STYLE_USAGE ( .BOTH. , #208 ) ;
#208 = SURFACE_SIDE_STYLE ('',( #132 ) ) ;
#209 = PRODUCT_DEFINITION_SHAPE ( 'NONE', 'NONE',  #260 ) ;
#210 = CARTESIAN_POINT ( 'NONE',  ( 0.1562500000000000000, 1.250000000000000000, 1.913510623667739771E-17 ) ) ;
#211 = VERTEX_POINT ( 'NONE', #305 ) ;
#212 = APPLICATION_CONTEXT ( 'automotive_design' ) ;
#213 = ORIENTED_EDGE ( 'NONE', *, *, #285, .T. ) ;
#214 = DIRECTION ( 'NONE',  ( 1.000000000000000000, 3.498990854706726443E-17, 0.000000000000000000 ) ) ;
#215 = PLANE ( 'NONE',  #100 ) ;
#216 =( CONVERSION_BASED_UNIT ( 'INCH', #278 ) LENGTH_UNIT ( ) NAMED_UNIT ( #296 ) );
#217 = EDGE_CURVE ( 'NONE', #159, #31, #199, .T. ) ;
#218 =( CONVERSION_BASED_UNIT ( 'INCH', #75 ) LENGTH_UNIT ( ) NAMED_UNIT ( #249 ) );
#219 = SURFACE_SIDE_STYLE ('',( #98 ) ) ;
#220 = FILL_AREA_STYLE ('',( #196 ) ) ;
#221 =( GEOMETRIC_REPRESENTATION_CONTEXT ( 3 ) GLOBAL_UNCERTAINTY_ASSIGNED_CONTEXT ( ( #200 ) ) GLOBAL_UNIT_ASSIGNED_CONTEXT ( ( #218, #198, #201 ) ) REPRESENTATION_CONTEXT ( 'NONE', 'WORKASPACE' ) );
#222 = DIRECTION ( 'NONE',  ( -1.000000000000000000, 0.000000000000000000, 0.000000000000000000 ) ) ;
#223 = DIRECTION ( 'NONE',  ( 1.000000000000000000, 0.000000000000000000, 0.000000000000000000 ) ) ;
#224 = CIRCLE ( 'NONE', #88, 0.1562500000000000000 ) ;
#225 = CARTESIAN_POINT ( 'NONE',  ( -0.1562500000000001110, 3.000000000000000444, 0.000000000000000000 ) ) ;
#226 = VERTEX_POINT ( 'NONE', #306 ) ;
#227 = FILL_AREA_STYLE ('',( #155 ) ) ;
#228 = ORIENTED_EDGE ( 'NONE', *, *, #150, .F. ) ;
#229 = EDGE_CURVE ( 'NONE', #12, #156, #234, .T. ) ;
#230 = SURFACE_SIDE_STYLE ('',( #111 ) ) ;
#231 = SURFACE_STYLE_USAGE ( .BOTH. , #69 ) ;
#232 = FILL_AREA_STYLE_COLOUR ( '', #153 ) ;
#233 = AXIS2_PLACEMENT_3D ( 'NONE', #184, #162, #81 ) ;
#234 = CIRCLE ( 'NONE', #117, 0.1562500000000000000 ) ;
#235 = ADVANCED_FACE ( 'NONE', ( #112 ), #89, .T. ) ;
#236 = SURFACE_STYLE_USAGE ( .BOTH. , #277 ) ;
#237 = SURFACE_STYLE_FILL_AREA ( #116 ) ;
#238 = EDGE_CURVE ( 'NONE', #156, #12, #68, .T. ) ;
#239 = CARTESIAN_POINT ( 'NONE',  ( 0.1562500000000000000, 3.000000000000000444, 0.000000000000000000 ) ) ;
#240 = UNCERTAINTY_MEASURE_WITH_UNIT (LENGTH_MEASURE( 1.000000000000000082E-05 ), #47, 'distance_accuracy_value', 'NONE');
#241 = COLOUR_RGB ( '',1.000000000000000000, 0.000000000000000000, 0.000000000000000000 ) ;
#242 = LINE ( 'NONE', #97, #268 ) ;
#243 = LENGTH_MEASURE_WITH_UNIT ( LENGTH_MEASURE( 0.02539999999999999897 ), #67 );
#244 = UNCERTAINTY_MEASURE_WITH_UNIT (LENGTH_MEASURE( 1.000000000000000082E-05 ), #40, 'distance_accuracy_value', 'NONE');
#245 = DIRECTION ( 'NONE',  ( 0.000000000000000000, 0.000000000000000000, -1.000000000000000000 ) ) ;
#246 = EDGE_CURVE ( 'NONE', #31, #12, #95, .T. ) ;
#247 = VECTOR ( 'NONE', #119, 39.37007874015748143 ) ;
#248 = PRESENTATION_STYLE_ASSIGNMENT (( #292 ) ) ;
#249 = DIMENSIONAL_EXPONENTS ( 1.000000000000000000, 0.000000000000000000, 0.000000000000000000, 0.000000000000000000, 0.000000000000000000, 0.000000000000000000, 0.000000000000000000 ) ;
#250 = DIRECTION ( 'NONE',  ( -1.000000000000000000, 0.000000000000000000, 0.000000000000000000 ) ) ;
#251 = ORIENTED_EDGE ( 'NONE', *, *, #246, .T. ) ;
#252 = CARTESIAN_POINT ( 'NONE',  ( 0.000000000000000000, 1.250000000000000000, 0.000000000000000000 ) ) ;
#253 = COLOUR_RGB ( '',0.7921568627450980005, 0.8196078431372548767, 0.9333333333333333481 ) ;
#254 = ORIENTED_EDGE ( 'NONE', *, *, #139, .T. ) ;
#255 = ORIENTED_EDGE ( 'NONE', *, *, #229, .T. ) ;
#256 = EDGE_CURVE ( 'NONE', #53, #211, #82, .T. ) ;
#257 = EDGE_LOOP ( 'NONE', ( #137, #87 ) ) ;
#258 = MECHANICAL_DESIGN_GEOMETRIC_PRESENTATION_REPRESENTATION (  '', ( #17 ), #221 ) ;
#259 =( LENGTH_UNIT ( ) NAMED_UNIT ( * ) SI_UNIT ( $, .METRE. ) );
#260 = PRODUCT_DEFINITION ( 'UNKNOWN', '', #174, #26 ) ;
#261 = ADVANCED_BREP_SHAPE_REPRESENTATION ( '01287', ( #197, #291, #170 ), #265 ) ;
#262 =( NAMED_UNIT ( * ) PLANE_ANGLE_UNIT ( ) SI_UNIT ( $, .RADIAN. ) );
#263 = CARTESIAN_POINT ( 'NONE',  ( -6.123233995736772199E-17, 3.000000000000000444, 0.000000000000000000 ) ) ;
#264 = STYLED_ITEM ( 'NONE', ( #248 ), #144 ) ;
#265 =( GEOMETRIC_REPRESENTATION_CONTEXT ( 3 ) GLOBAL_UNCERTAINTY_ASSIGNED_CONTEXT ( ( #240 ) ) GLOBAL_UNIT_ASSIGNED_CONTEXT ( ( #47, #283, #23 ) ) REPRESENTATION_CONTEXT ( 'NONE', 'WORKASPACE' ) );
#266 = ADVANCED_FACE ( 'NONE', ( #2 ), #49, .T. ) ;
#267 = DIMENSIONAL_EXPONENTS ( 1.000000000000000000, 0.000000000000000000, 0.000000000000000000, 0.000000000000000000, 0.000000000000000000, 0.000000000000000000, 0.000000000000000000 ) ;
#268 = VECTOR ( 'NONE', #101, 39.37007874015748143 ) ;
#269 = DIRECTION ( 'NONE',  ( -1.000000000000000000, 0.000000000000000000, 0.000000000000000000 ) ) ;
#270 = CARTESIAN_POINT ( 'NONE',  ( 1.913510623667739463E-17, 1.250000000000000000, 0.1562500000000000000 ) ) ;
#271 = CARTESIAN_POINT ( 'NONE',  ( 0.000000000000000000, 1.250000000000000000, 0.000000000000000000 ) ) ;
#272 = ORIENTED_EDGE ( 'NONE', *, *, #256, .T. ) ;
#273 = DIRECTION ( 'NONE',  ( -0.000000000000000000, -1.000000000000000000, -0.000000000000000000 ) ) ;
#274 = EDGE_LOOP ( 'NONE', ( #182, #254, #301, #294 ) ) ;
#275 = COLOUR_RGB ( '',0.7921568627450980005, 0.8196078431372548767, 0.9333333333333333481 ) ;
#276 = ORIENTED_EDGE ( 'NONE', *, *, #300, .T. ) ;
#277 = SURFACE_SIDE_STYLE ('',( #237 ) ) ;
#278 = LENGTH_MEASURE_WITH_UNIT ( LENGTH_MEASURE( 0.02539999999999999897 ), #19 );
#279 = APPLICATION_PROTOCOL_DEFINITION ( 'draft international standard', 'automotive_design', 1998, #212 ) ;
#280 = PRESENTATION_LAYER_ASSIGNMENT (  '', '', ( #17 ) ) ;
#281 = FILL_AREA_STYLE_COLOUR ( '', #253 ) ;
#282 = DIRECTION ( 'NONE',  ( -1.000000000000000000, 0.000000000000000000, 0.000000000000000000 ) ) ;
#283 =( NAMED_UNIT ( * ) PLANE_ANGLE_UNIT ( ) SI_UNIT ( $, .RADIAN. ) );
#284 = AXIS2_PLACEMENT_3D ( 'NONE', #271, #78, #176 ) ;
#285 = EDGE_CURVE ( 'NONE', #211, #53, #289, .T. ) ;
#286 = FILL_AREA_STYLE ('',( #48 ) ) ;
#287 =( LENGTH_UNIT ( ) NAMED_UNIT ( * ) SI_UNIT ( $, .METRE. ) );
#288 = EDGE_CURVE ( 'NONE', #84, #53, #242, .T. ) ;
#289 = CIRCLE ( 'NONE', #303, 0.1562500000000000833 ) ;
#290 = CARTESIAN_POINT ( 'NONE',  ( 0.000000000000000000, 1.250000000000000000, 0.000000000000000000 ) ) ;
#291 = MANIFOLD_SOLID_BREP ( 'Revolve - Tool Body (Straight Shanked)', #141 ) ;
#292 = SURFACE_STYLE_USAGE ( .BOTH. , #230 ) ;
#293 =( NAMED_UNIT ( * ) SI_UNIT ( $, .STERADIAN. ) SOLID_ANGLE_UNIT ( ) );
#294 = ORIENTED_EDGE ( 'NONE', *, *, #229, .F. ) ;
#295 = STYLED_ITEM ( 'NONE', ( #187 ), #1 ) ;
#296 = DIMENSIONAL_EXPONENTS ( 1.000000000000000000, 0.000000000000000000, 0.000000000000000000, 0.000000000000000000, 0.000000000000000000, 0.000000000000000000, 0.000000000000000000 ) ;
#297 = MECHANICAL_DESIGN_GEOMETRIC_PRESENTATION_REPRESENTATION (  '', ( #138 ), #115 ) ;
#298 =( CONVERSION_BASED_UNIT ( 'INCH', #33 ) LENGTH_UNIT ( ) NAMED_UNIT ( #3 ) );
#299 = DIRECTION ( 'NONE',  ( 3.498990854706726443E-17, -1.000000000000000000, 0.000000000000000000 ) ) ;
#300 = EDGE_CURVE ( 'NONE', #226, #84, #133, .T. ) ;
#301 = ORIENTED_EDGE ( 'NONE', *, *, #150, .T. ) ;
#302 = FILL_AREA_STYLE ('',( #281 ) ) ;
#303 = AXIS2_PLACEMENT_3D ( 'NONE', #263, #308, #307 ) ;
#304 =( NAMED_UNIT ( * ) PLANE_ANGLE_UNIT ( ) SI_UNIT ( $, .RADIAN. ) );
#305 = CARTESIAN_POINT ( 'NONE',  ( -0.1562500000000001388, 3.000000000000000444, 0.000000000000000000 ) ) ;
#306 = CARTESIAN_POINT ( 'NONE',  ( -0.1562500000000000000, 1.250000000000000000, 0.000000000000000000 ) ) ;
#307 = DIRECTION ( 'NONE',  ( -1.000000000000000000, 0.000000000000000000, 0.000000000000000000 ) ) ;
#308 = DIRECTION ( 'NONE',  ( -3.498990854706726443E-17, 1.000000000000000000, -0.000000000000000000 ) ) ;
#309 = UNCERTAINTY_MEASURE_WITH_UNIT (LENGTH_MEASURE( 1.000000000000000082E-05 ), #216, 'distance_accuracy_value', 'NONE');
ENDSEC;
END-ISO-10303-21;
