ISO-10303-21;
HEADER;
FILE_DESCRIPTION (( 'STEP AP214' ),
    '1' );
FILE_NAME ('Micro_SME-012-2X.STEP',
    '2021-09-02T10:07:28',
    ( '' ),
    ( '' ),
    'SwSTEP 2.0',
    'SolidWorks 2020',
    '' );
FILE_SCHEMA (( 'AUTOMOTIVE_DESIGN' ));
ENDSEC;

DATA;
#1 = CARTESIAN_POINT ( 'NONE',  ( 0.0000000000000000000, 0.0000000000000000000, 1.500000000000000222 ) ) ;
#2 = DIRECTION ( 'NONE',  ( -1.224646799147353700E-16, -0.0000000000000000000, -1.000000000000000000 ) ) ;
#3 = COLOUR_RGB ( '',0.7921568627450980005, 0.8196078431372548767, 0.9333333333333333481 ) ;
#4 = DIRECTION ( 'NONE',  ( -1.000000000000000000, 0.0000000000000000000, 1.224646799147353700E-16 ) ) ;
#5 = CYLINDRICAL_SURFACE ( 'NONE', #75, 0.005994000000000001931 ) ;
#6 = FACE_OUTER_BOUND ( 'NONE', #182, .T. ) ;
#7 =( GEOMETRIC_REPRESENTATION_CONTEXT ( 3 ) GLOBAL_UNCERTAINTY_ASSIGNED_CONTEXT ( ( #69 ) ) GLOBAL_UNIT_ASSIGNED_CONTEXT ( ( #177, #180, #205 ) ) REPRESENTATION_CONTEXT ( 'NONE', 'WORKASPACE' ) );
#8 = CARTESIAN_POINT ( 'NONE',  ( -0.005993999999999997594, 7.340532914089234300E-19, 0.01799999999999999864 ) ) ;
#9 = SURFACE_STYLE_FILL_AREA ( #218 ) ;
#10 = EDGE_LOOP ( 'NONE', ( #172, #219, #133, #151 ) ) ;
#11 = PRODUCT ( 'Micro_SME-012-2X', 'Micro_SME-012-2X', '', ( #93 ) ) ;
#12 = AXIS2_PLACEMENT_3D ( 'NONE', #98, #2, #184 ) ;
#13 = FACE_OUTER_BOUND ( 'NONE', #42, .T. ) ;
#14 = ORIENTED_EDGE ( 'NONE', *, *, #179, .T. ) ;
#15 = DIRECTION ( 'NONE',  ( -1.000000000000000000, 0.0000000000000000000, 1.224646799147353700E-16 ) ) ;
#16 = CARTESIAN_POINT ( 'NONE',  ( 0.0000000000000000000, 0.0000000000000000000, 0.0000000000000000000 ) ) ;
#17 = EDGE_LOOP ( 'NONE', ( #183, #60, #81, #224 ) ) ;
#18 = AXIS2_PLACEMENT_3D ( 'NONE', #95, #213, #30 ) ;
#19 = CARTESIAN_POINT ( 'NONE',  ( 0.0000000000000000000, 0.0000000000000000000, 0.0000000000000000000 ) ) ;
#20 = ORIENTED_EDGE ( 'NONE', *, *, #266, .T. ) ;
#21 = DIRECTION ( 'NONE',  ( -1.000000000000000000, 0.0000000000000000000, 0.0000000000000000000 ) ) ;
#22 = AXIS2_PLACEMENT_3D ( 'NONE', #38, #296, #115 ) ;
#23 = FACE_OUTER_BOUND ( 'NONE', #169, .T. ) ;
#24 = CARTESIAN_POINT ( 'NONE',  ( 0.06250000000000002776, 7.654042494670959086E-18, 1.500000000000000222 ) ) ;
#25 = PRODUCT_DEFINITION_SHAPE ( 'NONE', 'NONE',  #79 ) ;
#26 = EDGE_CURVE ( 'NONE', #222, #85, #274, .T. ) ;
#27 = DIRECTION ( 'NONE',  ( -1.224646799147353700E-16, -0.0000000000000000000, -1.000000000000000000 ) ) ;
#28 = DIRECTION ( 'NONE',  ( -0.0000000000000000000, -0.0000000000000000000, -1.000000000000000000 ) ) ;
#29 = AXIS2_PLACEMENT_3D ( 'NONE', #269, #170, #32 ) ;
#30 = DIRECTION ( 'NONE',  ( -1.000000000000000000, 0.0000000000000000000, 0.0000000000000000000 ) ) ;
#31 = DIRECTION ( 'NONE',  ( -1.000000000000000000, 0.0000000000000000000, 0.0000000000000000000 ) ) ;
#32 = DIRECTION ( 'NONE',  ( 1.000000000000000000, 0.0000000000000000000, 0.0000000000000000000 ) ) ;
#33 = LINE ( 'NONE', #8, #294 ) ;
#34 = ORIENTED_EDGE ( 'NONE', *, *, #290, .F. ) ;
#35 = AXIS2_PLACEMENT_3D ( 'NONE', #68, #159, #208 ) ;
#36 = ORIENTED_EDGE ( 'NONE', *, *, #179, .F. ) ;
#37 = ADVANCED_FACE ( 'NONE', ( #137 ), #70, .T. ) ;
#38 = CARTESIAN_POINT ( 'NONE',  ( 0.0000000000000000000, 0.0000000000000000000, 1.500000000000000222 ) ) ;
#39 = VECTOR ( 'NONE', #236, 39.37007874015748143 ) ;
#40 = DIRECTION ( 'NONE',  ( 1.000000000000000000, 0.0000000000000000000, 0.0000000000000000000 ) ) ;
#41 = ORIENTED_EDGE ( 'NONE', *, *, #120, .T. ) ;
#42 = EDGE_LOOP ( 'NONE', ( #293, #272 ) ) ;
#43 =( GEOMETRIC_REPRESENTATION_CONTEXT ( 3 ) GLOBAL_UNCERTAINTY_ASSIGNED_CONTEXT ( ( #252 ) ) GLOBAL_UNIT_ASSIGNED_CONTEXT ( ( #161, #145, #256 ) ) REPRESENTATION_CONTEXT ( 'NONE', 'WORKASPACE' ) );
#44 = EDGE_LOOP ( 'NONE', ( #226, #113 ) ) ;
#45 = PRODUCT_DEFINITION_CONTEXT ( 'detailed design', #277, 'design' ) ;
#46 = ADVANCED_FACE ( 'NONE', ( #248 ), #211, .T. ) ;
#47 = SURFACE_STYLE_FILL_AREA ( #254 ) ;
#48 = ADVANCED_BREP_SHAPE_REPRESENTATION ( 'Micro_SME-012-2X', ( #190, #71 ), #152 ) ;
#49 = DIRECTION ( 'NONE',  ( 0.0000000000000000000, 0.0000000000000000000, -1.000000000000000000 ) ) ;
#50 = CIRCLE ( 'NONE', #62, 0.06250000000000002776 ) ;
#51 =( LENGTH_UNIT ( ) NAMED_UNIT ( * ) SI_UNIT ( $, .METRE. ) );
#52 = EDGE_CURVE ( 'NONE', #181, #206, #155, .T. ) ;
#53 = DIRECTION ( 'NONE',  ( -1.224646799147353700E-16, -0.0000000000000000000, -1.000000000000000000 ) ) ;
#54 = DIRECTION ( 'NONE',  ( 0.0000000000000000000, 0.0000000000000000000, 1.000000000000000000 ) ) ;
#55 = ORIENTED_EDGE ( 'NONE', *, *, #112, .F. ) ;
#56 =( NAMED_UNIT ( * ) PLANE_ANGLE_UNIT ( ) SI_UNIT ( $, .RADIAN. ) );
#57 = ORIENTED_EDGE ( 'NONE', *, *, #52, .F. ) ;
#58 = ORIENTED_EDGE ( 'NONE', *, *, #100, .F. ) ;
#59 = CARTESIAN_POINT ( 'NONE',  ( -0.06249999999999997918, 0.0000000000000000000, 0.3384614504993167516 ) ) ;
#60 = ORIENTED_EDGE ( 'NONE', *, *, #97, .T. ) ;
#61 = DIMENSIONAL_EXPONENTS ( 1.000000000000000000, 0.0000000000000000000, 0.0000000000000000000, 0.0000000000000000000, 0.0000000000000000000, 0.0000000000000000000, 0.0000000000000000000 ) ;
#62 = AXIS2_PLACEMENT_3D ( 'NONE', #126, #27, #76 ) ;
#63 = CARTESIAN_POINT ( 'NONE',  ( 0.0000000000000000000, 0.0000000000000000000, 1.485000000000000764 ) ) ;
#64 = DIRECTION ( 'NONE',  ( -1.224646799147353700E-16, -0.0000000000000000000, -1.000000000000000000 ) ) ;
#65 = DIRECTION ( 'NONE',  ( 0.0000000000000000000, 0.0000000000000000000, 1.000000000000000000 ) ) ;
#66 = DIRECTION ( 'NONE',  ( 0.7071067811865462405, 8.659560562354916834E-17, -0.7071067811865486830 ) ) ;
#67 = LINE ( 'NONE', #111, #231 ) ;
#68 = CARTESIAN_POINT ( 'NONE',  ( 0.0000000000000000000, 0.0000000000000000000, 0.0000000000000000000 ) ) ;
#69 = UNCERTAINTY_MEASURE_WITH_UNIT (LENGTH_MEASURE( 1.000000000000000082E-05 ), #177, 'distance_accuracy_value', 'NONE');
#70 = CYLINDRICAL_SURFACE ( 'NONE', #220, 0.005994000000000001931 ) ;
#71 = AXIS2_PLACEMENT_3D ( 'NONE', #16, #65, #175 ) ;
#72 = LENGTH_MEASURE_WITH_UNIT ( LENGTH_MEASURE( 0.02539999999999999897 ), #51 );
#73 = FILL_AREA_STYLE_COLOUR ( '', #289 ) ;
#74 = DIRECTION ( 'NONE',  ( 1.224646799147353700E-16, 0.0000000000000000000, 1.000000000000000000 ) ) ;
#75 = AXIS2_PLACEMENT_3D ( 'NONE', #281, #53, #4 ) ;
#76 = DIRECTION ( 'NONE',  ( 1.000000000000000000, 0.0000000000000000000, 0.0000000000000000000 ) ) ;
#77 = DIRECTION ( 'NONE',  ( 0.0000000000000000000, 0.0000000000000000000, -1.000000000000000000 ) ) ;
#78 = EDGE_LOOP ( 'NONE', ( #287, #267, #105, #88 ) ) ;
#79 = PRODUCT_DEFINITION ( 'UNKNOWN', '', #225, #45 ) ;
#80 = DIRECTION ( 'NONE',  ( 0.0000000000000000000, 0.0000000000000000000, -1.000000000000000000 ) ) ;
#81 = ORIENTED_EDGE ( 'NONE', *, *, #214, .F. ) ;
#82 = CIRCLE ( 'NONE', #29, 0.04750000000000064587 ) ;
#83 = SURFACE_SIDE_STYLE ('',( #9 ) ) ;
#84 = VERTEX_POINT ( 'NONE', #90 ) ;
#85 = VERTEX_POINT ( 'NONE', #134 ) ;
#86 = CARTESIAN_POINT ( 'NONE',  ( 8.989560137275187631E-35, 0.0000000000000000000, 7.340532914089242967E-19 ) ) ;
#87 = AXIS2_PLACEMENT_3D ( 'NONE', #288, #130, #15 ) ;
#88 = ORIENTED_EDGE ( 'NONE', *, *, #96, .T. ) ;
#89 = DIRECTION ( 'NONE',  ( -1.224646799147353700E-16, -0.0000000000000000000, -1.000000000000000000 ) ) ;
#90 = CARTESIAN_POINT ( 'NONE',  ( 0.005994000000000003665, 7.340532914089238152E-19, 1.184750211852384294E-34 ) ) ;
#91 = CIRCLE ( 'NONE', #22, 0.04750000000000064587 ) ;
#92 = DIRECTION ( 'NONE',  ( 1.000000000000000000, 0.0000000000000000000, 0.0000000000000000000 ) ) ;
#93 = PRODUCT_CONTEXT ( 'NONE', #234, 'mechanical' ) ;
#94 = ORIENTED_EDGE ( 'NONE', *, *, #214, .T. ) ;
#95 = CARTESIAN_POINT ( 'NONE',  ( 2.204364238465236284E-18, 0.0000000000000000000, 0.01799999999999999864 ) ) ;
#96 = EDGE_CURVE ( 'NONE', #167, #245, #121, .T. ) ;
#97 = EDGE_CURVE ( 'NONE', #85, #167, #295, .T. ) ;
#98 = CARTESIAN_POINT ( 'NONE',  ( 2.204364238465236284E-18, 0.0000000000000000000, 0.01799999999999999864 ) ) ;
#99 = AXIS2_PLACEMENT_3D ( 'NONE', #292, #54, #216 ) ;
#100 = EDGE_CURVE ( 'NONE', #129, #167, #67, .T. ) ;
#101 = DIMENSIONAL_EXPONENTS ( 1.000000000000000000, 0.0000000000000000000, 0.0000000000000000000, 0.0000000000000000000, 0.0000000000000000000, 0.0000000000000000000, 0.0000000000000000000 ) ;
#102 = VECTOR ( 'NONE', #66, 39.37007874015748854 ) ;
#103 =( NAMED_UNIT ( * ) SI_UNIT ( $, .STERADIAN. ) SOLID_ANGLE_UNIT ( ) );
#104 = SURFACE_STYLE_USAGE ( .BOTH. , #83 ) ;
#105 = ORIENTED_EDGE ( 'NONE', *, *, #100, .T. ) ;
#106 = ADVANCED_FACE ( 'NONE', ( #23 ), #200, .T. ) ;
#107 = PLANE ( 'NONE',  #99 ) ;
#108 = CARTESIAN_POINT ( 'NONE',  ( 0.04750000000000064587, 6.735557395310483192E-18, 1.500000000000000222 ) ) ;
#109 = EDGE_LOOP ( 'NONE', ( #298, #199, #251, #57 ) ) ;
#110 = CIRCLE ( 'NONE', #164, 0.06250000000000002776 ) ;
#111 = CARTESIAN_POINT ( 'NONE',  ( 0.005994000000000001931, 0.0000000000000000000, 0.01799999999999999864 ) ) ;
#112 = EDGE_CURVE ( 'NONE', #222, #253, #91, .T. ) ;
#113 = ORIENTED_EDGE ( 'NONE', *, *, #235, .T. ) ;
#114 = LENGTH_MEASURE_WITH_UNIT ( LENGTH_MEASURE( 0.02539999999999999897 ), #265 );
#115 = DIRECTION ( 'NONE',  ( 1.000000000000000000, 0.0000000000000000000, 0.0000000000000000000 ) ) ;
#116 = AXIS2_PLACEMENT_3D ( 'NONE', #246, #160, #40 ) ;
#117 = AXIS2_PLACEMENT_3D ( 'NONE', #240, #80, #31 ) ;
#118 = ADVANCED_FACE ( 'NONE', ( #273 ), #136, .F. ) ;
#119 = CARTESIAN_POINT ( 'NONE',  ( -0.06250000000000002776, 0.0000000000000000000, 1.500000000000000222 ) ) ;
#120 = EDGE_CURVE ( 'NONE', #197, #245, #299, .T. ) ;
#121 = CIRCLE ( 'NONE', #116, 0.06250000000000002776 ) ;
#122 = CONICAL_SURFACE ( 'NONE', #174, 0.005993999999999999329, 0.1745329251994338637 ) ;
#123 = AXIS2_PLACEMENT_3D ( 'NONE', #1, #28, #258 ) ;
#124 = DIRECTION ( 'NONE',  ( 1.000000000000000000, 0.0000000000000000000, 0.0000000000000000000 ) ) ;
#125 = SURFACE_STYLE_USAGE ( .BOTH. , #140 ) ;
#126 = CARTESIAN_POINT ( 'NONE',  ( 4.144957319887587811E-17, 0.0000000000000000000, 0.3384614504993167516 ) ) ;
#127 =( CONVERSION_BASED_UNIT ( 'INCH', #196 ) LENGTH_UNIT ( ) NAMED_UNIT ( #61 ) );
#128 = FILL_AREA_STYLE_COLOUR ( '', #3 ) ;
#129 = VERTEX_POINT ( 'NONE', #215 ) ;
#130 = DIRECTION ( 'NONE',  ( -1.224646799147353700E-16, -0.0000000000000000000, -1.000000000000000000 ) ) ;
#131 = PRESENTATION_LAYER_ASSIGNMENT (  '', '', ( #262 ) ) ;
#132 =( LENGTH_UNIT ( ) NAMED_UNIT ( * ) SI_UNIT ( $, .METRE. ) );
#133 = ORIENTED_EDGE ( 'NONE', *, *, #52, .T. ) ;
#134 = CARTESIAN_POINT ( 'NONE',  ( 0.06250000000000002776, 7.654042494670959086E-18, 1.485000000000000764 ) ) ;
#135 = CARTESIAN_POINT ( 'NONE',  ( 0.04750000000000064587, 5.817072295950006528E-18, 1.500000000000000222 ) ) ;
#136 = PLANE ( 'NONE',  #35 ) ;
#137 = FACE_OUTER_BOUND ( 'NONE', #109, .T. ) ;
#138 = CARTESIAN_POINT ( 'NONE',  ( -0.005994000000000003665, 0.0000000000000000000, 1.468106582817848593E-18 ) ) ;
#139 = ADVANCED_FACE ( 'NONE', ( #166 ), #5, .T. ) ;
#140 = SURFACE_SIDE_STYLE ('',( #47 ) ) ;
#141 = AXIS2_PLACEMENT_3D ( 'NONE', #210, #49, #209 ) ;
#142 = DIRECTION ( 'NONE',  ( -1.224646799147353700E-16, -0.0000000000000000000, -1.000000000000000000 ) ) ;
#143 = ADVANCED_FACE ( 'NONE', ( #163 ), #259, .T. ) ;
#144 = CLOSED_SHELL ( 'NONE', ( #37, #204, #217, #143, #106, #280, #150, #46, #139, #118 ) ) ;
#145 =( NAMED_UNIT ( * ) PLANE_ANGLE_UNIT ( ) SI_UNIT ( $, .RADIAN. ) );
#146 = CARTESIAN_POINT ( 'NONE',  ( -0.04750000000000064587, 0.0000000000000000000, 1.500000000000000222 ) ) ;
#147 = CIRCLE ( 'NONE', #185, 0.06250000000000002776 ) ;
#148 = DIRECTION ( 'NONE',  ( 1.000000000000000000, 0.0000000000000000000, 0.0000000000000000000 ) ) ;
#149 = ORIENTED_EDGE ( 'NONE', *, *, #97, .F. ) ;
#150 = ADVANCED_FACE ( 'NONE', ( #6 ), #195, .T. ) ;
#151 = ORIENTED_EDGE ( 'NONE', *, *, #235, .F. ) ;
#152 =( GEOMETRIC_REPRESENTATION_CONTEXT ( 3 ) GLOBAL_UNCERTAINTY_ASSIGNED_CONTEXT ( ( #275 ) ) GLOBAL_UNIT_ASSIGNED_CONTEXT ( ( #127, #56, #103 ) ) REPRESENTATION_CONTEXT ( 'NONE', 'WORKASPACE' ) );
#153 = ORIENTED_EDGE ( 'NONE', *, *, #157, .F. ) ;
#154 = APPLICATION_PROTOCOL_DEFINITION ( 'draft international standard', 'automotive_design', 1998, #277 ) ;
#155 = LINE ( 'NONE', #202, #189 ) ;
#156 = CIRCLE ( 'NONE', #87, 0.005994000000000003665 ) ;
#157 = EDGE_CURVE ( 'NONE', #181, #129, #238, .T. ) ;
#158 = DIRECTION ( 'NONE',  ( 0.1736481776669313581, 0.0000000000000000000, 0.9848077530122077983 ) ) ;
#159 = DIRECTION ( 'NONE',  ( 0.0000000000000000000, 0.0000000000000000000, 1.000000000000000000 ) ) ;
#160 = DIRECTION ( 'NONE',  ( -1.224646799147353700E-16, -0.0000000000000000000, -1.000000000000000000 ) ) ;
#161 =( CONVERSION_BASED_UNIT ( 'INCH', #72 ) LENGTH_UNIT ( ) NAMED_UNIT ( #101 ) );
#162 = EDGE_CURVE ( 'NONE', #129, #181, #268, .T. ) ;
#163 = FACE_OUTER_BOUND ( 'NONE', #17, .T. ) ;
#164 = AXIS2_PLACEMENT_3D ( 'NONE', #279, #187, #124 ) ;
#165 = LINE ( 'NONE', #229, #247 ) ;
#166 = FACE_OUTER_BOUND ( 'NONE', #10, .T. ) ;
#167 = VERTEX_POINT ( 'NONE', #186 ) ;
#168 = AXIS2_PLACEMENT_3D ( 'NONE', #86, #192, #173 ) ;
#169 = EDGE_LOOP ( 'NONE', ( #149, #14, #41, #239 ) ) ;
#170 = DIRECTION ( 'NONE',  ( 0.0000000000000000000, 0.0000000000000000000, 1.000000000000000000 ) ) ;
#171 = CARTESIAN_POINT ( 'NONE',  ( -0.04750000000000064587, 0.0000000000000000000, 1.500000000000000222 ) ) ;
#172 = ORIENTED_EDGE ( 'NONE', *, *, #212, .F. ) ;
#173 = DIRECTION ( 'NONE',  ( -1.000000000000000000, 0.0000000000000000000, 1.224646799147353700E-16 ) ) ;
#174 = AXIS2_PLACEMENT_3D ( 'NONE', #282, #74, #191 ) ;
#175 = DIRECTION ( 'NONE',  ( 1.000000000000000000, 0.0000000000000000000, 0.0000000000000000000 ) ) ;
#176 = DIRECTION ( 'NONE',  ( 1.224646799147353700E-16, 0.0000000000000000000, 1.000000000000000000 ) ) ;
#177 =( CONVERSION_BASED_UNIT ( 'INCH', #114 ) LENGTH_UNIT ( ) NAMED_UNIT ( #193 ) );
#178 = DIRECTION ( 'NONE',  ( -1.000000000000000000, 0.0000000000000000000, 1.224646799147353700E-16 ) ) ;
#179 = EDGE_CURVE ( 'NONE', #85, #197, #110, .T. ) ;
#180 =( NAMED_UNIT ( * ) PLANE_ANGLE_UNIT ( ) SI_UNIT ( $, .RADIAN. ) );
#181 = VERTEX_POINT ( 'NONE', #255 ) ;
#182 = EDGE_LOOP ( 'NONE', ( #264, #34, #20, #36 ) ) ;
#183 = ORIENTED_EDGE ( 'NONE', *, *, #230, .T. ) ;
#184 = DIRECTION ( 'NONE',  ( -1.000000000000000000, 0.0000000000000000000, 0.0000000000000000000 ) ) ;
#185 = AXIS2_PLACEMENT_3D ( 'NONE', #63, #77, #148 ) ;
#186 = CARTESIAN_POINT ( 'NONE',  ( 0.06250000000000006939, 7.654042494670963708E-18, 0.3384614504993167516 ) ) ;
#187 = DIRECTION ( 'NONE',  ( 0.0000000000000000000, 0.0000000000000000000, -1.000000000000000000 ) ) ;
#188 = FACE_OUTER_BOUND ( 'NONE', #271, .T. ) ;
#189 = VECTOR ( 'NONE', #64, 39.37007874015748143 ) ;
#190 = MANIFOLD_SOLID_BREP ( 'Cut-Revolve1', #144 ) ;
#191 = DIRECTION ( 'NONE',  ( 1.000000000000000000, 0.0000000000000000000, 0.0000000000000000000 ) ) ;
#192 = DIRECTION ( 'NONE',  ( -1.224646799147353700E-16, -0.0000000000000000000, -1.000000000000000000 ) ) ;
#193 = DIMENSIONAL_EXPONENTS ( 1.000000000000000000, 0.0000000000000000000, 0.0000000000000000000, 0.0000000000000000000, 0.0000000000000000000, 0.0000000000000000000, 0.0000000000000000000 ) ;
#194 = ORIENTED_EDGE ( 'NONE', *, *, #230, .F. ) ;
#195 = CONICAL_SURFACE ( 'NONE', #141, 0.04750000000000064587, 0.7853981633974466137 ) ;
#196 = LENGTH_MEASURE_WITH_UNIT ( LENGTH_MEASURE( 0.02539999999999999897 ), #132 );
#197 = VERTEX_POINT ( 'NONE', #233 ) ;
#198 = DIRECTION ( 'NONE',  ( -0.1736481776669311639, 2.126576849575783008E-17, 0.9848077530122080203 ) ) ;
#199 = ORIENTED_EDGE ( 'NONE', *, *, #212, .T. ) ;
#200 = CYLINDRICAL_SURFACE ( 'NONE', #283, 0.06250000000000002776 ) ;
#201 = MECHANICAL_DESIGN_GEOMETRIC_PRESENTATION_REPRESENTATION (  '', ( #262 ), #7 ) ;
#202 = CARTESIAN_POINT ( 'NONE',  ( -0.005994000000000001931, 0.0000000000000000000, 7.340532914089240078E-19 ) ) ;
#203 = EDGE_LOOP ( 'NONE', ( #55, #270, #194, #221 ) ) ;
#204 = ADVANCED_FACE ( 'NONE', ( #188 ), #122, .T. ) ;
#205 =( NAMED_UNIT ( * ) SI_UNIT ( $, .STERADIAN. ) SOLID_ANGLE_UNIT ( ) );
#206 = VERTEX_POINT ( 'NONE', #138 ) ;
#207 = STYLED_ITEM ( 'NONE', ( #276 ), #190 ) ;
#208 = DIRECTION ( 'NONE',  ( 1.000000000000000000, 0.0000000000000000000, -0.0000000000000000000 ) ) ;
#209 = DIRECTION ( 'NONE',  ( -1.000000000000000000, 0.0000000000000000000, 0.0000000000000000000 ) ) ;
#210 = CARTESIAN_POINT ( 'NONE',  ( 0.0000000000000000000, 0.0000000000000000000, 1.500000000000000222 ) ) ;
#211 = CONICAL_SURFACE ( 'NONE', #241, 0.005993999999999999329, 0.1745329251994338637 ) ;
#212 = EDGE_CURVE ( 'NONE', #129, #84, #165, .T. ) ;
#213 = DIRECTION ( 'NONE',  ( -1.224646799147353700E-16, -0.0000000000000000000, -1.000000000000000000 ) ) ;
#214 = EDGE_CURVE ( 'NONE', #245, #167, #50, .T. ) ;
#215 = CARTESIAN_POINT ( 'NONE',  ( 0.005994000000000001931, 0.0000000000000000000, 0.01799999999999999864 ) ) ;
#216 = DIRECTION ( 'NONE',  ( 1.000000000000000000, 0.0000000000000000000, -0.0000000000000000000 ) ) ;
#217 = ADVANCED_FACE ( 'NONE', ( #263 ), #257, .T. ) ;
#218 = FILL_AREA_STYLE ('',( #128 ) ) ;
#219 = ORIENTED_EDGE ( 'NONE', *, *, #162, .T. ) ;
#220 = AXIS2_PLACEMENT_3D ( 'NONE', #19, #89, #178 ) ;
#221 = ORIENTED_EDGE ( 'NONE', *, *, #266, .F. ) ;
#222 = VERTEX_POINT ( 'NONE', #108 ) ;
#223 = EDGE_CURVE ( 'NONE', #181, #245, #33, .T. ) ;
#224 = ORIENTED_EDGE ( 'NONE', *, *, #120, .F. ) ;
#225 = PRODUCT_DEFINITION_FORMATION_WITH_SPECIFIED_SOURCE ( 'ANY', '', #11, .NOT_KNOWN. ) ;
#226 = ORIENTED_EDGE ( 'NONE', *, *, #285, .T. ) ;
#227 = DIRECTION ( 'NONE',  ( -0.0000000000000000000, -0.0000000000000000000, -1.000000000000000000 ) ) ;
#228 = CARTESIAN_POINT ( 'NONE',  ( 2.204364238465236284E-18, 0.0000000000000000000, 0.01799999999999999864 ) ) ;
#229 = CARTESIAN_POINT ( 'NONE',  ( 0.005994000000000001931, 7.340532914089237189E-19, -7.340532914089240078E-19 ) ) ;
#230 = EDGE_CURVE ( 'NONE', #197, #85, #147, .T. ) ;
#231 = VECTOR ( 'NONE', #158, 39.37007874015748143 ) ;
#232 = CIRCLE ( 'NONE', #168, 0.005994000000000003665 ) ;
#233 = CARTESIAN_POINT ( 'NONE',  ( -0.06250000000000002776, 0.0000000000000000000, 1.485000000000000764 ) ) ;
#234 = APPLICATION_CONTEXT ( 'automotive_design' ) ;
#235 = EDGE_CURVE ( 'NONE', #84, #206, #156, .T. ) ;
#236 = DIRECTION ( 'NONE',  ( -0.0000000000000000000, -0.0000000000000000000, -1.000000000000000000 ) ) ;
#237 = VECTOR ( 'NONE', #297, 39.37007874015748143 ) ;
#238 = CIRCLE ( 'NONE', #12, 0.005993999999999999329 ) ;
#239 = ORIENTED_EDGE ( 'NONE', *, *, #96, .F. ) ;
#240 = CARTESIAN_POINT ( 'NONE',  ( 0.0000000000000000000, 0.0000000000000000000, 1.500000000000000222 ) ) ;
#241 = AXIS2_PLACEMENT_3D ( 'NONE', #228, #176, #92 ) ;
#242 = PRESENTATION_LAYER_ASSIGNMENT (  '', '', ( #207 ) ) ;
#243 = APPLICATION_PROTOCOL_DEFINITION ( 'draft international standard', 'automotive_design', 1998, #234 ) ;
#244 = ORIENTED_EDGE ( 'NONE', *, *, #223, .T. ) ;
#245 = VERTEX_POINT ( 'NONE', #59 ) ;
#246 = CARTESIAN_POINT ( 'NONE',  ( 4.144957319887587811E-17, 0.0000000000000000000, 0.3384614504993167516 ) ) ;
#247 = VECTOR ( 'NONE', #142, 39.37007874015748143 ) ;
#248 = FACE_OUTER_BOUND ( 'NONE', #78, .T. ) ;
#249 = CARTESIAN_POINT ( 'NONE',  ( 0.0000000000000000000, 0.0000000000000000000, 1.500000000000000222 ) ) ;
#250 = SHAPE_DEFINITION_REPRESENTATION ( #25, #48 ) ;
#251 = ORIENTED_EDGE ( 'NONE', *, *, #285, .F. ) ;
#252 = UNCERTAINTY_MEASURE_WITH_UNIT (LENGTH_MEASURE( 1.000000000000000082E-05 ), #161, 'distance_accuracy_value', 'NONE');
#253 = VERTEX_POINT ( 'NONE', #171 ) ;
#254 = FILL_AREA_STYLE ('',( #73 ) ) ;
#255 = CARTESIAN_POINT ( 'NONE',  ( -0.005993999999999997594, 4.194047893039942847E-18, 0.01799999999999999864 ) ) ;
#256 =( NAMED_UNIT ( * ) SI_UNIT ( $, .STERADIAN. ) SOLID_ANGLE_UNIT ( ) );
#257 = CONICAL_SURFACE ( 'NONE', #117, 0.04750000000000064587, 0.7853981633974466137 ) ;
#258 = DIRECTION ( 'NONE',  ( -1.000000000000000000, 0.0000000000000000000, 0.0000000000000000000 ) ) ;
#259 = CYLINDRICAL_SURFACE ( 'NONE', #123, 0.06250000000000002776 ) ;
#260 = PRODUCT_RELATED_PRODUCT_CATEGORY ( 'part', '', ( #11 ) ) ;
#261 = DIRECTION ( 'NONE',  ( -0.7071067811865462405, 0.0000000000000000000, -0.7071067811865486830 ) ) ;
#262 = STYLED_ITEM ( 'NONE', ( #291 ), #48 ) ;
#263 = FACE_OUTER_BOUND ( 'NONE', #203, .T. ) ;
#264 = ORIENTED_EDGE ( 'NONE', *, *, #26, .F. ) ;
#265 =( LENGTH_UNIT ( ) NAMED_UNIT ( * ) SI_UNIT ( $, .METRE. ) );
#266 = EDGE_CURVE ( 'NONE', #253, #197, #286, .T. ) ;
#267 = ORIENTED_EDGE ( 'NONE', *, *, #162, .F. ) ;
#268 = CIRCLE ( 'NONE', #18, 0.005993999999999999329 ) ;
#269 = CARTESIAN_POINT ( 'NONE',  ( 0.0000000000000000000, 0.0000000000000000000, 1.500000000000000222 ) ) ;
#270 = ORIENTED_EDGE ( 'NONE', *, *, #26, .T. ) ;
#271 = EDGE_LOOP ( 'NONE', ( #153, #244, #94, #58 ) ) ;
#272 = ORIENTED_EDGE ( 'NONE', *, *, #112, .T. ) ;
#273 = FACE_OUTER_BOUND ( 'NONE', #44, .T. ) ;
#274 = LINE ( 'NONE', #135, #102 ) ;
#275 = UNCERTAINTY_MEASURE_WITH_UNIT (LENGTH_MEASURE( 1.000000000000000082E-05 ), #127, 'distance_accuracy_value', 'NONE');
#276 = PRESENTATION_STYLE_ASSIGNMENT (( #125 ) ) ;
#277 = APPLICATION_CONTEXT ( 'automotive_design' ) ;
#278 = MECHANICAL_DESIGN_GEOMETRIC_PRESENTATION_REPRESENTATION (  '', ( #207 ), #43 ) ;
#279 = CARTESIAN_POINT ( 'NONE',  ( 0.0000000000000000000, 0.0000000000000000000, 1.485000000000000764 ) ) ;
#280 = ADVANCED_FACE ( 'NONE', ( #13 ), #107, .T. ) ;
#281 = CARTESIAN_POINT ( 'NONE',  ( 0.0000000000000000000, 0.0000000000000000000, 0.0000000000000000000 ) ) ;
#282 = CARTESIAN_POINT ( 'NONE',  ( 2.204364238465236284E-18, 0.0000000000000000000, 0.01799999999999999864 ) ) ;
#283 = AXIS2_PLACEMENT_3D ( 'NONE', #249, #227, #21 ) ;
#284 = VECTOR ( 'NONE', #261, 39.37007874015748854 ) ;
#285 = EDGE_CURVE ( 'NONE', #206, #84, #232, .T. ) ;
#286 = LINE ( 'NONE', #146, #284 ) ;
#287 = ORIENTED_EDGE ( 'NONE', *, *, #223, .F. ) ;
#288 = CARTESIAN_POINT ( 'NONE',  ( 8.989560137275187631E-35, 0.0000000000000000000, 7.340532914089242967E-19 ) ) ;
#289 = COLOUR_RGB ( '',0.7921568627450980005, 0.8196078431372548767, 0.9333333333333333481 ) ;
#290 = EDGE_CURVE ( 'NONE', #253, #222, #82, .T. ) ;
#291 = PRESENTATION_STYLE_ASSIGNMENT (( #104 ) ) ;
#292 = CARTESIAN_POINT ( 'NONE',  ( 0.0000000000000000000, 0.0000000000000000000, 1.500000000000000222 ) ) ;
#293 = ORIENTED_EDGE ( 'NONE', *, *, #290, .T. ) ;
#294 = VECTOR ( 'NONE', #198, 39.37007874015747433 ) ;
#295 = LINE ( 'NONE', #24, #237 ) ;
#296 = DIRECTION ( 'NONE',  ( 0.0000000000000000000, 0.0000000000000000000, 1.000000000000000000 ) ) ;
#297 = DIRECTION ( 'NONE',  ( -0.0000000000000000000, -0.0000000000000000000, -1.000000000000000000 ) ) ;
#298 = ORIENTED_EDGE ( 'NONE', *, *, #157, .T. ) ;
#299 = LINE ( 'NONE', #119, #39 ) ;
ENDSEC;
END-ISO-10303-21;
