ISO-10303-21;
HEADER;
FILE_DESCRIPTION (( 'STEP AP214' ),
    '1' );
FILE_NAME ('05337.STEP',
    '2023-06-22T16:03:16',
    ( '' ),
    ( '' ),
    'SwSTEP 2.0',
    'SolidWorks 2023',
    '' );
FILE_SCHEMA (( 'AUTOMOTIVE_DESIGN' ));
ENDSEC;

DATA;
#1 =( CONVERSION_BASED_UNIT ( 'INCH', #143 ) LENGTH_UNIT ( ) NAMED_UNIT ( #95 ) );
#2 = ORIENTED_EDGE ( 'NONE', *, *, #299, .F. ) ;
#3 = DIRECTION ( 'NONE',  ( 1.000000000000000000, 0.000000000000000000, 0.000000000000000000 ) ) ;
#4 = ORIENTED_EDGE ( 'NONE', *, *, #105, .F. ) ;
#5 = AXIS2_PLACEMENT_3D ( 'NONE', #204, #235, #182 ) ;
#6 = AXIS2_PLACEMENT_3D ( 'NONE', #246, #292, #19 ) ;
#7 = CARTESIAN_POINT ( 'NONE',  ( 0.1875000000000000278, 3.500000000000000000, 0.000000000000000000 ) ) ;
#8 = FACE_OUTER_BOUND ( 'NONE', #32, .T. ) ;
#9 = FILL_AREA_STYLE ('',( #304 ) ) ;
#10 = APPLICATION_CONTEXT ( 'automotive_design' ) ;
#11 = DIRECTION ( 'NONE',  ( -3.061616997868380553E-17, 1.000000000000000000, -0.000000000000000000 ) ) ;
#12 = ORIENTED_EDGE ( 'NONE', *, *, #299, .T. ) ;
#13 = CARTESIAN_POINT ( 'NONE',  ( 0.000000000000000000, 0.000000000000000000, -0.1875000000000000278 ) ) ;
#14 = UNCERTAINTY_MEASURE_WITH_UNIT (LENGTH_MEASURE( 1.000000000000000082E-05 ), #50, 'distance_accuracy_value', 'NONE');
#15 = DIRECTION ( 'NONE',  ( -0.000000000000000000, -1.000000000000000000, -0.000000000000000000 ) ) ;
#16 = SURFACE_STYLE_FILL_AREA ( #276 ) ;
#17 = VECTOR ( 'NONE', #120, 39.37007874015748143 ) ;
#18 =( LENGTH_UNIT ( ) NAMED_UNIT ( * ) SI_UNIT ( $, .METRE. ) );
#19 = DIRECTION ( 'NONE',  ( 0.000000000000000000, 0.000000000000000000, -1.000000000000000000 ) ) ;
#20 = MECHANICAL_DESIGN_GEOMETRIC_PRESENTATION_REPRESENTATION (  '', ( #255 ), #259 ) ;
#21 = MANIFOLD_SOLID_BREP ( 'Revolve - Tool Body (Straight Shanked)', #269 ) ;
#22 = SURFACE_STYLE_USAGE ( .BOTH. , #247 ) ;
#23 =( LENGTH_UNIT ( ) NAMED_UNIT ( * ) SI_UNIT ( $, .METRE. ) );
#24 =( LENGTH_UNIT ( ) NAMED_UNIT ( * ) SI_UNIT ( $, .METRE. ) );
#25 = FACE_OUTER_BOUND ( 'NONE', #56, .T. ) ;
#26 = EDGE_LOOP ( 'NONE', ( #102, #108, #205, #2 ) ) ;
#27 = CARTESIAN_POINT ( 'NONE',  ( 2.296212748401287726E-17, 0.000000000000000000, 0.1875000000000000278 ) ) ;
#28 = APPLICATION_PROTOCOL_DEFINITION ( 'draft international standard', 'automotive_design', 1998, #45 ) ;
#29 = PRODUCT_DEFINITION_CONTEXT ( 'detailed design', #45, 'design' ) ;
#30 = SURFACE_STYLE_USAGE ( .BOTH. , #128 ) ;
#31 = LINE ( 'NONE', #293, #73 ) ;
#32 = EDGE_LOOP ( 'NONE', ( #230, #302 ) ) ;
#33 = EDGE_CURVE ( 'NONE', #179, #131, #159, .T. ) ;
#34 = ORIENTED_EDGE ( 'NONE', *, *, #33, .T. ) ;
#35 = DIMENSIONAL_EXPONENTS ( 1.000000000000000000, 0.000000000000000000, 0.000000000000000000, 0.000000000000000000, 0.000000000000000000, 0.000000000000000000, 0.000000000000000000 ) ;
#36 = SURFACE_SIDE_STYLE ('',( #238 ) ) ;
#37 = CARTESIAN_POINT ( 'NONE',  ( 0.000000000000000000, 1.500000000000000222, -0.1875000000000000278 ) ) ;
#38 = MECHANICAL_DESIGN_GEOMETRIC_PRESENTATION_REPRESENTATION (  '', ( #109 ), #90 ) ;
#39 = AXIS2_PLACEMENT_3D ( 'NONE', #104, #243, #121 ) ;
#40 = AXIS2_PLACEMENT_3D ( 'NONE', #157, #213, #278 ) ;
#41 = PRESENTATION_STYLE_ASSIGNMENT (( #260 ) ) ;
#42 = DIMENSIONAL_EXPONENTS ( 1.000000000000000000, 0.000000000000000000, 0.000000000000000000, 0.000000000000000000, 0.000000000000000000, 0.000000000000000000, 0.000000000000000000 ) ;
#43 = CYLINDRICAL_SURFACE ( 'NONE', #122, 0.1875000000000000555 ) ;
#44 =( GEOMETRIC_REPRESENTATION_CONTEXT ( 3 ) GLOBAL_UNCERTAINTY_ASSIGNED_CONTEXT ( ( #14 ) ) GLOBAL_UNIT_ASSIGNED_CONTEXT ( ( #50, #129, #249 ) ) REPRESENTATION_CONTEXT ( 'NONE', 'WORKASPACE' ) );
#45 = APPLICATION_CONTEXT ( 'automotive_design' ) ;
#46 = ADVANCED_BREP_SHAPE_REPRESENTATION ( '05337', ( #241, #21, #88 ), #44 ) ;
#47 = ORIENTED_EDGE ( 'NONE', *, *, #187, .T. ) ;
#48 = STYLED_ITEM ( 'NONE', ( #210 ), #241 ) ;
#49 = DIRECTION ( 'NONE',  ( 0.000000000000000000, 0.000000000000000000, -1.000000000000000000 ) ) ;
#50 =( CONVERSION_BASED_UNIT ( 'INCH', #288 ) LENGTH_UNIT ( ) NAMED_UNIT ( #256 ) );
#51 = EDGE_CURVE ( 'NONE', #296, #222, #211, .T. ) ;
#52 = PRESENTATION_STYLE_ASSIGNMENT (( #30 ) ) ;
#53 = DIRECTION ( 'NONE',  ( -1.000000000000000000, 0.000000000000000000, 0.000000000000000000 ) ) ;
#54 = DIRECTION ( 'NONE',  ( -0.000000000000000000, -1.000000000000000000, -0.000000000000000000 ) ) ;
#55 = CIRCLE ( 'NONE', #134, 0.1875000000000000278 ) ;
#56 = EDGE_LOOP ( 'NONE', ( #273, #107 ) ) ;
#57 = PLANE ( 'NONE',  #39 ) ;
#58 = CARTESIAN_POINT ( 'NONE',  ( 2.296212748401287726E-17, 0.000000000000000000, 0.1875000000000000278 ) ) ;
#59 = CARTESIAN_POINT ( 'NONE',  ( -0.1875000000000000278, 1.500000000000000222, 0.000000000000000000 ) ) ;
#60 = DIMENSIONAL_EXPONENTS ( 1.000000000000000000, 0.000000000000000000, 0.000000000000000000, 0.000000000000000000, 0.000000000000000000, 0.000000000000000000, 0.000000000000000000 ) ;
#61 = DIRECTION ( 'NONE',  ( -3.061616997868380553E-17, 1.000000000000000000, -0.000000000000000000 ) ) ;
#62 = EDGE_CURVE ( 'NONE', #99, #222, #264, .T. ) ;
#63 = CYLINDRICAL_SURFACE ( 'NONE', #201, 0.1875000000000000278 ) ;
#64 = VECTOR ( 'NONE', #111, 39.37007874015748143 ) ;
#65 = PRESENTATION_LAYER_ASSIGNMENT (  '', '', ( #255 ) ) ;
#66 = CARTESIAN_POINT ( 'NONE',  ( 0.000000000000000000, 0.000000000000000000, 0.000000000000000000 ) ) ;
#67 = CARTESIAN_POINT ( 'NONE',  ( -6.123233995736759873E-17, 3.500000000000000000, 0.000000000000000000 ) ) ;
#68 = PRODUCT_RELATED_PRODUCT_CATEGORY ( 'part', '', ( #86 ) ) ;
#69 = PRESENTATION_LAYER_ASSIGNMENT (  '', '', ( #160 ) ) ;
#70 = ORIENTED_EDGE ( 'NONE', *, *, #258, .T. ) ;
#71 = EDGE_CURVE ( 'NONE', #223, #80, #200, .T. ) ;
#72 = AXIS2_PLACEMENT_3D ( 'NONE', #67, #11, #183 ) ;
#73 = VECTOR ( 'NONE', #248, 39.37007874015748143 ) ;
#74 = UNCERTAINTY_MEASURE_WITH_UNIT (LENGTH_MEASURE( 1.000000000000000082E-05 ), #140, 'distance_accuracy_value', 'NONE');
#75 = CARTESIAN_POINT ( 'NONE',  ( -0.1875000000000001388, 3.500000000000000000, 0.000000000000000000 ) ) ;
#76 = APPLICATION_PROTOCOL_DEFINITION ( 'draft international standard', 'automotive_design', 1998, #10 ) ;
#77 = EDGE_LOOP ( 'NONE', ( #47, #254, #166, #176 ) ) ;
#78 = PRESENTATION_LAYER_ASSIGNMENT (  '', '', ( #109 ) ) ;
#79 = UNCERTAINTY_MEASURE_WITH_UNIT (LENGTH_MEASURE( 1.000000000000000082E-05 ), #1, 'distance_accuracy_value', 'NONE');
#80 = VERTEX_POINT ( 'NONE', #84 ) ;
#81 = SURFACE_STYLE_FILL_AREA ( #149 ) ;
#82 = FACE_OUTER_BOUND ( 'NONE', #286, .T. ) ;
#83 = DIRECTION ( 'NONE',  ( -3.061616997868380553E-17, 1.000000000000000000, -0.000000000000000000 ) ) ;
#84 = CARTESIAN_POINT ( 'NONE',  ( 0.1875000000000000278, 3.500000000000000000, 2.296212748401288342E-17 ) ) ;
#85 = ORIENTED_EDGE ( 'NONE', *, *, #89, .F. ) ;
#86 = PRODUCT ( '05337', '05337', '', ( #106 ) ) ;
#87 = PRESENTATION_LAYER_ASSIGNMENT (  '', '', ( #48 ) ) ;
#88 = AXIS2_PLACEMENT_3D ( 'NONE', #196, #177, #3 ) ;
#89 = EDGE_CURVE ( 'NONE', #179, #80, #253, .T. ) ;
#90 =( GEOMETRIC_REPRESENTATION_CONTEXT ( 3 ) GLOBAL_UNCERTAINTY_ASSIGNED_CONTEXT ( ( #74 ) ) GLOBAL_UNIT_ASSIGNED_CONTEXT ( ( #140, #308, #184 ) ) REPRESENTATION_CONTEXT ( 'NONE', 'WORKASPACE' ) );
#91 =( GEOMETRIC_REPRESENTATION_CONTEXT ( 3 ) GLOBAL_UNCERTAINTY_ASSIGNED_CONTEXT ( ( #115 ) ) GLOBAL_UNIT_ASSIGNED_CONTEXT ( ( #291, #194, #174 ) ) REPRESENTATION_CONTEXT ( 'NONE', 'WORKASPACE' ) );
#92 = PRESENTATION_STYLE_ASSIGNMENT (( #161 ) ) ;
#93 = DIRECTION ( 'NONE',  ( -0.000000000000000000, -1.000000000000000000, -0.000000000000000000 ) ) ;
#94 = EDGE_CURVE ( 'NONE', #222, #99, #279, .T. ) ;
#95 = DIMENSIONAL_EXPONENTS ( 1.000000000000000000, 0.000000000000000000, 0.000000000000000000, 0.000000000000000000, 0.000000000000000000, 0.000000000000000000, 0.000000000000000000 ) ;
#96 = SURFACE_SIDE_STYLE ('',( #188 ) ) ;
#97 = CLOSED_SHELL ( 'NONE', ( #155, #263, #119, #239 ) ) ;
#98 = MECHANICAL_DESIGN_GEOMETRIC_PRESENTATION_REPRESENTATION (  '', ( #306 ), #152 ) ;
#99 = VERTEX_POINT ( 'NONE', #13 ) ;
#100 = EDGE_LOOP ( 'NONE', ( #219, #301, #70, #127 ) ) ;
#101 =( NAMED_UNIT ( * ) PLANE_ANGLE_UNIT ( ) SI_UNIT ( $, .RADIAN. ) );
#102 = ORIENTED_EDGE ( 'NONE', *, *, #114, .T. ) ;
#103 = AXIS2_PLACEMENT_3D ( 'NONE', #228, #148, #153 ) ;
#104 = CARTESIAN_POINT ( 'NONE',  ( 0.000000000000000000, 1.500000000000000222, 0.000000000000000000 ) ) ;
#105 = EDGE_CURVE ( 'NONE', #80, #223, #167, .T. ) ;
#106 = PRODUCT_CONTEXT ( 'NONE', #10, 'mechanical' ) ;
#107 = ORIENTED_EDGE ( 'NONE', *, *, #105, .T. ) ;
#108 = ORIENTED_EDGE ( 'NONE', *, *, #89, .T. ) ;
#109 = STYLED_ITEM ( 'NONE', ( #92 ), #21 ) ;
#110 = CYLINDRICAL_SURFACE ( 'NONE', #193, 0.1875000000000000555 ) ;
#111 = DIRECTION ( 'NONE',  ( -3.061616997868380553E-17, 1.000000000000000000, -0.000000000000000000 ) ) ;
#112 = UNCERTAINTY_MEASURE_WITH_UNIT (LENGTH_MEASURE( 1.000000000000000082E-05 ), #172, 'distance_accuracy_value', 'NONE');
#113 = CIRCLE ( 'NONE', #118, 0.1875000000000000278 ) ;
#114 = EDGE_CURVE ( 'NONE', #131, #179, #113, .T. ) ;
#115 = UNCERTAINTY_MEASURE_WITH_UNIT (LENGTH_MEASURE( 1.000000000000000082E-05 ), #291, 'distance_accuracy_value', 'NONE');
#116 =( LENGTH_UNIT ( ) NAMED_UNIT ( * ) SI_UNIT ( $, .METRE. ) );
#117 = DIRECTION ( 'NONE',  ( -3.061616997868380553E-17, 1.000000000000000000, -0.000000000000000000 ) ) ;
#118 = AXIS2_PLACEMENT_3D ( 'NONE', #135, #298, #232 ) ;
#119 = ADVANCED_FACE ( 'NONE', ( #275 ), #63, .T. ) ;
#120 = DIRECTION ( 'NONE',  ( -0.000000000000000000, -1.000000000000000000, -0.000000000000000000 ) ) ;
#121 = DIRECTION ( 'NONE',  ( 0.000000000000000000, -0.000000000000000000, 1.000000000000000000 ) ) ;
#122 = AXIS2_PLACEMENT_3D ( 'NONE', #139, #117, #215 ) ;
#123 = ADVANCED_FACE ( 'NONE', ( #261 ), #43, .T. ) ;
#124 = CIRCLE ( 'NONE', #144, 0.1875000000000000278 ) ;
#125 =( LENGTH_UNIT ( ) NAMED_UNIT ( * ) SI_UNIT ( $, .METRE. ) );
#126 = DIRECTION ( 'NONE',  ( -3.061616997868380553E-17, 1.000000000000000000, -0.000000000000000000 ) ) ;
#127 = ORIENTED_EDGE ( 'NONE', *, *, #94, .F. ) ;
#128 = SURFACE_SIDE_STYLE ('',( #16 ) ) ;
#129 =( NAMED_UNIT ( * ) PLANE_ANGLE_UNIT ( ) SI_UNIT ( $, .RADIAN. ) );
#130 = COLOUR_RGB ( '',1.000000000000000000, 0.000000000000000000, 0.000000000000000000 ) ;
#131 = VERTEX_POINT ( 'NONE', #59 ) ;
#132 = FILL_AREA_STYLE_COLOUR ( '', #133 ) ;
#133 = COLOUR_RGB ( '',0.7921568627450980005, 0.8196078431372548767, 0.9333333333333333481 ) ;
#134 = AXIS2_PLACEMENT_3D ( 'NONE', #270, #170, #49 ) ;
#135 = CARTESIAN_POINT ( 'NONE',  ( 0.000000000000000000, 1.500000000000000222, 0.000000000000000000 ) ) ;
#136 = DIMENSIONAL_EXPONENTS ( 1.000000000000000000, 0.000000000000000000, 0.000000000000000000, 0.000000000000000000, 0.000000000000000000, 0.000000000000000000, 0.000000000000000000 ) ;
#137 = ORIENTED_EDGE ( 'NONE', *, *, #114, .F. ) ;
#138 =( NAMED_UNIT ( * ) PLANE_ANGLE_UNIT ( ) SI_UNIT ( $, .RADIAN. ) );
#139 = CARTESIAN_POINT ( 'NONE',  ( -6.123233995736759873E-17, 3.500000000000000000, 0.000000000000000000 ) ) ;
#140 =( CONVERSION_BASED_UNIT ( 'INCH', #236 ) LENGTH_UNIT ( ) NAMED_UNIT ( #60 ) );
#141 = FILL_AREA_STYLE_COLOUR ( '', #218 ) ;
#142 = DIRECTION ( 'NONE',  ( -1.000000000000000000, 0.000000000000000000, 0.000000000000000000 ) ) ;
#143 = LENGTH_MEASURE_WITH_UNIT ( LENGTH_MEASURE( 0.02539999999999999897 ), #145 );
#144 = AXIS2_PLACEMENT_3D ( 'NONE', #307, #93, #190 ) ;
#145 =( LENGTH_UNIT ( ) NAMED_UNIT ( * ) SI_UNIT ( $, .METRE. ) );
#146 = EDGE_CURVE ( 'NONE', #296, #262, #124, .T. ) ;
#147 = FILL_AREA_STYLE_COLOUR ( '', #209 ) ;
#148 = DIRECTION ( 'NONE',  ( -3.061616997868380553E-17, 1.000000000000000000, 0.000000000000000000 ) ) ;
#149 = FILL_AREA_STYLE ('',( #147 ) ) ;
#150 = PLANE ( 'NONE',  #103 ) ;
#151 = CARTESIAN_POINT ( 'NONE',  ( 2.296212748401287726E-17, 1.500000000000000222, 0.1875000000000000278 ) ) ;
#152 =( GEOMETRIC_REPRESENTATION_CONTEXT ( 3 ) GLOBAL_UNCERTAINTY_ASSIGNED_CONTEXT ( ( #79 ) ) GLOBAL_UNIT_ASSIGNED_CONTEXT ( ( #1, #101, #169 ) ) REPRESENTATION_CONTEXT ( 'NONE', 'WORKASPACE' ) );
#153 = DIRECTION ( 'NONE',  ( -1.000000000000000000, -3.061616997868380553E-17, 0.000000000000000000 ) ) ;
#154 = CARTESIAN_POINT ( 'NONE',  ( 0.000000000000000000, 1.500000000000000222, 0.000000000000000000 ) ) ;
#155 = ADVANCED_FACE ( 'NONE', ( #281 ), #240, .T. ) ;
#156 = FILL_AREA_STYLE ('',( #141 ) ) ;
#157 = CARTESIAN_POINT ( 'NONE',  ( 0.000000000000000000, 0.000000000000000000, 0.000000000000000000 ) ) ;
#158 = FILL_AREA_STYLE_COLOUR ( '', #216 ) ;
#159 = CIRCLE ( 'NONE', #180, 0.1875000000000000278 ) ;
#160 = STYLED_ITEM ( 'NONE', ( #294 ), #239 ) ;
#161 = SURFACE_STYLE_USAGE ( .BOTH. , #164 ) ;
#162 = DIRECTION ( 'NONE',  ( 0.000000000000000000, 0.000000000000000000, -1.000000000000000000 ) ) ;
#163 = UNCERTAINTY_MEASURE_WITH_UNIT (LENGTH_MEASURE( 1.000000000000000082E-05 ), #175, 'distance_accuracy_value', 'NONE');
#164 = SURFACE_SIDE_STYLE ('',( #173 ) ) ;
#165 = STYLED_ITEM ( 'NONE', ( #41 ), #119 ) ;
#166 = ORIENTED_EDGE ( 'NONE', *, *, #62, .F. ) ;
#167 = CIRCLE ( 'NONE', #72, 0.1875000000000000833 ) ;
#168 = PRESENTATION_LAYER_ASSIGNMENT (  '', '', ( #306 ) ) ;
#169 =( NAMED_UNIT ( * ) SI_UNIT ( $, .STERADIAN. ) SOLID_ANGLE_UNIT ( ) );
#170 = DIRECTION ( 'NONE',  ( -0.000000000000000000, -1.000000000000000000, -0.000000000000000000 ) ) ;
#171 = DIRECTION ( 'NONE',  ( -1.000000000000000000, 0.000000000000000000, 0.000000000000000000 ) ) ;
#172 =( CONVERSION_BASED_UNIT ( 'INCH', #178 ) LENGTH_UNIT ( ) NAMED_UNIT ( #35 ) );
#173 = SURFACE_STYLE_FILL_AREA ( #197 ) ;
#174 =( NAMED_UNIT ( * ) SI_UNIT ( $, .STERADIAN. ) SOLID_ANGLE_UNIT ( ) );
#175 =( CONVERSION_BASED_UNIT ( 'INCH', #224 ) LENGTH_UNIT ( ) NAMED_UNIT ( #42 ) );
#176 = ORIENTED_EDGE ( 'NONE', *, *, #258, .F. ) ;
#177 = DIRECTION ( 'NONE',  ( 0.000000000000000000, 0.000000000000000000, 1.000000000000000000 ) ) ;
#178 = LENGTH_MEASURE_WITH_UNIT ( LENGTH_MEASURE( 0.02539999999999999897 ), #125 );
#179 = VERTEX_POINT ( 'NONE', #289 ) ;
#180 = AXIS2_PLACEMENT_3D ( 'NONE', #154, #61, #142 ) ;
#181 = AXIS2_PLACEMENT_3D ( 'NONE', #7, #226, #266 ) ;
#182 = DIRECTION ( 'NONE',  ( 0.000000000000000000, 0.000000000000000000, -1.000000000000000000 ) ) ;
#183 = DIRECTION ( 'NONE',  ( -1.000000000000000000, 0.000000000000000000, 0.000000000000000000 ) ) ;
#184 =( NAMED_UNIT ( * ) SI_UNIT ( $, .STERADIAN. ) SOLID_ANGLE_UNIT ( ) );
#185 =( NAMED_UNIT ( * ) SI_UNIT ( $, .STERADIAN. ) SOLID_ANGLE_UNIT ( ) );
#186 = COLOUR_RGB ( '',0.7921568627450980005, 0.8196078431372548767, 0.9333333333333333481 ) ;
#187 = EDGE_CURVE ( 'NONE', #262, #296, #55, .T. ) ;
#188 = SURFACE_STYLE_FILL_AREA ( #303 ) ;
#189 =( LENGTH_UNIT ( ) NAMED_UNIT ( * ) SI_UNIT ( $, .METRE. ) );
#190 = DIRECTION ( 'NONE',  ( 0.000000000000000000, 0.000000000000000000, -1.000000000000000000 ) ) ;
#191 = SURFACE_STYLE_USAGE ( .BOTH. , #96 ) ;
#192 =( GEOMETRIC_REPRESENTATION_CONTEXT ( 3 ) GLOBAL_UNCERTAINTY_ASSIGNED_CONTEXT ( ( #271 ) ) GLOBAL_UNIT_ASSIGNED_CONTEXT ( ( #212, #138, #185 ) ) REPRESENTATION_CONTEXT ( 'NONE', 'WORKASPACE' ) );
#193 = AXIS2_PLACEMENT_3D ( 'NONE', #295, #126, #171 ) ;
#194 =( NAMED_UNIT ( * ) PLANE_ANGLE_UNIT ( ) SI_UNIT ( $, .RADIAN. ) );
#195 = PLANE ( 'NONE',  #6 ) ;
#196 = CARTESIAN_POINT ( 'NONE',  ( 0.000000000000000000, 0.000000000000000000, 0.000000000000000000 ) ) ;
#197 = FILL_AREA_STYLE ('',( #132 ) ) ;
#198 = PRODUCT_DEFINITION ( 'UNKNOWN', '', #221, #29 ) ;
#199 = CARTESIAN_POINT ( 'NONE',  ( -6.123233995736759873E-17, 3.500000000000000000, 0.000000000000000000 ) ) ;
#200 = CIRCLE ( 'NONE', #305, 0.1875000000000000833 ) ;
#201 = AXIS2_PLACEMENT_3D ( 'NONE', #66, #15, #162 ) ;
#202 = CARTESIAN_POINT ( 'NONE',  ( 0.000000000000000000, 0.000000000000000000, 0.000000000000000000 ) ) ;
#203 = FACE_OUTER_BOUND ( 'NONE', #207, .T. ) ;
#204 = CARTESIAN_POINT ( 'NONE',  ( 0.000000000000000000, 0.000000000000000000, 0.000000000000000000 ) ) ;
#205 = ORIENTED_EDGE ( 'NONE', *, *, #71, .F. ) ;
#206 = SURFACE_STYLE_FILL_AREA ( #9 ) ;
#207 = EDGE_LOOP ( 'NONE', ( #227, #274 ) ) ;
#208 = MECHANICAL_DESIGN_GEOMETRIC_PRESENTATION_REPRESENTATION (  '', ( #165 ), #192 ) ;
#209 = COLOUR_RGB ( '',1.000000000000000000, 0.000000000000000000, 0.000000000000000000 ) ;
#210 = PRESENTATION_STYLE_ASSIGNMENT (( #231 ) ) ;
#211 = LINE ( 'NONE', #58, #17 ) ;
#212 =( CONVERSION_BASED_UNIT ( 'INCH', #214 ) LENGTH_UNIT ( ) NAMED_UNIT ( #257 ) );
#213 = DIRECTION ( 'NONE',  ( -0.000000000000000000, -1.000000000000000000, -0.000000000000000000 ) ) ;
#214 = LENGTH_MEASURE_WITH_UNIT ( LENGTH_MEASURE( 0.02539999999999999897 ), #116 );
#215 = DIRECTION ( 'NONE',  ( -1.000000000000000000, 0.000000000000000000, 0.000000000000000000 ) ) ;
#216 = COLOUR_RGB ( '',1.000000000000000000, 0.000000000000000000, 0.000000000000000000 ) ;
#217 = FACE_OUTER_BOUND ( 'NONE', #26, .T. ) ;
#218 = COLOUR_RGB ( '',1.000000000000000000, 0.000000000000000000, 0.000000000000000000 ) ;
#219 = ORIENTED_EDGE ( 'NONE', *, *, #51, .F. ) ;
#220 = LINE ( 'NONE', #251, #265 ) ;
#221 = PRODUCT_DEFINITION_FORMATION_WITH_SPECIFIED_SOURCE ( 'ANY', '', #86, .NOT_KNOWN. ) ;
#222 = VERTEX_POINT ( 'NONE', #27 ) ;
#223 = VERTEX_POINT ( 'NONE', #75 ) ;
#224 = LENGTH_MEASURE_WITH_UNIT ( LENGTH_MEASURE( 0.02539999999999999897 ), #24 );
#225 =( NAMED_UNIT ( * ) PLANE_ANGLE_UNIT ( ) SI_UNIT ( $, .RADIAN. ) );
#226 = DIRECTION ( 'NONE',  ( 3.061616997868380553E-17, -1.000000000000000000, 0.000000000000000000 ) ) ;
#227 = ORIENTED_EDGE ( 'NONE', *, *, #62, .T. ) ;
#228 = CARTESIAN_POINT ( 'NONE',  ( 8.787654976534310161E-35, 1.500000000000000222, 0.000000000000000000 ) ) ;
#229 = CARTESIAN_POINT ( 'NONE',  ( 0.1874999999999999722, 3.500000000000000000, 2.296212748401288034E-17 ) ) ;
#230 = ORIENTED_EDGE ( 'NONE', *, *, #187, .F. ) ;
#231 = SURFACE_STYLE_USAGE ( .BOTH. , #237 ) ;
#232 = DIRECTION ( 'NONE',  ( -1.000000000000000000, 0.000000000000000000, 0.000000000000000000 ) ) ;
#233 = PRESENTATION_STYLE_ASSIGNMENT (( #191 ) ) ;
#234 = FILL_AREA_STYLE_COLOUR ( '', #130 ) ;
#235 = DIRECTION ( 'NONE',  ( -0.000000000000000000, -1.000000000000000000, -0.000000000000000000 ) ) ;
#236 = LENGTH_MEASURE_WITH_UNIT ( LENGTH_MEASURE( 0.02539999999999999897 ), #189 );
#237 = SURFACE_SIDE_STYLE ('',( #206 ) ) ;
#238 = SURFACE_STYLE_FILL_AREA ( #156 ) ;
#239 = ADVANCED_FACE ( 'NONE', ( #203 ), #195, .T. ) ;
#240 = CYLINDRICAL_SURFACE ( 'NONE', #290, 0.1875000000000000278 ) ;
#241 = MANIFOLD_SOLID_BREP ( 'Revolve - Cutting Edge', #97 ) ;
#242 = ORIENTED_EDGE ( 'NONE', *, *, #33, .F. ) ;
#243 = DIRECTION ( 'NONE',  ( 0.000000000000000000, 1.000000000000000000, 0.000000000000000000 ) ) ;
#244 = MECHANICAL_DESIGN_GEOMETRIC_PRESENTATION_REPRESENTATION (  '', ( #160 ), #280 ) ;
#245 = LENGTH_MEASURE_WITH_UNIT ( LENGTH_MEASURE( 0.02539999999999999897 ), #18 );
#246 = CARTESIAN_POINT ( 'NONE',  ( 0.000000000000000000, 0.000000000000000000, 0.000000000000000000 ) ) ;
#247 = SURFACE_SIDE_STYLE ('',( #81 ) ) ;
#248 = DIRECTION ( 'NONE',  ( -3.061616997868380553E-17, 1.000000000000000000, -0.000000000000000000 ) ) ;
#249 =( NAMED_UNIT ( * ) SI_UNIT ( $, .STERADIAN. ) SOLID_ANGLE_UNIT ( ) );
#250 = PLANE ( 'NONE',  #181 ) ;
#251 = CARTESIAN_POINT ( 'NONE',  ( 0.000000000000000000, 0.000000000000000000, -0.1875000000000000278 ) ) ;
#252 =( NAMED_UNIT ( * ) SI_UNIT ( $, .STERADIAN. ) SOLID_ANGLE_UNIT ( ) );
#253 = LINE ( 'NONE', #229, #64 ) ;
#254 = ORIENTED_EDGE ( 'NONE', *, *, #51, .T. ) ;
#255 = STYLED_ITEM ( 'NONE', ( #52 ), #155 ) ;
#256 = DIMENSIONAL_EXPONENTS ( 1.000000000000000000, 0.000000000000000000, 0.000000000000000000, 0.000000000000000000, 0.000000000000000000, 0.000000000000000000, 0.000000000000000000 ) ;
#257 = DIMENSIONAL_EXPONENTS ( 1.000000000000000000, 0.000000000000000000, 0.000000000000000000, 0.000000000000000000, 0.000000000000000000, 0.000000000000000000, 0.000000000000000000 ) ;
#258 = EDGE_CURVE ( 'NONE', #262, #99, #220, .T. ) ;
#259 =( GEOMETRIC_REPRESENTATION_CONTEXT ( 3 ) GLOBAL_UNCERTAINTY_ASSIGNED_CONTEXT ( ( #163 ) ) GLOBAL_UNIT_ASSIGNED_CONTEXT ( ( #175, #225, #267 ) ) REPRESENTATION_CONTEXT ( 'NONE', 'WORKASPACE' ) );
#260 = SURFACE_STYLE_USAGE ( .BOTH. , #36 ) ;
#261 = FACE_OUTER_BOUND ( 'NONE', #277, .T. ) ;
#262 = VERTEX_POINT ( 'NONE', #37 ) ;
#263 = ADVANCED_FACE ( 'NONE', ( #8 ), #57, .T. ) ;
#264 = CIRCLE ( 'NONE', #40, 0.1875000000000000278 ) ;
#265 = VECTOR ( 'NONE', #300, 39.37007874015748143 ) ;
#266 = DIRECTION ( 'NONE',  ( 1.000000000000000000, 3.061616997868380553E-17, 0.000000000000000000 ) ) ;
#267 =( NAMED_UNIT ( * ) SI_UNIT ( $, .STERADIAN. ) SOLID_ANGLE_UNIT ( ) );
#268 = SHAPE_DEFINITION_REPRESENTATION ( #297, #46 ) ;
#269 = CLOSED_SHELL ( 'NONE', ( #282, #309, #123, #285 ) ) ;
#270 = CARTESIAN_POINT ( 'NONE',  ( 0.000000000000000000, 1.500000000000000222, 0.000000000000000000 ) ) ;
#271 = UNCERTAINTY_MEASURE_WITH_UNIT (LENGTH_MEASURE( 1.000000000000000082E-05 ), #212, 'distance_accuracy_value', 'NONE');
#272 =( NAMED_UNIT ( * ) PLANE_ANGLE_UNIT ( ) SI_UNIT ( $, .RADIAN. ) );
#273 = ORIENTED_EDGE ( 'NONE', *, *, #71, .T. ) ;
#274 = ORIENTED_EDGE ( 'NONE', *, *, #94, .T. ) ;
#275 = FACE_OUTER_BOUND ( 'NONE', #100, .T. ) ;
#276 = FILL_AREA_STYLE ('',( #158 ) ) ;
#277 = EDGE_LOOP ( 'NONE', ( #85, #34, #12, #4 ) ) ;
#278 = DIRECTION ( 'NONE',  ( 0.000000000000000000, 0.000000000000000000, -1.000000000000000000 ) ) ;
#279 = CIRCLE ( 'NONE', #5, 0.1875000000000000278 ) ;
#280 =( GEOMETRIC_REPRESENTATION_CONTEXT ( 3 ) GLOBAL_UNCERTAINTY_ASSIGNED_CONTEXT ( ( #112 ) ) GLOBAL_UNIT_ASSIGNED_CONTEXT ( ( #172, #272, #252 ) ) REPRESENTATION_CONTEXT ( 'NONE', 'WORKASPACE' ) );
#281 = FACE_OUTER_BOUND ( 'NONE', #77, .T. ) ;
#282 = ADVANCED_FACE ( 'NONE', ( #217 ), #110, .T. ) ;
#283 = MECHANICAL_DESIGN_GEOMETRIC_PRESENTATION_REPRESENTATION (  '', ( #48 ), #91 ) ;
#284 = PRESENTATION_LAYER_ASSIGNMENT (  '', '', ( #165 ) ) ;
#285 = ADVANCED_FACE ( 'NONE', ( #25 ), #250, .F. ) ;
#286 = EDGE_LOOP ( 'NONE', ( #137, #242 ) ) ;
#287 = DIRECTION ( 'NONE',  ( 0.000000000000000000, 0.000000000000000000, -1.000000000000000000 ) ) ;
#288 = LENGTH_MEASURE_WITH_UNIT ( LENGTH_MEASURE( 0.02539999999999999897 ), #23 );
#289 = CARTESIAN_POINT ( 'NONE',  ( 0.1875000000000000278, 1.500000000000000222, 2.296212748401288342E-17 ) ) ;
#290 = AXIS2_PLACEMENT_3D ( 'NONE', #202, #54, #287 ) ;
#291 =( CONVERSION_BASED_UNIT ( 'INCH', #245 ) LENGTH_UNIT ( ) NAMED_UNIT ( #136 ) );
#292 = DIRECTION ( 'NONE',  ( 0.000000000000000000, -1.000000000000000000, -0.000000000000000000 ) ) ;
#293 = CARTESIAN_POINT ( 'NONE',  ( -0.1875000000000001110, 3.500000000000000000, 0.000000000000000000 ) ) ;
#294 = PRESENTATION_STYLE_ASSIGNMENT (( #22 ) ) ;
#295 = CARTESIAN_POINT ( 'NONE',  ( -6.123233995736759873E-17, 3.500000000000000000, 0.000000000000000000 ) ) ;
#296 = VERTEX_POINT ( 'NONE', #151 ) ;
#297 = PRODUCT_DEFINITION_SHAPE ( 'NONE', 'NONE',  #198 ) ;
#298 = DIRECTION ( 'NONE',  ( -3.061616997868380553E-17, 1.000000000000000000, -0.000000000000000000 ) ) ;
#299 = EDGE_CURVE ( 'NONE', #131, #223, #31, .T. ) ;
#300 = DIRECTION ( 'NONE',  ( -0.000000000000000000, -1.000000000000000000, -0.000000000000000000 ) ) ;
#301 = ORIENTED_EDGE ( 'NONE', *, *, #146, .T. ) ;
#302 = ORIENTED_EDGE ( 'NONE', *, *, #146, .F. ) ;
#303 = FILL_AREA_STYLE ('',( #234 ) ) ;
#304 = FILL_AREA_STYLE_COLOUR ( '', #186 ) ;
#305 = AXIS2_PLACEMENT_3D ( 'NONE', #199, #83, #53 ) ;
#306 = STYLED_ITEM ( 'NONE', ( #233 ), #263 ) ;
#307 = CARTESIAN_POINT ( 'NONE',  ( 0.000000000000000000, 1.500000000000000222, 0.000000000000000000 ) ) ;
#308 =( NAMED_UNIT ( * ) PLANE_ANGLE_UNIT ( ) SI_UNIT ( $, .RADIAN. ) );
#309 = ADVANCED_FACE ( 'NONE', ( #82 ), #150, .F. ) ;
ENDSEC;
END-ISO-10303-21;
