ISO-10303-21;
HEADER;
FILE_DESCRIPTION (( 'STEP AP214' ),
    '1' );
FILE_NAME ('00467.STEP',
    '2023-06-22T14:08:59',
    ( '' ),
    ( '' ),
    'SwSTEP 2.0',
    'SolidWorks 2023',
    '' );
FILE_SCHEMA (( 'AUTOMOTIVE_DESIGN' ));
ENDSEC;

DATA;
#1 =( CONVERSION_BASED_UNIT ( 'INCH', #285 ) LENGTH_UNIT ( ) NAMED_UNIT ( #88 ) );
#2 =( LENGTH_UNIT ( ) NAMED_UNIT ( * ) SI_UNIT ( $, .METRE. ) );
#3 = VERTEX_POINT ( 'NONE', #137 ) ;
#4 = SURFACE_STYLE_FILL_AREA ( #78 ) ;
#5 =( NAMED_UNIT ( * ) PLANE_ANGLE_UNIT ( ) SI_UNIT ( $, .RADIAN. ) );
#6 = SURFACE_STYLE_USAGE ( .BOTH. , #136 ) ;
#7 = FILL_AREA_STYLE_COLOUR ( '', #229 ) ;
#8 = CARTESIAN_POINT ( 'NONE',  ( 0.000000000000000000, 1.250000000000000000, 0.000000000000000000 ) ) ;
#9 = ORIENTED_EDGE ( 'NONE', *, *, #189, .F. ) ;
#10 = DIRECTION ( 'NONE',  ( -0.000000000000000000, -1.000000000000000000, -0.000000000000000000 ) ) ;
#11 =( GEOMETRIC_REPRESENTATION_CONTEXT ( 3 ) GLOBAL_UNCERTAINTY_ASSIGNED_CONTEXT ( ( #258 ) ) GLOBAL_UNIT_ASSIGNED_CONTEXT ( ( #1, #96, #307 ) ) REPRESENTATION_CONTEXT ( 'NONE', 'WORKASPACE' ) );
#12 = EDGE_LOOP ( 'NONE', ( #132, #242, #141, #246 ) ) ;
#13 = PRODUCT_DEFINITION_CONTEXT ( 'detailed design', #284, 'design' ) ;
#14 = MANIFOLD_SOLID_BREP ( 'Revolve - Cutting Edge', #45 ) ;
#15 = ADVANCED_FACE ( 'NONE', ( #17 ), #298, .T. ) ;
#16 = DIRECTION ( 'NONE',  ( -1.000000000000000000, 0.000000000000000000, 0.000000000000000000 ) ) ;
#17 = FACE_OUTER_BOUND ( 'NONE', #275, .T. ) ;
#18 = DIRECTION ( 'NONE',  ( -0.000000000000000000, -1.000000000000000000, -0.000000000000000000 ) ) ;
#19 = DIRECTION ( 'NONE',  ( -3.498990854706726443E-17, 1.000000000000000000, -0.000000000000000000 ) ) ;
#20 = DIMENSIONAL_EXPONENTS ( 1.000000000000000000, 0.000000000000000000, 0.000000000000000000, 0.000000000000000000, 0.000000000000000000, 0.000000000000000000, 0.000000000000000000 ) ;
#21 = CARTESIAN_POINT ( 'NONE',  ( 0.000000000000000000, 1.250000000000000000, 0.000000000000000000 ) ) ;
#22 = SURFACE_STYLE_USAGE ( .BOTH. , #149 ) ;
#23 = UNCERTAINTY_MEASURE_WITH_UNIT (LENGTH_MEASURE( 1.000000000000000082E-05 ), #226, 'distance_accuracy_value', 'NONE');
#24 = AXIS2_PLACEMENT_3D ( 'NONE', #21, #119, #303 ) ;
#25 = DIRECTION ( 'NONE',  ( 0.000000000000000000, 0.000000000000000000, -1.000000000000000000 ) ) ;
#26 = PRODUCT_DEFINITION ( 'UNKNOWN', '', #300, #13 ) ;
#27 = AXIS2_PLACEMENT_3D ( 'NONE', #294, #79, #223 ) ;
#28 = ORIENTED_EDGE ( 'NONE', *, *, #113, .F. ) ;
#29 = SURFACE_SIDE_STYLE ('',( #83 ) ) ;
#30 = SURFACE_STYLE_FILL_AREA ( #63 ) ;
#31 = COLOUR_RGB ( '',1.000000000000000000, 0.000000000000000000, 0.000000000000000000 ) ;
#32 = EDGE_LOOP ( 'NONE', ( #28, #9 ) ) ;
#33 = CARTESIAN_POINT ( 'NONE',  ( 0.000000000000000000, 1.250000000000000000, -0.2500000000000000000 ) ) ;
#34 = ORIENTED_EDGE ( 'NONE', *, *, #230, .T. ) ;
#35 = CARTESIAN_POINT ( 'NONE',  ( 0.000000000000000000, 0.000000000000000000, -0.2500000000000000000 ) ) ;
#36 = VERTEX_POINT ( 'NONE', #40 ) ;
#37 = LENGTH_MEASURE_WITH_UNIT ( LENGTH_MEASURE( 0.02539999999999999897 ), #111 );
#38 = AXIS2_PLACEMENT_3D ( 'NONE', #269, #39, #16 ) ;
#39 = DIRECTION ( 'NONE',  ( -3.498990854706726443E-17, 1.000000000000000000, -0.000000000000000000 ) ) ;
#40 = CARTESIAN_POINT ( 'NONE',  ( 0.2500000000000000000, 3.000000000000000444, 3.061616997868383634E-17 ) ) ;
#41 = CARTESIAN_POINT ( 'NONE',  ( 0.000000000000000000, 0.000000000000000000, 0.000000000000000000 ) ) ;
#42 = UNCERTAINTY_MEASURE_WITH_UNIT (LENGTH_MEASURE( 1.000000000000000082E-05 ), #118, 'distance_accuracy_value', 'NONE');
#43 = ADVANCED_FACE ( 'NONE', ( #251 ), #44, .T. ) ;
#44 = PLANE ( 'NONE',  #120 ) ;
#45 = CLOSED_SHELL ( 'NONE', ( #15, #266, #168, #43 ) ) ;
#46 = EDGE_CURVE ( 'NONE', #290, #268, #70, .T. ) ;
#47 = FILL_AREA_STYLE ('',( #89 ) ) ;
#48 = SHAPE_DEFINITION_REPRESENTATION ( #239, #209 ) ;
#49 =( NAMED_UNIT ( * ) SI_UNIT ( $, .STERADIAN. ) SOLID_ANGLE_UNIT ( ) );
#50 = CARTESIAN_POINT ( 'NONE',  ( -0.2500000000000001110, 3.000000000000000444, 0.000000000000000000 ) ) ;
#51 = PRODUCT ( '00467', '00467', '', ( #91 ) ) ;
#52 = COLOUR_RGB ( '',1.000000000000000000, 0.000000000000000000, 0.000000000000000000 ) ;
#53 = AXIS2_PLACEMENT_3D ( 'NONE', #206, #277, #183 ) ;
#54 = SURFACE_SIDE_STYLE ('',( #154 ) ) ;
#55 = VERTEX_POINT ( 'NONE', #115 ) ;
#56 = CARTESIAN_POINT ( 'NONE',  ( 0.000000000000000000, 1.250000000000000000, 0.000000000000000000 ) ) ;
#57 = CARTESIAN_POINT ( 'NONE',  ( -6.123233995736772199E-17, 3.000000000000000444, 0.000000000000000000 ) ) ;
#58 = ORIENTED_EDGE ( 'NONE', *, *, #194, .F. ) ;
#59 = DIRECTION ( 'NONE',  ( 0.000000000000000000, 0.000000000000000000, -1.000000000000000000 ) ) ;
#60 = CYLINDRICAL_SURFACE ( 'NONE', #38, 0.2500000000000000555 ) ;
#61 = MECHANICAL_DESIGN_GEOMETRIC_PRESENTATION_REPRESENTATION (  '', ( #90 ), #210 ) ;
#62 =( CONVERSION_BASED_UNIT ( 'INCH', #150 ) LENGTH_UNIT ( ) NAMED_UNIT ( #20 ) );
#63 = FILL_AREA_STYLE ('',( #220 ) ) ;
#64 = DIMENSIONAL_EXPONENTS ( 1.000000000000000000, 0.000000000000000000, 0.000000000000000000, 0.000000000000000000, 0.000000000000000000, 0.000000000000000000, 0.000000000000000000 ) ;
#65 = DIRECTION ( 'NONE',  ( 1.000000000000000000, 0.000000000000000000, 0.000000000000000000 ) ) ;
#66 =( CONVERSION_BASED_UNIT ( 'INCH', #302 ) LENGTH_UNIT ( ) NAMED_UNIT ( #116 ) );
#67 = LINE ( 'NONE', #286, #109 ) ;
#68 =( NAMED_UNIT ( * ) PLANE_ANGLE_UNIT ( ) SI_UNIT ( $, .RADIAN. ) );
#69 = CYLINDRICAL_SURFACE ( 'NONE', #187, 0.2500000000000000000 ) ;
#70 = CIRCLE ( 'NONE', #241, 0.2500000000000000000 ) ;
#71 = LENGTH_MEASURE_WITH_UNIT ( LENGTH_MEASURE( 0.02539999999999999897 ), #235 );
#72 = PRESENTATION_STYLE_ASSIGNMENT (( #171 ) ) ;
#73 = FILL_AREA_STYLE_COLOUR ( '', #52 ) ;
#74 = MECHANICAL_DESIGN_GEOMETRIC_PRESENTATION_REPRESENTATION (  '', ( #203 ), #95 ) ;
#75 = AXIS2_PLACEMENT_3D ( 'NONE', #173, #140, #248 ) ;
#76 = ORIENTED_EDGE ( 'NONE', *, *, #114, .T. ) ;
#77 =( NAMED_UNIT ( * ) SI_UNIT ( $, .STERADIAN. ) SOLID_ANGLE_UNIT ( ) );
#78 = FILL_AREA_STYLE ('',( #7 ) ) ;
#79 = DIRECTION ( 'NONE',  ( -3.498990854706726443E-17, 1.000000000000000000, 0.000000000000000000 ) ) ;
#80 = UNCERTAINTY_MEASURE_WITH_UNIT (LENGTH_MEASURE( 1.000000000000000082E-05 ), #247, 'distance_accuracy_value', 'NONE');
#81 = DIMENSIONAL_EXPONENTS ( 1.000000000000000000, 0.000000000000000000, 0.000000000000000000, 0.000000000000000000, 0.000000000000000000, 0.000000000000000000, 0.000000000000000000 ) ;
#82 = SURFACE_SIDE_STYLE ('',( #4 ) ) ;
#83 = SURFACE_STYLE_FILL_AREA ( #161 ) ;
#84 = ORIENTED_EDGE ( 'NONE', *, *, #252, .T. ) ;
#85 = CARTESIAN_POINT ( 'NONE',  ( 0.000000000000000000, 1.250000000000000000, 0.000000000000000000 ) ) ;
#86 =( NAMED_UNIT ( * ) SI_UNIT ( $, .STERADIAN. ) SOLID_ANGLE_UNIT ( ) );
#87 = AXIS2_PLACEMENT_3D ( 'NONE', #56, #178, #272 ) ;
#88 = DIMENSIONAL_EXPONENTS ( 1.000000000000000000, 0.000000000000000000, 0.000000000000000000, 0.000000000000000000, 0.000000000000000000, 0.000000000000000000, 0.000000000000000000 ) ;
#89 = FILL_AREA_STYLE_COLOUR ( '', #259 ) ;
#90 = STYLED_ITEM ( 'NONE', ( #93 ), #168 ) ;
#91 = PRODUCT_CONTEXT ( 'NONE', #253, 'mechanical' ) ;
#92 =( NAMED_UNIT ( * ) SI_UNIT ( $, .STERADIAN. ) SOLID_ANGLE_UNIT ( ) );
#93 = PRESENTATION_STYLE_ASSIGNMENT (( #191 ) ) ;
#94 = EDGE_CURVE ( 'NONE', #201, #139, #231, .T. ) ;
#95 =( GEOMETRIC_REPRESENTATION_CONTEXT ( 3 ) GLOBAL_UNCERTAINTY_ASSIGNED_CONTEXT ( ( #224 ) ) GLOBAL_UNIT_ASSIGNED_CONTEXT ( ( #66, #68, #92 ) ) REPRESENTATION_CONTEXT ( 'NONE', 'WORKASPACE' ) );
#96 =( NAMED_UNIT ( * ) PLANE_ANGLE_UNIT ( ) SI_UNIT ( $, .RADIAN. ) );
#97 = DIRECTION ( 'NONE',  ( 3.498990854706726443E-17, -1.000000000000000000, 0.000000000000000000 ) ) ;
#98 = EDGE_LOOP ( 'NONE', ( #292, #34, #293, #222 ) ) ;
#99 = FACE_OUTER_BOUND ( 'NONE', #98, .T. ) ;
#100 = CIRCLE ( 'NONE', #24, 0.2500000000000000000 ) ;
#101 = CIRCLE ( 'NONE', #127, 0.2500000000000000000 ) ;
#102 = ORIENTED_EDGE ( 'NONE', *, *, #230, .F. ) ;
#103 = DIRECTION ( 'NONE',  ( 0.000000000000000000, -0.000000000000000000, 1.000000000000000000 ) ) ;
#104 = ORIENTED_EDGE ( 'NONE', *, *, #214, .T. ) ;
#105 = DIRECTION ( 'NONE',  ( -3.498990854706726443E-17, 1.000000000000000000, -0.000000000000000000 ) ) ;
#106 = DIMENSIONAL_EXPONENTS ( 1.000000000000000000, 0.000000000000000000, 0.000000000000000000, 0.000000000000000000, 0.000000000000000000, 0.000000000000000000, 0.000000000000000000 ) ;
#107 = ORIENTED_EDGE ( 'NONE', *, *, #46, .F. ) ;
#108 = FACE_OUTER_BOUND ( 'NONE', #12, .T. ) ;
#109 = VECTOR ( 'NONE', #131, 39.37007874015748143 ) ;
#110 = EDGE_LOOP ( 'NONE', ( #244, #102 ) ) ;
#111 =( LENGTH_UNIT ( ) NAMED_UNIT ( * ) SI_UNIT ( $, .METRE. ) );
#112 = FILL_AREA_STYLE_COLOUR ( '', #31 ) ;
#113 = EDGE_CURVE ( 'NONE', #201, #3, #100, .T. ) ;
#114 = EDGE_CURVE ( 'NONE', #55, #268, #67, .T. ) ;
#115 = CARTESIAN_POINT ( 'NONE',  ( 3.061616997868383018E-17, 1.250000000000000000, 0.2500000000000000000 ) ) ;
#116 = DIMENSIONAL_EXPONENTS ( 1.000000000000000000, 0.000000000000000000, 0.000000000000000000, 0.000000000000000000, 0.000000000000000000, 0.000000000000000000, 0.000000000000000000 ) ;
#117 =( GEOMETRIC_REPRESENTATION_CONTEXT ( 3 ) GLOBAL_UNCERTAINTY_ASSIGNED_CONTEXT ( ( #42 ) ) GLOBAL_UNIT_ASSIGNED_CONTEXT ( ( #118, #185, #49 ) ) REPRESENTATION_CONTEXT ( 'NONE', 'WORKASPACE' ) );
#118 =( CONVERSION_BASED_UNIT ( 'INCH', #164 ) LENGTH_UNIT ( ) NAMED_UNIT ( #106 ) );
#119 = DIRECTION ( 'NONE',  ( -3.498990854706726443E-17, 1.000000000000000000, -0.000000000000000000 ) ) ;
#120 = AXIS2_PLACEMENT_3D ( 'NONE', #165, #148, #25 ) ;
#121 = STYLED_ITEM ( 'NONE', ( #240 ), #266 ) ;
#122 = CARTESIAN_POINT ( 'NONE',  ( 0.000000000000000000, 0.000000000000000000, 0.000000000000000000 ) ) ;
#123 = LINE ( 'NONE', #262, #217 ) ;
#124 = DIRECTION ( 'NONE',  ( -3.498990854706726443E-17, 1.000000000000000000, -0.000000000000000000 ) ) ;
#125 = EDGE_CURVE ( 'NONE', #3, #36, #123, .T. ) ;
#126 = COLOUR_RGB ( '',1.000000000000000000, 0.000000000000000000, 0.000000000000000000 ) ;
#127 = AXIS2_PLACEMENT_3D ( 'NONE', #8, #105, #227 ) ;
#128 = CARTESIAN_POINT ( 'NONE',  ( 0.2500000000000000000, 3.000000000000000444, 0.000000000000000000 ) ) ;
#129 = MANIFOLD_SOLID_BREP ( 'Revolve - Tool Body (Straight Shanked)', #255 ) ;
#130 = DIRECTION ( 'NONE',  ( 1.000000000000000000, 3.498990854706726443E-17, 0.000000000000000000 ) ) ;
#131 = DIRECTION ( 'NONE',  ( -0.000000000000000000, -1.000000000000000000, -0.000000000000000000 ) ) ;
#132 = ORIENTED_EDGE ( 'NONE', *, *, #125, .F. ) ;
#133 = CYLINDRICAL_SURFACE ( 'NONE', #309, 0.2500000000000000555 ) ;
#134 = MECHANICAL_DESIGN_GEOMETRIC_PRESENTATION_REPRESENTATION (  '', ( #169 ), #117 ) ;
#135 = AXIS2_PLACEMENT_3D ( 'NONE', #57, #157, #159 ) ;
#136 = SURFACE_SIDE_STYLE ('',( #30 ) ) ;
#137 = CARTESIAN_POINT ( 'NONE',  ( 0.2500000000000000000, 1.250000000000000000, 3.061616997868383634E-17 ) ) ;
#138 = PLANE ( 'NONE',  #27 ) ;
#139 = VERTEX_POINT ( 'NONE', #50 ) ;
#140 = DIRECTION ( 'NONE',  ( -3.498990854706726443E-17, 1.000000000000000000, -0.000000000000000000 ) ) ;
#141 = ORIENTED_EDGE ( 'NONE', *, *, #94, .T. ) ;
#142 = UNCERTAINTY_MEASURE_WITH_UNIT (LENGTH_MEASURE( 1.000000000000000082E-05 ), #215, 'distance_accuracy_value', 'NONE');
#143 = CIRCLE ( 'NONE', #75, 0.2500000000000000555 ) ;
#144 = CARTESIAN_POINT ( 'NONE',  ( -6.123233995736772199E-17, 3.000000000000000444, 0.000000000000000000 ) ) ;
#145 = DIRECTION ( 'NONE',  ( 0.000000000000000000, 0.000000000000000000, 1.000000000000000000 ) ) ;
#146 =( LENGTH_UNIT ( ) NAMED_UNIT ( * ) SI_UNIT ( $, .METRE. ) );
#147 = UNCERTAINTY_MEASURE_WITH_UNIT (LENGTH_MEASURE( 1.000000000000000082E-05 ), #62, 'distance_accuracy_value', 'NONE');
#148 = DIRECTION ( 'NONE',  ( 0.000000000000000000, -1.000000000000000000, -0.000000000000000000 ) ) ;
#149 = SURFACE_SIDE_STYLE ('',( #280 ) ) ;
#150 = LENGTH_MEASURE_WITH_UNIT ( LENGTH_MEASURE( 0.02539999999999999897 ), #208 );
#151 = DIRECTION ( 'NONE',  ( -0.000000000000000000, -1.000000000000000000, -0.000000000000000000 ) ) ;
#152 = AXIS2_PLACEMENT_3D ( 'NONE', #85, #162, #103 ) ;
#153 =( NAMED_UNIT ( * ) SI_UNIT ( $, .STERADIAN. ) SOLID_ANGLE_UNIT ( ) );
#154 = SURFACE_STYLE_FILL_AREA ( #195 ) ;
#155 = ADVANCED_FACE ( 'NONE', ( #193 ), #265, .F. ) ;
#156 = EDGE_LOOP ( 'NONE', ( #213, #84 ) ) ;
#157 = DIRECTION ( 'NONE',  ( -3.498990854706726443E-17, 1.000000000000000000, -0.000000000000000000 ) ) ;
#158 = PRESENTATION_LAYER_ASSIGNMENT (  '', '', ( #197 ) ) ;
#159 = DIRECTION ( 'NONE',  ( -1.000000000000000000, 0.000000000000000000, 0.000000000000000000 ) ) ;
#160 = ORIENTED_EDGE ( 'NONE', *, *, #214, .F. ) ;
#161 = FILL_AREA_STYLE ('',( #112 ) ) ;
#162 = DIRECTION ( 'NONE',  ( 0.000000000000000000, 1.000000000000000000, 0.000000000000000000 ) ) ;
#163 = MECHANICAL_DESIGN_GEOMETRIC_PRESENTATION_REPRESENTATION (  '', ( #278 ), #304 ) ;
#164 = LENGTH_MEASURE_WITH_UNIT ( LENGTH_MEASURE( 0.02539999999999999897 ), #306 );
#165 = CARTESIAN_POINT ( 'NONE',  ( 0.000000000000000000, 0.000000000000000000, 0.000000000000000000 ) ) ;
#166 = PRESENTATION_LAYER_ASSIGNMENT (  '', '', ( #169 ) ) ;
#167 = CARTESIAN_POINT ( 'NONE',  ( 0.000000000000000000, 0.000000000000000000, -0.2500000000000000000 ) ) ;
#168 = ADVANCED_FACE ( 'NONE', ( #99 ), #69, .T. ) ;
#169 = STYLED_ITEM ( 'NONE', ( #207 ), #15 ) ;
#170 = AXIS2_PLACEMENT_3D ( 'NONE', #205, #10, #59 ) ;
#171 = SURFACE_STYLE_USAGE ( .BOTH. , #238 ) ;
#172 = SURFACE_STYLE_FILL_AREA ( #212 ) ;
#173 = CARTESIAN_POINT ( 'NONE',  ( -6.123233995736772199E-17, 3.000000000000000444, 0.000000000000000000 ) ) ;
#174 = ORIENTED_EDGE ( 'NONE', *, *, #288, .T. ) ;
#175 = CARTESIAN_POINT ( 'NONE',  ( 3.061616997868383018E-17, 0.000000000000000000, 0.2500000000000000000 ) ) ;
#176 = ADVANCED_FACE ( 'NONE', ( #108 ), #133, .T. ) ;
#177 = ORIENTED_EDGE ( 'NONE', *, *, #113, .T. ) ;
#178 = DIRECTION ( 'NONE',  ( -0.000000000000000000, -1.000000000000000000, -0.000000000000000000 ) ) ;
#179 = CIRCLE ( 'NONE', #87, 0.2500000000000000000 ) ;
#180 =( LENGTH_UNIT ( ) NAMED_UNIT ( * ) SI_UNIT ( $, .METRE. ) );
#181 = EDGE_LOOP ( 'NONE', ( #104, #295 ) ) ;
#182 = DIRECTION ( 'NONE',  ( -3.498990854706726443E-17, 1.000000000000000000, -0.000000000000000000 ) ) ;
#183 = DIRECTION ( 'NONE',  ( 0.000000000000000000, 0.000000000000000000, -1.000000000000000000 ) ) ;
#184 = MECHANICAL_DESIGN_GEOMETRIC_PRESENTATION_REPRESENTATION (  '', ( #197 ), #11 ) ;
#185 =( NAMED_UNIT ( * ) PLANE_ANGLE_UNIT ( ) SI_UNIT ( $, .RADIAN. ) );
#186 = AXIS2_PLACEMENT_3D ( 'NONE', #128, #97, #130 ) ;
#187 = AXIS2_PLACEMENT_3D ( 'NONE', #261, #237, #221 ) ;
#188 = APPLICATION_PROTOCOL_DEFINITION ( 'draft international standard', 'automotive_design', 1998, #284 ) ;
#189 = EDGE_CURVE ( 'NONE', #3, #201, #101, .T. ) ;
#190 = PRESENTATION_STYLE_ASSIGNMENT (( #22 ) ) ;
#191 = SURFACE_STYLE_USAGE ( .BOTH. , #54 ) ;
#192 = CIRCLE ( 'NONE', #53, 0.2500000000000000000 ) ;
#193 = FACE_OUTER_BOUND ( 'NONE', #181, .T. ) ;
#194 = EDGE_CURVE ( 'NONE', #204, #290, #243, .T. ) ;
#195 = FILL_AREA_STYLE ('',( #73 ) ) ;
#196 = ORIENTED_EDGE ( 'NONE', *, *, #125, .T. ) ;
#197 = STYLED_ITEM ( 'NONE', ( #72 ), #129 ) ;
#198 = PRESENTATION_STYLE_ASSIGNMENT (( #273 ) ) ;
#199 = CARTESIAN_POINT ( 'NONE',  ( -0.2500000000000000000, 1.250000000000000000, 0.000000000000000000 ) ) ;
#200 = DIRECTION ( 'NONE',  ( -0.000000000000000000, -1.000000000000000000, -0.000000000000000000 ) ) ;
#201 = VERTEX_POINT ( 'NONE', #199 ) ;
#202 = FACE_OUTER_BOUND ( 'NONE', #110, .T. ) ;
#203 = STYLED_ITEM ( 'NONE', ( #190 ), #43 ) ;
#204 = VERTEX_POINT ( 'NONE', #33 ) ;
#205 = CARTESIAN_POINT ( 'NONE',  ( 0.000000000000000000, 0.000000000000000000, 0.000000000000000000 ) ) ;
#206 = CARTESIAN_POINT ( 'NONE',  ( 0.000000000000000000, 1.250000000000000000, 0.000000000000000000 ) ) ;
#207 = PRESENTATION_STYLE_ASSIGNMENT (( #6 ) ) ;
#208 =( LENGTH_UNIT ( ) NAMED_UNIT ( * ) SI_UNIT ( $, .METRE. ) );
#209 = ADVANCED_BREP_SHAPE_REPRESENTATION ( '00467', ( #14, #129, #289 ), #232 ) ;
#210 =( GEOMETRIC_REPRESENTATION_CONTEXT ( 3 ) GLOBAL_UNCERTAINTY_ASSIGNED_CONTEXT ( ( #142 ) ) GLOBAL_UNIT_ASSIGNED_CONTEXT ( ( #215, #236, #153 ) ) REPRESENTATION_CONTEXT ( 'NONE', 'WORKASPACE' ) );
#211 = DIRECTION ( 'NONE',  ( 0.000000000000000000, 0.000000000000000000, -1.000000000000000000 ) ) ;
#212 = FILL_AREA_STYLE ('',( #287 ) ) ;
#213 = ORIENTED_EDGE ( 'NONE', *, *, #46, .T. ) ;
#214 = EDGE_CURVE ( 'NONE', #139, #36, #143, .T. ) ;
#215 =( CONVERSION_BASED_UNIT ( 'INCH', #71 ) LENGTH_UNIT ( ) NAMED_UNIT ( #64 ) );
#216 = ORIENTED_EDGE ( 'NONE', *, *, #94, .F. ) ;
#217 = VECTOR ( 'NONE', #124, 39.37007874015748143 ) ;
#218 = LENGTH_MEASURE_WITH_UNIT ( LENGTH_MEASURE( 0.02539999999999999897 ), #180 );
#219 = ADVANCED_FACE ( 'NONE', ( #267 ), #138, .F. ) ;
#220 = FILL_AREA_STYLE_COLOUR ( '', #126 ) ;
#221 = DIRECTION ( 'NONE',  ( 0.000000000000000000, 0.000000000000000000, -1.000000000000000000 ) ) ;
#222 = ORIENTED_EDGE ( 'NONE', *, *, #252, .F. ) ;
#223 = DIRECTION ( 'NONE',  ( -1.000000000000000000, -3.498990854706726443E-17, 0.000000000000000000 ) ) ;
#224 = UNCERTAINTY_MEASURE_WITH_UNIT (LENGTH_MEASURE( 1.000000000000000082E-05 ), #66, 'distance_accuracy_value', 'NONE');
#225 = VECTOR ( 'NONE', #19, 39.37007874015748143 ) ;
#226 =( CONVERSION_BASED_UNIT ( 'INCH', #37 ) LENGTH_UNIT ( ) NAMED_UNIT ( #81 ) );
#227 = DIRECTION ( 'NONE',  ( -1.000000000000000000, 0.000000000000000000, 0.000000000000000000 ) ) ;
#228 =( NAMED_UNIT ( * ) SI_UNIT ( $, .STERADIAN. ) SOLID_ANGLE_UNIT ( ) );
#229 = COLOUR_RGB ( '',0.7921568627450980005, 0.8196078431372548767, 0.9333333333333333481 ) ;
#230 = EDGE_CURVE ( 'NONE', #55, #204, #179, .T. ) ;
#231 = LINE ( 'NONE', #233, #225 ) ;
#232 =( GEOMETRIC_REPRESENTATION_CONTEXT ( 3 ) GLOBAL_UNCERTAINTY_ASSIGNED_CONTEXT ( ( #147 ) ) GLOBAL_UNIT_ASSIGNED_CONTEXT ( ( #62, #254, #228 ) ) REPRESENTATION_CONTEXT ( 'NONE', 'WORKASPACE' ) );
#233 = CARTESIAN_POINT ( 'NONE',  ( -0.2500000000000001110, 3.000000000000000444, 0.000000000000000000 ) ) ;
#234 =( GEOMETRIC_REPRESENTATION_CONTEXT ( 3 ) GLOBAL_UNCERTAINTY_ASSIGNED_CONTEXT ( ( #80 ) ) GLOBAL_UNIT_ASSIGNED_CONTEXT ( ( #247, #5, #77 ) ) REPRESENTATION_CONTEXT ( 'NONE', 'WORKASPACE' ) );
#235 =( LENGTH_UNIT ( ) NAMED_UNIT ( * ) SI_UNIT ( $, .METRE. ) );
#236 =( NAMED_UNIT ( * ) PLANE_ANGLE_UNIT ( ) SI_UNIT ( $, .RADIAN. ) );
#237 = DIRECTION ( 'NONE',  ( -0.000000000000000000, -1.000000000000000000, -0.000000000000000000 ) ) ;
#238 = SURFACE_SIDE_STYLE ('',( #172 ) ) ;
#239 = PRODUCT_DEFINITION_SHAPE ( 'NONE', 'NONE',  #26 ) ;
#240 = PRESENTATION_STYLE_ASSIGNMENT (( #291 ) ) ;
#241 = AXIS2_PLACEMENT_3D ( 'NONE', #122, #18, #211 ) ;
#242 = ORIENTED_EDGE ( 'NONE', *, *, #189, .T. ) ;
#243 = LINE ( 'NONE', #35, #271 ) ;
#244 = ORIENTED_EDGE ( 'NONE', *, *, #288, .F. ) ;
#245 = DIRECTION ( 'NONE',  ( -1.000000000000000000, 0.000000000000000000, 0.000000000000000000 ) ) ;
#246 = ORIENTED_EDGE ( 'NONE', *, *, #263, .F. ) ;
#247 =( CONVERSION_BASED_UNIT ( 'INCH', #218 ) LENGTH_UNIT ( ) NAMED_UNIT ( #301 ) );
#248 = DIRECTION ( 'NONE',  ( -1.000000000000000000, 0.000000000000000000, 0.000000000000000000 ) ) ;
#249 = AXIS2_PLACEMENT_3D ( 'NONE', #281, #151, #257 ) ;
#250 = CIRCLE ( 'NONE', #135, 0.2500000000000000555 ) ;
#251 = FACE_OUTER_BOUND ( 'NONE', #156, .T. ) ;
#252 = EDGE_CURVE ( 'NONE', #268, #290, #305, .T. ) ;
#253 = APPLICATION_CONTEXT ( 'automotive_design' ) ;
#254 =( NAMED_UNIT ( * ) PLANE_ANGLE_UNIT ( ) SI_UNIT ( $, .RADIAN. ) );
#255 = CLOSED_SHELL ( 'NONE', ( #282, #219, #176, #155 ) ) ;
#256 = APPLICATION_PROTOCOL_DEFINITION ( 'draft international standard', 'automotive_design', 1998, #253 ) ;
#257 = DIRECTION ( 'NONE',  ( 0.000000000000000000, 0.000000000000000000, -1.000000000000000000 ) ) ;
#258 = UNCERTAINTY_MEASURE_WITH_UNIT (LENGTH_MEASURE( 1.000000000000000082E-05 ), #1, 'distance_accuracy_value', 'NONE');
#259 = COLOUR_RGB ( '',1.000000000000000000, 0.000000000000000000, 0.000000000000000000 ) ;
#260 = PRESENTATION_LAYER_ASSIGNMENT (  '', '', ( #121 ) ) ;
#261 = CARTESIAN_POINT ( 'NONE',  ( 0.000000000000000000, 0.000000000000000000, 0.000000000000000000 ) ) ;
#262 = CARTESIAN_POINT ( 'NONE',  ( 0.2499999999999999722, 3.000000000000000444, 3.061616997868383634E-17 ) ) ;
#263 = EDGE_CURVE ( 'NONE', #36, #139, #250, .T. ) ;
#264 = PRESENTATION_LAYER_ASSIGNMENT (  '', '', ( #90 ) ) ;
#265 = PLANE ( 'NONE',  #186 ) ;
#266 = ADVANCED_FACE ( 'NONE', ( #202 ), #296, .T. ) ;
#267 = FACE_OUTER_BOUND ( 'NONE', #32, .T. ) ;
#268 = VERTEX_POINT ( 'NONE', #175 ) ;
#269 = CARTESIAN_POINT ( 'NONE',  ( -6.123233995736772199E-17, 3.000000000000000444, 0.000000000000000000 ) ) ;
#270 = EDGE_LOOP ( 'NONE', ( #177, #196, #160, #216 ) ) ;
#271 = VECTOR ( 'NONE', #200, 39.37007874015748143 ) ;
#272 = DIRECTION ( 'NONE',  ( 0.000000000000000000, 0.000000000000000000, -1.000000000000000000 ) ) ;
#273 = SURFACE_STYLE_USAGE ( .BOTH. , #82 ) ;
#274 = PRODUCT_RELATED_PRODUCT_CATEGORY ( 'part', '', ( #51 ) ) ;
#275 = EDGE_LOOP ( 'NONE', ( #174, #76, #107, #58 ) ) ;
#276 = FACE_OUTER_BOUND ( 'NONE', #270, .T. ) ;
#277 = DIRECTION ( 'NONE',  ( -0.000000000000000000, -1.000000000000000000, -0.000000000000000000 ) ) ;
#278 = STYLED_ITEM ( 'NONE', ( #198 ), #14 ) ;
#279 = MECHANICAL_DESIGN_GEOMETRIC_PRESENTATION_REPRESENTATION (  '', ( #121 ), #234 ) ;
#280 = SURFACE_STYLE_FILL_AREA ( #47 ) ;
#281 = CARTESIAN_POINT ( 'NONE',  ( 0.000000000000000000, 0.000000000000000000, 0.000000000000000000 ) ) ;
#282 = ADVANCED_FACE ( 'NONE', ( #276 ), #60, .T. ) ;
#283 = PRESENTATION_LAYER_ASSIGNMENT (  '', '', ( #203 ) ) ;
#284 = APPLICATION_CONTEXT ( 'automotive_design' ) ;
#285 = LENGTH_MEASURE_WITH_UNIT ( LENGTH_MEASURE( 0.02539999999999999897 ), #2 );
#286 = CARTESIAN_POINT ( 'NONE',  ( 3.061616997868383018E-17, 0.000000000000000000, 0.2500000000000000000 ) ) ;
#287 = FILL_AREA_STYLE_COLOUR ( '', #308 ) ;
#288 = EDGE_CURVE ( 'NONE', #204, #55, #192, .T. ) ;
#289 = AXIS2_PLACEMENT_3D ( 'NONE', #41, #145, #65 ) ;
#290 = VERTEX_POINT ( 'NONE', #167 ) ;
#291 = SURFACE_STYLE_USAGE ( .BOTH. , #29 ) ;
#292 = ORIENTED_EDGE ( 'NONE', *, *, #114, .F. ) ;
#293 = ORIENTED_EDGE ( 'NONE', *, *, #194, .T. ) ;
#294 = CARTESIAN_POINT ( 'NONE',  ( 1.530367125165163595E-34, 1.250000000000000000, 0.000000000000000000 ) ) ;
#295 = ORIENTED_EDGE ( 'NONE', *, *, #263, .T. ) ;
#296 = PLANE ( 'NONE',  #152 ) ;
#297 =( NAMED_UNIT ( * ) PLANE_ANGLE_UNIT ( ) SI_UNIT ( $, .RADIAN. ) );
#298 = CYLINDRICAL_SURFACE ( 'NONE', #249, 0.2500000000000000000 ) ;
#299 = PRESENTATION_LAYER_ASSIGNMENT (  '', '', ( #278 ) ) ;
#300 = PRODUCT_DEFINITION_FORMATION_WITH_SPECIFIED_SOURCE ( 'ANY', '', #51, .NOT_KNOWN. ) ;
#301 = DIMENSIONAL_EXPONENTS ( 1.000000000000000000, 0.000000000000000000, 0.000000000000000000, 0.000000000000000000, 0.000000000000000000, 0.000000000000000000, 0.000000000000000000 ) ;
#302 = LENGTH_MEASURE_WITH_UNIT ( LENGTH_MEASURE( 0.02539999999999999897 ), #146 );
#303 = DIRECTION ( 'NONE',  ( -1.000000000000000000, 0.000000000000000000, 0.000000000000000000 ) ) ;
#304 =( GEOMETRIC_REPRESENTATION_CONTEXT ( 3 ) GLOBAL_UNCERTAINTY_ASSIGNED_CONTEXT ( ( #23 ) ) GLOBAL_UNIT_ASSIGNED_CONTEXT ( ( #226, #297, #86 ) ) REPRESENTATION_CONTEXT ( 'NONE', 'WORKASPACE' ) );
#305 = CIRCLE ( 'NONE', #170, 0.2500000000000000000 ) ;
#306 =( LENGTH_UNIT ( ) NAMED_UNIT ( * ) SI_UNIT ( $, .METRE. ) );
#307 =( NAMED_UNIT ( * ) SI_UNIT ( $, .STERADIAN. ) SOLID_ANGLE_UNIT ( ) );
#308 = COLOUR_RGB ( '',0.7921568627450980005, 0.8196078431372548767, 0.9333333333333333481 ) ;
#309 = AXIS2_PLACEMENT_3D ( 'NONE', #144, #182, #245 ) ;
ENDSEC;
END-ISO-10303-21;
