ISO-10303-21;
HEADER;
FILE_DESCRIPTION (( 'STEP AP214' ),
    '1' );
FILE_NAME ('Micro_RME-040-2.STEP',
    '2021-09-01T23:20:34',
    ( '' ),
    ( '' ),
    'SwSTEP 2.0',
    'SolidWorks 2020',
    '' );
FILE_SCHEMA (( 'AUTOMOTIVE_DESIGN' ));
ENDSEC;

DATA;
#1 = CARTESIAN_POINT ( 'NONE',  ( -0.04750000000000064587, 0.0000000000000000000, 1.500000000000000222 ) ) ;
#2 = DIRECTION ( 'NONE',  ( -1.000000000000000000, 0.0000000000000000000, 1.224646799147353454E-16 ) ) ;
#3 = DIMENSIONAL_EXPONENTS ( 1.000000000000000000, 0.0000000000000000000, 0.0000000000000000000, 0.0000000000000000000, 0.0000000000000000000, 0.0000000000000000000, 0.0000000000000000000 ) ;
#4 = DIRECTION ( 'NONE',  ( 1.224646799147353454E-16, 0.0000000000000000000, 1.000000000000000000 ) ) ;
#5 = EDGE_LOOP ( 'NONE', ( #30, #162 ) ) ;
#6 = APPLICATION_PROTOCOL_DEFINITION ( 'draft international standard', 'automotive_design', 1998, #177 ) ;
#7 = ORIENTED_EDGE ( 'NONE', *, *, #40, .F. ) ;
#8 = EDGE_CURVE ( 'NONE', #142, #225, #83, .T. ) ;
#9 = FACE_OUTER_BOUND ( 'NONE', #102, .T. ) ;
#10 = AXIS2_PLACEMENT_3D ( 'NONE', #224, #219, #246 ) ;
#11 = ORIENTED_EDGE ( 'NONE', *, *, #28, .T. ) ;
#12 = EDGE_LOOP ( 'NONE', ( #141, #286, #228, #55 ) ) ;
#13 = CARTESIAN_POINT ( 'NONE',  ( 0.04750000000000064587, 6.735557395310483192E-18, 1.500000000000000222 ) ) ;
#14 = DIRECTION ( 'NONE',  ( -1.000000000000000000, 0.0000000000000000000, 0.0000000000000000000 ) ) ;
#15 = MANIFOLD_SOLID_BREP ( 'Cut-Revolve1', #79 ) ;
#16 = DIRECTION ( 'NONE',  ( -1.224646799147353454E-16, -0.0000000000000000000, -1.000000000000000000 ) ) ;
#17 = DIRECTION ( 'NONE',  ( 0.0000000000000000000, 0.0000000000000000000, -1.000000000000000000 ) ) ;
#18 = AXIS2_PLACEMENT_3D ( 'NONE', #91, #198, #179 ) ;
#19 = CARTESIAN_POINT ( 'NONE',  ( 0.06250000000000006939, 7.654042494670963708E-18, 0.3611429029701438975 ) ) ;
#20 = CARTESIAN_POINT ( 'NONE',  ( 1.469576158976824292E-17, 0.0000000000000000000, 0.1199999999999999956 ) ) ;
#21 = ADVANCED_FACE ( 'NONE', ( #264 ), #107, .T. ) ;
#22 = DIRECTION ( 'NONE',  ( 0.0000000000000000000, 0.0000000000000000000, -1.000000000000000000 ) ) ;
#23 = CYLINDRICAL_SURFACE ( 'NONE', #287, 0.01998000000000000123 ) ;
#24 = CARTESIAN_POINT ( 'NONE',  ( -0.06250000000000002776, 0.0000000000000000000, 1.500000000000000222 ) ) ;
#25 = VERTEX_POINT ( 'NONE', #234 ) ;
#26 = MECHANICAL_DESIGN_GEOMETRIC_PRESENTATION_REPRESENTATION (  '', ( #153 ), #124 ) ;
#27 =( NAMED_UNIT ( * ) SI_UNIT ( $, .STERADIAN. ) SOLID_ANGLE_UNIT ( ) );
#28 = EDGE_CURVE ( 'NONE', #208, #225, #213, .T. ) ;
#29 = FILL_AREA_STYLE ('',( #98 ) ) ;
#30 = ORIENTED_EDGE ( 'NONE', *, *, #164, .T. ) ;
#31 = SURFACE_SIDE_STYLE ('',( #281 ) ) ;
#32 = CIRCLE ( 'NONE', #277, 0.01998000000000000123 ) ;
#33 = ORIENTED_EDGE ( 'NONE', *, *, #260, .F. ) ;
#34 = DIRECTION ( 'NONE',  ( 0.0000000000000000000, 0.0000000000000000000, 1.000000000000000000 ) ) ;
#35 = EDGE_CURVE ( 'NONE', #120, #51, #44, .T. ) ;
#36 = DIRECTION ( 'NONE',  ( 1.000000000000000000, 0.0000000000000000000, 0.0000000000000000000 ) ) ;
#37 = AXIS2_PLACEMENT_3D ( 'NONE', #290, #61, #167 ) ;
#38 = SURFACE_STYLE_USAGE ( .BOTH. , #65 ) ;
#39 = AXIS2_PLACEMENT_3D ( 'NONE', #155, #250, #274 ) ;
#40 = EDGE_CURVE ( 'NONE', #51, #120, #214, .T. ) ;
#41 = SURFACE_STYLE_FILL_AREA ( #239 ) ;
#42 = DIMENSIONAL_EXPONENTS ( 1.000000000000000000, 0.0000000000000000000, 0.0000000000000000000, 0.0000000000000000000, 0.0000000000000000000, 0.0000000000000000000, 0.0000000000000000000 ) ;
#43 = DIRECTION ( 'NONE',  ( -1.000000000000000000, 0.0000000000000000000, 1.224646799147353454E-16 ) ) ;
#44 = CIRCLE ( 'NONE', #134, 0.04750000000000064587 ) ;
#45 = ADVANCED_FACE ( 'NONE', ( #81 ), #211, .T. ) ;
#46 = PLANE ( 'NONE',  #244 ) ;
#47 = LINE ( 'NONE', #24, #201 ) ;
#48 = LINE ( 'NONE', #180, #171 ) ;
#49 = PRODUCT_DEFINITION_FORMATION_WITH_SPECIFIED_SOURCE ( 'ANY', '', #181, .NOT_KNOWN. ) ;
#50 = FACE_OUTER_BOUND ( 'NONE', #5, .T. ) ;
#51 = VERTEX_POINT ( 'NONE', #13 ) ;
#52 =( NAMED_UNIT ( * ) PLANE_ANGLE_UNIT ( ) SI_UNIT ( $, .RADIAN. ) );
#53 = ORIENTED_EDGE ( 'NONE', *, *, #101, .F. ) ;
#54 =( CONVERSION_BASED_UNIT ( 'INCH', #259 ) LENGTH_UNIT ( ) NAMED_UNIT ( #276 ) );
#55 = ORIENTED_EDGE ( 'NONE', *, *, #28, .F. ) ;
#56 = ORIENTED_EDGE ( 'NONE', *, *, #248, .F. ) ;
#57 = EDGE_LOOP ( 'NONE', ( #160, #77, #123, #33 ) ) ;
#58 = FILL_AREA_STYLE_COLOUR ( '', #297 ) ;
#59 = EDGE_CURVE ( 'NONE', #192, #230, #68, .T. ) ;
#60 = ORIENTED_EDGE ( 'NONE', *, *, #35, .T. ) ;
#61 = DIRECTION ( 'NONE',  ( -0.0000000000000000000, -0.0000000000000000000, -1.000000000000000000 ) ) ;
#62 = AXIS2_PLACEMENT_3D ( 'NONE', #170, #147, #128 ) ;
#63 = PRESENTATION_STYLE_ASSIGNMENT (( #38 ) ) ;
#64 = CONICAL_SURFACE ( 'NONE', #157, 0.04750000000000064587, 0.7853981633974466137 ) ;
#65 = SURFACE_SIDE_STYLE ('',( #41 ) ) ;
#66 = CARTESIAN_POINT ( 'NONE',  ( 2.996520045758392741E-34, 0.0000000000000000000, 2.446844304696412268E-18 ) ) ;
#67 = DIRECTION ( 'NONE',  ( -1.224646799147353454E-16, -0.0000000000000000000, -1.000000000000000000 ) ) ;
#68 = CIRCLE ( 'NONE', #111, 0.06250000000000002776 ) ;
#69 = CARTESIAN_POINT ( 'NONE',  ( 0.01998000000000000817, 0.0000000000000000000, 0.1199999999999999956 ) ) ;
#70 = CYLINDRICAL_SURFACE ( 'NONE', #10, 0.06250000000000002776 ) ;
#71 = FACE_OUTER_BOUND ( 'NONE', #148, .T. ) ;
#72 = VECTOR ( 'NONE', #293, 39.37007874015748854 ) ;
#73 = EDGE_CURVE ( 'NONE', #285, #95, #169, .T. ) ;
#74 = CARTESIAN_POINT ( 'NONE',  ( 0.0000000000000000000, 0.0000000000000000000, 0.0000000000000000000 ) ) ;
#75 = DIRECTION ( 'NONE',  ( 1.000000000000000000, 0.0000000000000000000, 0.0000000000000000000 ) ) ;
#76 = ORIENTED_EDGE ( 'NONE', *, *, #204, .F. ) ;
#77 = ORIENTED_EDGE ( 'NONE', *, *, #269, .T. ) ;
#78 = ADVANCED_FACE ( 'NONE', ( #266 ), #64, .T. ) ;
#79 = CLOSED_SHELL ( 'NONE', ( #45, #288, #149, #243, #21, #129, #78, #298, #273, #236 ) ) ;
#80 = CIRCLE ( 'NONE', #39, 0.06250000000000002776 ) ;
#81 = FACE_OUTER_BOUND ( 'NONE', #137, .T. ) ;
#82 =( LENGTH_UNIT ( ) NAMED_UNIT ( * ) SI_UNIT ( $, .METRE. ) );
#83 = LINE ( 'NONE', #240, #242 ) ;
#84 = DIRECTION ( 'NONE',  ( 1.000000000000000000, 0.0000000000000000000, 0.0000000000000000000 ) ) ;
#85 = AXIS2_PLACEMENT_3D ( 'NONE', #202, #152, #156 ) ;
#86 = DIRECTION ( 'NONE',  ( 1.000000000000000000, 0.0000000000000000000, -0.0000000000000000000 ) ) ;
#87 = PLANE ( 'NONE',  #196 ) ;
#88 = EDGE_CURVE ( 'NONE', #142, #25, #106, .T. ) ;
#89 = APPLICATION_CONTEXT ( 'automotive_design' ) ;
#90 = CARTESIAN_POINT ( 'NONE',  ( 0.0000000000000000000, 0.0000000000000000000, 1.500000000000000222 ) ) ;
#91 = CARTESIAN_POINT ( 'NONE',  ( 1.469576158976824292E-17, 0.0000000000000000000, 0.1199999999999999956 ) ) ;
#92 = CARTESIAN_POINT ( 'NONE',  ( 0.01998000000000000817, 0.0000000000000000000, 0.1199999999999999956 ) ) ;
#93 = ADVANCED_BREP_SHAPE_REPRESENTATION ( 'Micro_RME-040-2', ( #15, #292 ), #168 ) ;
#94 = AXIS2_PLACEMENT_3D ( 'NONE', #183, #4, #115 ) ;
#95 = VERTEX_POINT ( 'NONE', #173 ) ;
#96 = DIRECTION ( 'NONE',  ( 0.0000000000000000000, 0.0000000000000000000, 1.000000000000000000 ) ) ;
#97 = ORIENTED_EDGE ( 'NONE', *, *, #8, .T. ) ;
#98 = FILL_AREA_STYLE_COLOUR ( '', #238 ) ;
#99 = VECTOR ( 'NONE', #126, 39.37007874015748143 ) ;
#100 = ORIENTED_EDGE ( 'NONE', *, *, #144, .T. ) ;
#101 = EDGE_CURVE ( 'NONE', #51, #230, #114, .T. ) ;
#102 = EDGE_LOOP ( 'NONE', ( #278, #138, #257, #11 ) ) ;
#103 =( NAMED_UNIT ( * ) SI_UNIT ( $, .STERADIAN. ) SOLID_ANGLE_UNIT ( ) );
#104 = ORIENTED_EDGE ( 'NONE', *, *, #164, .F. ) ;
#105 = EDGE_LOOP ( 'NONE', ( #7, #253, #184, #186 ) ) ;
#106 = LINE ( 'NONE', #195, #221 ) ;
#107 = CYLINDRICAL_SURFACE ( 'NONE', #37, 0.06250000000000002776 ) ;
#108 = DIRECTION ( 'NONE',  ( -1.224646799147353454E-16, -0.0000000000000000000, -1.000000000000000000 ) ) ;
#109 = DIRECTION ( 'NONE',  ( 1.000000000000000000, 0.0000000000000000000, 0.0000000000000000000 ) ) ;
#110 = CARTESIAN_POINT ( 'NONE',  ( -0.04750000000000064587, 0.0000000000000000000, 1.500000000000000222 ) ) ;
#111 = AXIS2_PLACEMENT_3D ( 'NONE', #193, #265, #36 ) ;
#112 = PRODUCT_DEFINITION ( 'UNKNOWN', '', #49, #150 ) ;
#113 = CARTESIAN_POINT ( 'NONE',  ( 0.0000000000000000000, 0.0000000000000000000, 0.0000000000000000000 ) ) ;
#114 = LINE ( 'NONE', #275, #72 ) ;
#115 = DIRECTION ( 'NONE',  ( 1.000000000000000000, 0.0000000000000000000, 0.0000000000000000000 ) ) ;
#116 = ORIENTED_EDGE ( 'NONE', *, *, #223, .T. ) ;
#117 = MECHANICAL_DESIGN_GEOMETRIC_PRESENTATION_REPRESENTATION (  '', ( #226 ), #271 ) ;
#118 = AXIS2_PLACEMENT_3D ( 'NONE', #194, #125, #263 ) ;
#119 =( LENGTH_UNIT ( ) NAMED_UNIT ( * ) SI_UNIT ( $, .METRE. ) );
#120 = VERTEX_POINT ( 'NONE', #110 ) ;
#121 = ORIENTED_EDGE ( 'NONE', *, *, #88, .F. ) ;
#122 =( LENGTH_UNIT ( ) NAMED_UNIT ( * ) SI_UNIT ( $, .METRE. ) );
#123 = ORIENTED_EDGE ( 'NONE', *, *, #233, .F. ) ;
#124 =( GEOMETRIC_REPRESENTATION_CONTEXT ( 3 ) GLOBAL_UNCERTAINTY_ASSIGNED_CONTEXT ( ( #294 ) ) GLOBAL_UNIT_ASSIGNED_CONTEXT ( ( #54, #52, #27 ) ) REPRESENTATION_CONTEXT ( 'NONE', 'WORKASPACE' ) );
#125 = DIRECTION ( 'NONE',  ( 0.0000000000000000000, 0.0000000000000000000, 1.000000000000000000 ) ) ;
#126 = DIRECTION ( 'NONE',  ( -1.224646799147353454E-16, -0.0000000000000000000, -1.000000000000000000 ) ) ;
#127 = CONICAL_SURFACE ( 'NONE', #85, 0.04750000000000064587, 0.7853981633974466137 ) ;
#128 = DIRECTION ( 'NONE',  ( 1.000000000000000000, 0.0000000000000000000, 0.0000000000000000000 ) ) ;
#129 = ADVANCED_FACE ( 'NONE', ( #71 ), #87, .T. ) ;
#130 = CARTESIAN_POINT ( 'NONE',  ( 0.0000000000000000000, 0.0000000000000000000, 1.485000000000000764 ) ) ;
#131 = DIRECTION ( 'NONE',  ( 1.000000000000000000, 0.0000000000000000000, -0.0000000000000000000 ) ) ;
#132 = DIRECTION ( 'NONE',  ( -0.0000000000000000000, -0.0000000000000000000, -1.000000000000000000 ) ) ;
#133 = DIRECTION ( 'NONE',  ( -0.0000000000000000000, -0.0000000000000000000, -1.000000000000000000 ) ) ;
#134 = AXIS2_PLACEMENT_3D ( 'NONE', #197, #34, #84 ) ;
#135 = DIRECTION ( 'NONE',  ( 0.0000000000000000000, 0.0000000000000000000, 1.000000000000000000 ) ) ;
#136 = PRODUCT_DEFINITION_SHAPE ( 'NONE', 'NONE',  #112 ) ;
#137 = EDGE_LOOP ( 'NONE', ( #207, #158, #104, #121 ) ) ;
#138 = ORIENTED_EDGE ( 'NONE', *, *, #223, .F. ) ;
#139 = CONICAL_SURFACE ( 'NONE', #256, 0.01997999999999999776, 0.1745329251994338637 ) ;
#140 = PRESENTATION_STYLE_ASSIGNMENT (( #284 ) ) ;
#141 = ORIENTED_EDGE ( 'NONE', *, *, #269, .F. ) ;
#142 = VERTEX_POINT ( 'NONE', #270 ) ;
#143 = CIRCLE ( 'NONE', #18, 0.01997999999999999776 ) ;
#144 = EDGE_CURVE ( 'NONE', #120, #192, #268, .T. ) ;
#145 = CARTESIAN_POINT ( 'NONE',  ( 0.0000000000000000000, 0.0000000000000000000, 0.0000000000000000000 ) ) ;
#146 = CIRCLE ( 'NONE', #163, 0.01997999999999999776 ) ;
#147 = DIRECTION ( 'NONE',  ( -1.224646799147353454E-16, -0.0000000000000000000, -1.000000000000000000 ) ) ;
#148 = EDGE_LOOP ( 'NONE', ( #60, #210 ) ) ;
#149 = ADVANCED_FACE ( 'NONE', ( #220 ), #127, .T. ) ;
#150 = PRODUCT_DEFINITION_CONTEXT ( 'detailed design', #177, 'design' ) ;
#151 = DIRECTION ( 'NONE',  ( -1.224646799147353454E-16, -0.0000000000000000000, -1.000000000000000000 ) ) ;
#152 = DIRECTION ( 'NONE',  ( 0.0000000000000000000, 0.0000000000000000000, -1.000000000000000000 ) ) ;
#153 = STYLED_ITEM ( 'NONE', ( #140 ), #93 ) ;
#154 = DIRECTION ( 'NONE',  ( 0.1736481776669313581, 0.0000000000000000000, 0.9848077530122077983 ) ) ;
#155 = CARTESIAN_POINT ( 'NONE',  ( 4.422725001571700136E-17, 0.0000000000000000000, 0.3611429029701438975 ) ) ;
#156 = DIRECTION ( 'NONE',  ( -1.000000000000000000, 0.0000000000000000000, 0.0000000000000000000 ) ) ;
#157 = AXIS2_PLACEMENT_3D ( 'NONE', #212, #17, #14 ) ;
#158 = ORIENTED_EDGE ( 'NONE', *, *, #73, .T. ) ;
#159 = LENGTH_MEASURE_WITH_UNIT ( LENGTH_MEASURE( 0.02539999999999999897 ), #119 );
#160 = ORIENTED_EDGE ( 'NONE', *, *, #59, .T. ) ;
#161 =( CONVERSION_BASED_UNIT ( 'INCH', #159 ) LENGTH_UNIT ( ) NAMED_UNIT ( #42 ) );
#162 = ORIENTED_EDGE ( 'NONE', *, *, #176, .T. ) ;
#163 = AXIS2_PLACEMENT_3D ( 'NONE', #20, #67, #175 ) ;
#164 = EDGE_CURVE ( 'NONE', #25, #95, #32, .T. ) ;
#165 = DIRECTION ( 'NONE',  ( 1.224646799147353454E-16, 0.0000000000000000000, 1.000000000000000000 ) ) ;
#166 = ORIENTED_EDGE ( 'NONE', *, *, #88, .T. ) ;
#167 = DIRECTION ( 'NONE',  ( -1.000000000000000000, 0.0000000000000000000, 0.0000000000000000000 ) ) ;
#168 =( GEOMETRIC_REPRESENTATION_CONTEXT ( 3 ) GLOBAL_UNCERTAINTY_ASSIGNED_CONTEXT ( ( #199 ) ) GLOBAL_UNIT_ASSIGNED_CONTEXT ( ( #161, #190, #254 ) ) REPRESENTATION_CONTEXT ( 'NONE', 'WORKASPACE' ) );
#169 = LINE ( 'NONE', #215, #99 ) ;
#170 = CARTESIAN_POINT ( 'NONE',  ( 4.422725001571700136E-17, 0.0000000000000000000, 0.3611429029701438975 ) ) ;
#171 = VECTOR ( 'NONE', #133, 39.37007874015748143 ) ;
#172 = PRODUCT_RELATED_PRODUCT_CATEGORY ( 'part', '', ( #181 ) ) ;
#173 = CARTESIAN_POINT ( 'NONE',  ( 0.01998000000000000123, 2.446844304696411883E-18, 0.0000000000000000000 ) ) ;
#174 = DIRECTION ( 'NONE',  ( 0.0000000000000000000, 0.0000000000000000000, 1.000000000000000000 ) ) ;
#175 = DIRECTION ( 'NONE',  ( -1.000000000000000000, 0.0000000000000000000, 0.0000000000000000000 ) ) ;
#176 = EDGE_CURVE ( 'NONE', #95, #25, #206, .T. ) ;
#177 = APPLICATION_CONTEXT ( 'automotive_design' ) ;
#178 = LINE ( 'NONE', #69, #262 ) ;
#179 = DIRECTION ( 'NONE',  ( -1.000000000000000000, 0.0000000000000000000, 0.0000000000000000000 ) ) ;
#180 = CARTESIAN_POINT ( 'NONE',  ( 0.06250000000000002776, 7.654042494670959086E-18, 1.500000000000000222 ) ) ;
#181 = PRODUCT ( 'Micro_RME-040-2', 'Micro_RME-040-2', '', ( #205 ) ) ;
#182 = CARTESIAN_POINT ( 'NONE',  ( 1.469576158976824292E-17, 0.0000000000000000000, 0.1199999999999999956 ) ) ;
#183 = CARTESIAN_POINT ( 'NONE',  ( 1.469576158976824292E-17, 0.0000000000000000000, 0.1199999999999999956 ) ) ;
#184 = ORIENTED_EDGE ( 'NONE', *, *, #59, .F. ) ;
#185 = APPLICATION_PROTOCOL_DEFINITION ( 'draft international standard', 'automotive_design', 1998, #89 ) ;
#186 = ORIENTED_EDGE ( 'NONE', *, *, #144, .F. ) ;
#187 = SHAPE_DEFINITION_REPRESENTATION ( #136, #93 ) ;
#188 = EDGE_LOOP ( 'NONE', ( #53, #280, #100, #76 ) ) ;
#189 = AXIS2_PLACEMENT_3D ( 'NONE', #145, #16, #237 ) ;
#190 =( NAMED_UNIT ( * ) PLANE_ANGLE_UNIT ( ) SI_UNIT ( $, .RADIAN. ) );
#191 = EDGE_LOOP ( 'NONE', ( #209, #97, #252, #56 ) ) ;
#192 = VERTEX_POINT ( 'NONE', #295 ) ;
#193 = CARTESIAN_POINT ( 'NONE',  ( 0.0000000000000000000, 0.0000000000000000000, 1.485000000000000764 ) ) ;
#194 = CARTESIAN_POINT ( 'NONE',  ( 0.0000000000000000000, 0.0000000000000000000, 1.500000000000000222 ) ) ;
#195 = CARTESIAN_POINT ( 'NONE',  ( -0.01998000000000000123, 0.0000000000000000000, 2.446844304696412268E-18 ) ) ;
#196 = AXIS2_PLACEMENT_3D ( 'NONE', #90, #174, #86 ) ;
#197 = CARTESIAN_POINT ( 'NONE',  ( 0.0000000000000000000, 0.0000000000000000000, 1.500000000000000222 ) ) ;
#198 = DIRECTION ( 'NONE',  ( -1.224646799147353454E-16, -0.0000000000000000000, -1.000000000000000000 ) ) ;
#199 = UNCERTAINTY_MEASURE_WITH_UNIT (LENGTH_MEASURE( 1.000000000000000082E-05 ), #161, 'distance_accuracy_value', 'NONE');
#200 = DIRECTION ( 'NONE',  ( -1.000000000000000000, 0.0000000000000000000, 1.224646799147353454E-16 ) ) ;
#201 = VECTOR ( 'NONE', #132, 39.37007874015748143 ) ;
#202 = CARTESIAN_POINT ( 'NONE',  ( 0.0000000000000000000, 0.0000000000000000000, 1.500000000000000222 ) ) ;
#203 = DIRECTION ( 'NONE',  ( -1.224646799147353454E-16, -0.0000000000000000000, -1.000000000000000000 ) ) ;
#204 = EDGE_CURVE ( 'NONE', #230, #192, #227, .T. ) ;
#205 = PRODUCT_CONTEXT ( 'NONE', #89, 'mechanical' ) ;
#206 = CIRCLE ( 'NONE', #299, 0.01998000000000000123 ) ;
#207 = ORIENTED_EDGE ( 'NONE', *, *, #216, .T. ) ;
#208 = VERTEX_POINT ( 'NONE', #19 ) ;
#209 = ORIENTED_EDGE ( 'NONE', *, *, #216, .F. ) ;
#210 = ORIENTED_EDGE ( 'NONE', *, *, #40, .T. ) ;
#211 = CYLINDRICAL_SURFACE ( 'NONE', #189, 0.01998000000000000123 ) ;
#212 = CARTESIAN_POINT ( 'NONE',  ( 0.0000000000000000000, 0.0000000000000000000, 1.500000000000000222 ) ) ;
#213 = CIRCLE ( 'NONE', #62, 0.06250000000000002776 ) ;
#214 = CIRCLE ( 'NONE', #118, 0.04750000000000064587 ) ;
#215 = CARTESIAN_POINT ( 'NONE',  ( 0.01998000000000000123, 2.446844304696411883E-18, -2.446844304696412268E-18 ) ) ;
#216 = EDGE_CURVE ( 'NONE', #142, #285, #143, .T. ) ;
#217 = LENGTH_MEASURE_WITH_UNIT ( LENGTH_MEASURE( 0.02539999999999999897 ), #82 );
#218 = CARTESIAN_POINT ( 'NONE',  ( 2.996520045758392741E-34, 0.0000000000000000000, 2.446844304696412268E-18 ) ) ;
#219 = DIRECTION ( 'NONE',  ( -0.0000000000000000000, -0.0000000000000000000, -1.000000000000000000 ) ) ;
#220 = FACE_OUTER_BOUND ( 'NONE', #105, .T. ) ;
#221 = VECTOR ( 'NONE', #291, 39.37007874015748143 ) ;
#222 = FACE_OUTER_BOUND ( 'NONE', #229, .T. ) ;
#223 = EDGE_CURVE ( 'NONE', #285, #142, #146, .T. ) ;
#224 = CARTESIAN_POINT ( 'NONE',  ( 0.0000000000000000000, 0.0000000000000000000, 1.500000000000000222 ) ) ;
#225 = VERTEX_POINT ( 'NONE', #245 ) ;
#226 = STYLED_ITEM ( 'NONE', ( #63 ), #15 ) ;
#227 = CIRCLE ( 'NONE', #232, 0.06250000000000002776 ) ;
#228 = ORIENTED_EDGE ( 'NONE', *, *, #260, .T. ) ;
#229 = EDGE_LOOP ( 'NONE', ( #258, #116, #166, #283 ) ) ;
#230 = VERTEX_POINT ( 'NONE', #272 ) ;
#231 = PRESENTATION_LAYER_ASSIGNMENT (  '', '', ( #226 ) ) ;
#232 = AXIS2_PLACEMENT_3D ( 'NONE', #130, #22, #109 ) ;
#233 = EDGE_CURVE ( 'NONE', #225, #208, #80, .T. ) ;
#234 = CARTESIAN_POINT ( 'NONE',  ( -0.01998000000000000123, 0.0000000000000000000, 4.893688609392824536E-18 ) ) ;
#235 =( NAMED_UNIT ( * ) PLANE_ANGLE_UNIT ( ) SI_UNIT ( $, .RADIAN. ) );
#236 = ADVANCED_FACE ( 'NONE', ( #50 ), #46, .F. ) ;
#237 = DIRECTION ( 'NONE',  ( -1.000000000000000000, 0.0000000000000000000, 1.224646799147353454E-16 ) ) ;
#238 = COLOUR_RGB ( '',0.7921568627450980005, 0.8196078431372548767, 0.9333333333333333481 ) ;
#239 = FILL_AREA_STYLE ('',( #58 ) ) ;
#240 = CARTESIAN_POINT ( 'NONE',  ( -0.01997999999999998388, 2.446844304696411498E-18, 0.1199999999999999956 ) ) ;
#241 = DIRECTION ( 'NONE',  ( -0.7071067811865462405, 0.0000000000000000000, -0.7071067811865486830 ) ) ;
#242 = VECTOR ( 'NONE', #289, 39.37007874015747433 ) ;
#243 = ADVANCED_FACE ( 'NONE', ( #296 ), #70, .T. ) ;
#244 = AXIS2_PLACEMENT_3D ( 'NONE', #247, #135, #131 ) ;
#245 = CARTESIAN_POINT ( 'NONE',  ( -0.06249999999999997918, 0.0000000000000000000, 0.3611429029701438975 ) ) ;
#246 = DIRECTION ( 'NONE',  ( -1.000000000000000000, 0.0000000000000000000, 0.0000000000000000000 ) ) ;
#247 = CARTESIAN_POINT ( 'NONE',  ( 0.0000000000000000000, 0.0000000000000000000, 0.0000000000000000000 ) ) ;
#248 = EDGE_CURVE ( 'NONE', #285, #208, #178, .T. ) ;
#249 = CONICAL_SURFACE ( 'NONE', #94, 0.01997999999999999776, 0.1745329251994338637 ) ;
#250 = DIRECTION ( 'NONE',  ( -1.224646799147353454E-16, -0.0000000000000000000, -1.000000000000000000 ) ) ;
#251 = DIRECTION ( 'NONE',  ( 1.000000000000000000, 0.0000000000000000000, 0.0000000000000000000 ) ) ;
#252 = ORIENTED_EDGE ( 'NONE', *, *, #233, .T. ) ;
#253 = ORIENTED_EDGE ( 'NONE', *, *, #101, .T. ) ;
#254 =( NAMED_UNIT ( * ) SI_UNIT ( $, .STERADIAN. ) SOLID_ANGLE_UNIT ( ) );
#255 = PRESENTATION_LAYER_ASSIGNMENT (  '', '', ( #153 ) ) ;
#256 = AXIS2_PLACEMENT_3D ( 'NONE', #182, #165, #75 ) ;
#257 = ORIENTED_EDGE ( 'NONE', *, *, #248, .T. ) ;
#258 = ORIENTED_EDGE ( 'NONE', *, *, #73, .F. ) ;
#259 = LENGTH_MEASURE_WITH_UNIT ( LENGTH_MEASURE( 0.02539999999999999897 ), #122 );
#260 = EDGE_CURVE ( 'NONE', #192, #225, #47, .T. ) ;
#261 =( CONVERSION_BASED_UNIT ( 'INCH', #217 ) LENGTH_UNIT ( ) NAMED_UNIT ( #3 ) );
#262 = VECTOR ( 'NONE', #154, 39.37007874015748143 ) ;
#263 = DIRECTION ( 'NONE',  ( 1.000000000000000000, 0.0000000000000000000, 0.0000000000000000000 ) ) ;
#264 = FACE_OUTER_BOUND ( 'NONE', #12, .T. ) ;
#265 = DIRECTION ( 'NONE',  ( 0.0000000000000000000, 0.0000000000000000000, -1.000000000000000000 ) ) ;
#266 = FACE_OUTER_BOUND ( 'NONE', #188, .T. ) ;
#267 = UNCERTAINTY_MEASURE_WITH_UNIT (LENGTH_MEASURE( 1.000000000000000082E-05 ), #261, 'distance_accuracy_value', 'NONE');
#268 = LINE ( 'NONE', #1, #282 ) ;
#269 = EDGE_CURVE ( 'NONE', #230, #208, #48, .T. ) ;
#270 = CARTESIAN_POINT ( 'NONE',  ( -0.01997999999999998388, 5.050443399683686447E-18, 0.1199999999999999956 ) ) ;
#271 =( GEOMETRIC_REPRESENTATION_CONTEXT ( 3 ) GLOBAL_UNCERTAINTY_ASSIGNED_CONTEXT ( ( #267 ) ) GLOBAL_UNIT_ASSIGNED_CONTEXT ( ( #261, #235, #103 ) ) REPRESENTATION_CONTEXT ( 'NONE', 'WORKASPACE' ) );
#272 = CARTESIAN_POINT ( 'NONE',  ( 0.06250000000000002776, 7.654042494670959086E-18, 1.485000000000000764 ) ) ;
#273 = ADVANCED_FACE ( 'NONE', ( #222 ), #23, .T. ) ;
#274 = DIRECTION ( 'NONE',  ( 1.000000000000000000, 0.0000000000000000000, 0.0000000000000000000 ) ) ;
#275 = CARTESIAN_POINT ( 'NONE',  ( 0.04750000000000064587, 5.817072295950006528E-18, 1.500000000000000222 ) ) ;
#276 = DIMENSIONAL_EXPONENTS ( 1.000000000000000000, 0.0000000000000000000, 0.0000000000000000000, 0.0000000000000000000, 0.0000000000000000000, 0.0000000000000000000, 0.0000000000000000000 ) ;
#277 = AXIS2_PLACEMENT_3D ( 'NONE', #66, #151, #43 ) ;
#278 = ORIENTED_EDGE ( 'NONE', *, *, #8, .F. ) ;
#279 = FACE_OUTER_BOUND ( 'NONE', #191, .T. ) ;
#280 = ORIENTED_EDGE ( 'NONE', *, *, #35, .F. ) ;
#281 = SURFACE_STYLE_FILL_AREA ( #29 ) ;
#282 = VECTOR ( 'NONE', #241, 39.37007874015748854 ) ;
#283 = ORIENTED_EDGE ( 'NONE', *, *, #176, .F. ) ;
#284 = SURFACE_STYLE_USAGE ( .BOTH. , #31 ) ;
#285 = VERTEX_POINT ( 'NONE', #92 ) ;
#286 = ORIENTED_EDGE ( 'NONE', *, *, #204, .T. ) ;
#287 = AXIS2_PLACEMENT_3D ( 'NONE', #113, #203, #2 ) ;
#288 = ADVANCED_FACE ( 'NONE', ( #279 ), #249, .T. ) ;
#289 = DIRECTION ( 'NONE',  ( -0.1736481776669311639, 2.126576849575783008E-17, 0.9848077530122080203 ) ) ;
#290 = CARTESIAN_POINT ( 'NONE',  ( 0.0000000000000000000, 0.0000000000000000000, 1.500000000000000222 ) ) ;
#291 = DIRECTION ( 'NONE',  ( -1.224646799147353454E-16, -0.0000000000000000000, -1.000000000000000000 ) ) ;
#292 = AXIS2_PLACEMENT_3D ( 'NONE', #74, #96, #251 ) ;
#293 = DIRECTION ( 'NONE',  ( 0.7071067811865462405, 8.659560562354916834E-17, -0.7071067811865486830 ) ) ;
#294 = UNCERTAINTY_MEASURE_WITH_UNIT (LENGTH_MEASURE( 1.000000000000000082E-05 ), #54, 'distance_accuracy_value', 'NONE');
#295 = CARTESIAN_POINT ( 'NONE',  ( -0.06250000000000002776, 0.0000000000000000000, 1.485000000000000764 ) ) ;
#296 = FACE_OUTER_BOUND ( 'NONE', #57, .T. ) ;
#297 = COLOUR_RGB ( '',0.7921568627450980005, 0.8196078431372548767, 0.9333333333333333481 ) ;
#298 = ADVANCED_FACE ( 'NONE', ( #9 ), #139, .T. ) ;
#299 = AXIS2_PLACEMENT_3D ( 'NONE', #218, #108, #200 ) ;
ENDSEC;
END-ISO-10303-21;
