ISO-10303-21;
HEADER;
FILE_DESCRIPTION (( 'STEP AP214' ),
    '1' );
FILE_NAME ('Micro_GEM-031-2.STEP',
    '2021-09-01T18:45:01',
    ( '' ),
    ( '' ),
    'SwSTEP 2.0',
    'SolidWorks 2020',
    '' );
FILE_SCHEMA (( 'AUTOMOTIVE_DESIGN' ));
ENDSEC;

DATA;
#1 = AXIS2_PLACEMENT_3D ( 'NONE', #94, #286, #53 ) ;
#2 = ORIENTED_EDGE ( 'NONE', *, *, #160, .F. ) ;
#3 =( NAMED_UNIT ( * ) SI_UNIT ( $, .STERADIAN. ) SOLID_ANGLE_UNIT ( ) );
#4 = ORIENTED_EDGE ( 'NONE', *, *, #107, .T. ) ;
#5 = EDGE_CURVE ( 'NONE', #181, #96, #9, .T. ) ;
#6 = MECHANICAL_DESIGN_GEOMETRIC_PRESENTATION_REPRESENTATION (  '', ( #209 ), #50 ) ;
#7 = ORIENTED_EDGE ( 'NONE', *, *, #172, .F. ) ;
#8 = CARTESIAN_POINT ( 'NONE',  ( 0.01558440000000001387, 0.0000000000000000000, 0.07800000000000009703 ) ) ;
#9 = CIRCLE ( 'NONE', #196, 0.04750000000000064587 ) ;
#10 = CARTESIAN_POINT ( 'NONE',  ( 0.01558440000000001387, 0.0000000000000000000, 0.07800000000000009703 ) ) ;
#11 = PRESENTATION_STYLE_ASSIGNMENT (( #262 ) ) ;
#12 = DIRECTION ( 'NONE',  ( 1.000000000000000000, 0.0000000000000000000, 0.0000000000000000000 ) ) ;
#13 = ADVANCED_FACE ( 'NONE', ( #169 ), #218, .T. ) ;
#14 = DIRECTION ( 'NONE',  ( 1.000000000000000000, 0.0000000000000000000, 0.0000000000000000000 ) ) ;
#15 = DIRECTION ( 'NONE',  ( -1.224646799147353700E-16, -0.0000000000000000000, -1.000000000000000000 ) ) ;
#16 = DIRECTION ( 'NONE',  ( 0.0000000000000000000, 0.0000000000000000000, 1.000000000000000000 ) ) ;
#17 = VECTOR ( 'NONE', #179, 39.37007874015748854 ) ;
#18 = CARTESIAN_POINT ( 'NONE',  ( 0.04750000000000064587, 6.735557395310483192E-18, 1.500000000000000222 ) ) ;
#19 = CARTESIAN_POINT ( 'NONE',  ( 0.04750000000000064587, 5.817072295950006528E-18, 1.500000000000000222 ) ) ;
#20 = VERTEX_POINT ( 'NONE', #195 ) ;
#21 = AXIS2_PLACEMENT_3D ( 'NONE', #98, #214, #192 ) ;
#22 = CIRCLE ( 'NONE', #184, 0.01558440000000001387 ) ;
#23 = PRODUCT_DEFINITION_SHAPE ( 'NONE', 'NONE',  #54 ) ;
#24 = EDGE_CURVE ( 'NONE', #298, #281, #287, .T. ) ;
#25 = ORIENTED_EDGE ( 'NONE', *, *, #224, .F. ) ;
#26 = AXIS2_PLACEMENT_3D ( 'NONE', #288, #295, #128 ) ;
#27 = DIRECTION ( 'NONE',  ( 1.000000000000000000, 0.0000000000000000000, 0.0000000000000000000 ) ) ;
#28 = CLOSED_SHELL ( 'NONE', ( #216, #39, #61, #13, #278, #248, #228, #140, #146, #87 ) ) ;
#29 = DIRECTION ( 'NONE',  ( 1.000000000000000000, 0.0000000000000000000, 0.0000000000000000000 ) ) ;
#30 = SURFACE_STYLE_USAGE ( .BOTH. , #232 ) ;
#31 = CARTESIAN_POINT ( 'NONE',  ( -0.06250000000000002776, 0.0000000000000000000, 1.485000000000000764 ) ) ;
#32 = DIRECTION ( 'NONE',  ( 0.1736481776669314414, 0.0000000000000000000, 0.9848077530122077983 ) ) ;
#33 = VERTEX_POINT ( 'NONE', #100 ) ;
#34 = DIRECTION ( 'NONE',  ( -0.0000000000000000000, -0.0000000000000000000, -1.000000000000000000 ) ) ;
#35 =( NAMED_UNIT ( * ) PLANE_ANGLE_UNIT ( ) SI_UNIT ( $, .RADIAN. ) );
#36 = CONICAL_SURFACE ( 'NONE', #92, 0.04750000000000064587, 0.7853981633974466137 ) ;
#37 = CARTESIAN_POINT ( 'NONE',  ( 0.0000000000000000000, 0.0000000000000000000, 1.500000000000000222 ) ) ;
#38 = FACE_OUTER_BOUND ( 'NONE', #247, .T. ) ;
#39 = ADVANCED_FACE ( 'NONE', ( #93 ), #263, .T. ) ;
#40 = FACE_OUTER_BOUND ( 'NONE', #156, .T. ) ;
#41 = CARTESIAN_POINT ( 'NONE',  ( -0.01558440000000000866, 0.0000000000000000000, 1.908538557663203017E-18 ) ) ;
#42 = FACE_OUTER_BOUND ( 'NONE', #75, .T. ) ;
#43 = ORIENTED_EDGE ( 'NONE', *, *, #132, .F. ) ;
#44 = ORIENTED_EDGE ( 'NONE', *, *, #180, .F. ) ;
#45 = COLOUR_RGB ( '',0.7921568627450980005, 0.8196078431372548767, 0.9333333333333333481 ) ;
#46 = ORIENTED_EDGE ( 'NONE', *, *, #64, .T. ) ;
#47 = ORIENTED_EDGE ( 'NONE', *, *, #242, .T. ) ;
#48 = DIRECTION ( 'NONE',  ( -1.000000000000000000, 0.0000000000000000000, 0.0000000000000000000 ) ) ;
#49 = LENGTH_MEASURE_WITH_UNIT ( LENGTH_MEASURE( 0.02539999999999999897 ), #71 );
#50 =( GEOMETRIC_REPRESENTATION_CONTEXT ( 3 ) GLOBAL_UNCERTAINTY_ASSIGNED_CONTEXT ( ( #164 ) ) GLOBAL_UNIT_ASSIGNED_CONTEXT ( ( #101, #134, #187 ) ) REPRESENTATION_CONTEXT ( 'NONE', 'WORKASPACE' ) );
#51 = FILL_AREA_STYLE ('',( #257 ) ) ;
#52 = FACE_OUTER_BOUND ( 'NONE', #206, .T. ) ;
#53 = DIRECTION ( 'NONE',  ( -1.000000000000000000, 0.0000000000000000000, 1.224646799147353700E-16 ) ) ;
#54 = PRODUCT_DEFINITION ( 'UNKNOWN', '', #256, #233 ) ;
#55 = CIRCLE ( 'NONE', #275, 0.04750000000000064587 ) ;
#56 = DIRECTION ( 'NONE',  ( -1.000000000000000000, 0.0000000000000000000, 0.0000000000000000000 ) ) ;
#57 = CARTESIAN_POINT ( 'NONE',  ( -0.06250000000000002776, 0.0000000000000000000, 1.500000000000000222 ) ) ;
#58 = LINE ( 'NONE', #85, #119 ) ;
#59 = VECTOR ( 'NONE', #103, 39.37007874015748143 ) ;
#60 = CYLINDRICAL_SURFACE ( 'NONE', #26, 0.01558440000000000866 ) ;
#61 = ADVANCED_FACE ( 'NONE', ( #52 ), #36, .T. ) ;
#62 = DIRECTION ( 'NONE',  ( -1.224646799147353700E-16, -0.0000000000000000000, -1.000000000000000000 ) ) ;
#63 = CARTESIAN_POINT ( 'NONE',  ( -0.01558440000000001387, 0.0000000000000000000, 3.817077115326407575E-18 ) ) ;
#64 = EDGE_CURVE ( 'NONE', #114, #296, #150, .T. ) ;
#65 = PLANE ( 'NONE',  #66 ) ;
#66 = AXIS2_PLACEMENT_3D ( 'NONE', #129, #260, #115 ) ;
#67 = ORIENTED_EDGE ( 'NONE', *, *, #292, .F. ) ;
#68 = ORIENTED_EDGE ( 'NONE', *, *, #5, .T. ) ;
#69 = ORIENTED_EDGE ( 'NONE', *, *, #130, .F. ) ;
#70 = EDGE_LOOP ( 'NONE', ( #67, #46, #157, #7 ) ) ;
#71 =( LENGTH_UNIT ( ) NAMED_UNIT ( * ) SI_UNIT ( $, .METRE. ) );
#72 = ORIENTED_EDGE ( 'NONE', *, *, #111, .T. ) ;
#73 = FACE_OUTER_BOUND ( 'NONE', #70, .T. ) ;
#74 = AXIS2_PLACEMENT_3D ( 'NONE', #202, #174, #153 ) ;
#75 = EDGE_LOOP ( 'NONE', ( #236, #68 ) ) ;
#76 = DIRECTION ( 'NONE',  ( 0.0000000000000000000, 0.0000000000000000000, -1.000000000000000000 ) ) ;
#77 = ORIENTED_EDGE ( 'NONE', *, *, #82, .T. ) ;
#78 = CYLINDRICAL_SURFACE ( 'NONE', #251, 0.06250000000000002776 ) ;
#79 = ORIENTED_EDGE ( 'NONE', *, *, #64, .F. ) ;
#80 = CARTESIAN_POINT ( 'NONE',  ( -0.04750000000000064587, 0.0000000000000000000, 1.500000000000000222 ) ) ;
#81 = SHAPE_DEFINITION_REPRESENTATION ( #23, #299 ) ;
#82 = EDGE_CURVE ( 'NONE', #298, #20, #241, .T. ) ;
#83 = CIRCLE ( 'NONE', #227, 0.06250000000000002776 ) ;
#84 = CIRCLE ( 'NONE', #197, 0.06250000000000002776 ) ;
#85 = CARTESIAN_POINT ( 'NONE',  ( -0.04750000000000064587, 0.0000000000000000000, 1.500000000000000222 ) ) ;
#86 = CARTESIAN_POINT ( 'NONE',  ( -0.01558439999999999652, 1.908538557663201862E-18, 0.07800000000000009703 ) ) ;
#87 = ADVANCED_FACE ( 'NONE', ( #230 ), #186, .F. ) ;
#88 = DIRECTION ( 'NONE',  ( -1.224646799147353700E-16, -0.0000000000000000000, -1.000000000000000000 ) ) ;
#89 = MANIFOLD_SOLID_BREP ( 'Cut-Revolve1', #28 ) ;
#90 = AXIS2_PLACEMENT_3D ( 'NONE', #123, #255, #29 ) ;
#91 = EDGE_LOOP ( 'NONE', ( #25, #246, #116, #79 ) ) ;
#92 = AXIS2_PLACEMENT_3D ( 'NONE', #254, #76, #48 ) ;
#93 = FACE_OUTER_BOUND ( 'NONE', #264, .T. ) ;
#94 = CARTESIAN_POINT ( 'NONE',  ( 2.337285635691549169E-34, 0.0000000000000000000, 1.908538557663203788E-18 ) ) ;
#95 = UNCERTAINTY_MEASURE_WITH_UNIT (LENGTH_MEASURE( 1.000000000000000082E-05 ), #237, 'distance_accuracy_value', 'NONE');
#96 = VERTEX_POINT ( 'NONE', #80 ) ;
#97 =( GEOMETRIC_REPRESENTATION_CONTEXT ( 3 ) GLOBAL_UNCERTAINTY_ASSIGNED_CONTEXT ( ( #95 ) ) GLOBAL_UNIT_ASSIGNED_CONTEXT ( ( #237, #168, #3 ) ) REPRESENTATION_CONTEXT ( 'NONE', 'WORKASPACE' ) );
#98 = CARTESIAN_POINT ( 'NONE',  ( 9.552245033349369302E-18, 0.0000000000000000000, 0.07800000000000009703 ) ) ;
#99 = CARTESIAN_POINT ( 'NONE',  ( 0.06250000000000006939, 7.654042494670963708E-18, 0.3440715893364552080 ) ) ;
#100 = CARTESIAN_POINT ( 'NONE',  ( 0.01558440000000001560, 1.908538557663202632E-18, 0.0000000000000000000 ) ) ;
#101 =( CONVERSION_BASED_UNIT ( 'INCH', #49 ) LENGTH_UNIT ( ) NAMED_UNIT ( #220 ) );
#102 = ORIENTED_EDGE ( 'NONE', *, *, #82, .F. ) ;
#103 = DIRECTION ( 'NONE',  ( -0.0000000000000000000, -0.0000000000000000000, -1.000000000000000000 ) ) ;
#104 = DIRECTION ( 'NONE',  ( -1.224646799147353700E-16, -0.0000000000000000000, -1.000000000000000000 ) ) ;
#105 = DIRECTION ( 'NONE',  ( 1.000000000000000000, 0.0000000000000000000, 0.0000000000000000000 ) ) ;
#106 = DIRECTION ( 'NONE',  ( -1.224646799147353700E-16, -0.0000000000000000000, -1.000000000000000000 ) ) ;
#107 = EDGE_CURVE ( 'NONE', #159, #281, #249, .T. ) ;
#108 = CARTESIAN_POINT ( 'NONE',  ( 0.01558440000000000866, 1.908538557663202247E-18, -1.908538557663203017E-18 ) ) ;
#109 = FACE_OUTER_BOUND ( 'NONE', #91, .T. ) ;
#110 = CONICAL_SURFACE ( 'NONE', #191, 0.04750000000000064587, 0.7853981633974466137 ) ;
#111 = EDGE_CURVE ( 'NONE', #20, #131, #270, .T. ) ;
#112 = ORIENTED_EDGE ( 'NONE', *, *, #224, .T. ) ;
#113 = ORIENTED_EDGE ( 'NONE', *, *, #292, .T. ) ;
#114 = VERTEX_POINT ( 'NONE', #271 ) ;
#115 = DIRECTION ( 'NONE',  ( 1.000000000000000000, 0.0000000000000000000, -0.0000000000000000000 ) ) ;
#116 = ORIENTED_EDGE ( 'NONE', *, *, #130, .T. ) ;
#117 = VECTOR ( 'NONE', #154, 39.37007874015748143 ) ;
#118 = DIRECTION ( 'NONE',  ( 1.000000000000000000, 0.0000000000000000000, 0.0000000000000000000 ) ) ;
#119 = VECTOR ( 'NONE', #244, 39.37007874015748854 ) ;
#120 = ORIENTED_EDGE ( 'NONE', *, *, #188, .F. ) ;
#121 = LINE ( 'NONE', #193, #59 ) ;
#122 = CARTESIAN_POINT ( 'NONE',  ( 9.552245033349369302E-18, 0.0000000000000000000, 0.07800000000000009703 ) ) ;
#123 = CARTESIAN_POINT ( 'NONE',  ( 0.0000000000000000000, 0.0000000000000000000, 0.0000000000000000000 ) ) ;
#124 = CARTESIAN_POINT ( 'NONE',  ( 4.213661705584326685E-17, 0.0000000000000000000, 0.3440715893364552080 ) ) ;
#125 = CARTESIAN_POINT ( 'NONE',  ( 0.0000000000000000000, 0.0000000000000000000, 0.0000000000000000000 ) ) ;
#126 =( CONVERSION_BASED_UNIT ( 'INCH', #221 ) LENGTH_UNIT ( ) NAMED_UNIT ( #198 ) );
#127 = PRODUCT ( 'Micro_GEM-031-2', 'Micro_GEM-031-2', '', ( #149 ) ) ;
#128 = DIRECTION ( 'NONE',  ( -1.000000000000000000, 0.0000000000000000000, 1.224646799147353700E-16 ) ) ;
#129 = CARTESIAN_POINT ( 'NONE',  ( 0.0000000000000000000, 0.0000000000000000000, 1.500000000000000222 ) ) ;
#130 = EDGE_CURVE ( 'NONE', #96, #296, #58, .T. ) ;
#131 = VERTEX_POINT ( 'NONE', #63 ) ;
#132 = EDGE_CURVE ( 'NONE', #296, #114, #83, .T. ) ;
#133 = CARTESIAN_POINT ( 'NONE',  ( 0.0000000000000000000, 0.0000000000000000000, 1.485000000000000764 ) ) ;
#134 =( NAMED_UNIT ( * ) PLANE_ANGLE_UNIT ( ) SI_UNIT ( $, .RADIAN. ) );
#135 = UNCERTAINTY_MEASURE_WITH_UNIT (LENGTH_MEASURE( 1.000000000000000082E-05 ), #126, 'distance_accuracy_value', 'NONE');
#136 = SURFACE_STYLE_FILL_AREA ( #51 ) ;
#137 = DIRECTION ( 'NONE',  ( -1.000000000000000000, 0.0000000000000000000, 0.0000000000000000000 ) ) ;
#138 = ORIENTED_EDGE ( 'NONE', *, *, #172, .T. ) ;
#139 = APPLICATION_CONTEXT ( 'automotive_design' ) ;
#140 = ADVANCED_FACE ( 'NONE', ( #243 ), #269, .T. ) ;
#141 = ORIENTED_EDGE ( 'NONE', *, *, #160, .T. ) ;
#142 = CARTESIAN_POINT ( 'NONE',  ( 0.0000000000000000000, 0.0000000000000000000, 1.500000000000000222 ) ) ;
#143 = AXIS2_PLACEMENT_3D ( 'NONE', #125, #106, #291 ) ;
#144 = ORIENTED_EDGE ( 'NONE', *, *, #111, .F. ) ;
#145 = DIMENSIONAL_EXPONENTS ( 1.000000000000000000, 0.0000000000000000000, 0.0000000000000000000, 0.0000000000000000000, 0.0000000000000000000, 0.0000000000000000000, 0.0000000000000000000 ) ;
#146 = ADVANCED_FACE ( 'NONE', ( #40 ), #60, .T. ) ;
#147 = DIRECTION ( 'NONE',  ( -0.0000000000000000000, -0.0000000000000000000, -1.000000000000000000 ) ) ;
#148 = DIRECTION ( 'NONE',  ( -1.000000000000000000, 0.0000000000000000000, 1.224646799147353700E-16 ) ) ;
#149 = PRODUCT_CONTEXT ( 'NONE', #183, 'mechanical' ) ;
#150 = CIRCLE ( 'NONE', #162, 0.06250000000000002776 ) ;
#151 = AXIS2_PLACEMENT_3D ( 'NONE', #163, #203, #268 ) ;
#152 = LINE ( 'NONE', #86, #207 ) ;
#153 = DIRECTION ( 'NONE',  ( 1.000000000000000000, 0.0000000000000000000, 0.0000000000000000000 ) ) ;
#154 = DIRECTION ( 'NONE',  ( -1.224646799147353700E-16, -0.0000000000000000000, -1.000000000000000000 ) ) ;
#155 = CARTESIAN_POINT ( 'NONE',  ( 9.552245033349369302E-18, 0.0000000000000000000, 0.07800000000000009703 ) ) ;
#156 = EDGE_LOOP ( 'NONE', ( #2, #77, #72, #165 ) ) ;
#157 = ORIENTED_EDGE ( 'NONE', *, *, #199, .T. ) ;
#158 = VECTOR ( 'NONE', #104, 39.37007874015748143 ) ;
#159 = VERTEX_POINT ( 'NONE', #178 ) ;
#160 = EDGE_CURVE ( 'NONE', #298, #33, #223, .T. ) ;
#161 = ORIENTED_EDGE ( 'NONE', *, *, #180, .T. ) ;
#162 = AXIS2_PLACEMENT_3D ( 'NONE', #133, #167, #118 ) ;
#163 = CARTESIAN_POINT ( 'NONE',  ( 4.213661705584326685E-17, 0.0000000000000000000, 0.3440715893364552080 ) ) ;
#164 = UNCERTAINTY_MEASURE_WITH_UNIT (LENGTH_MEASURE( 1.000000000000000082E-05 ), #101, 'distance_accuracy_value', 'NONE');
#165 = ORIENTED_EDGE ( 'NONE', *, *, #253, .F. ) ;
#166 = FILL_AREA_STYLE ('',( #258 ) ) ;
#167 = DIRECTION ( 'NONE',  ( 0.0000000000000000000, 0.0000000000000000000, -1.000000000000000000 ) ) ;
#168 =( NAMED_UNIT ( * ) PLANE_ANGLE_UNIT ( ) SI_UNIT ( $, .RADIAN. ) );
#169 = FACE_OUTER_BOUND ( 'NONE', #194, .T. ) ;
#170 = DIRECTION ( 'NONE',  ( -0.0000000000000000000, -0.0000000000000000000, -1.000000000000000000 ) ) ;
#171 = PRESENTATION_LAYER_ASSIGNMENT (  '', '', ( #209 ) ) ;
#172 = EDGE_CURVE ( 'NONE', #281, #159, #84, .T. ) ;
#173 = CARTESIAN_POINT ( 'NONE',  ( 2.337285635691549169E-34, 0.0000000000000000000, 1.908538557663203788E-18 ) ) ;
#174 = DIRECTION ( 'NONE',  ( 1.224646799147353700E-16, 0.0000000000000000000, 1.000000000000000000 ) ) ;
#175 = CIRCLE ( 'NONE', #215, 0.01558440000000000519 ) ;
#176 = LINE ( 'NONE', #19, #17 ) ;
#177 = PRODUCT_RELATED_PRODUCT_CATEGORY ( 'part', '', ( #127 ) ) ;
#178 = CARTESIAN_POINT ( 'NONE',  ( -0.06249999999999997918, 0.0000000000000000000, 0.3440715893364552080 ) ) ;
#179 = DIRECTION ( 'NONE',  ( 0.7071067811865462405, 8.659560562354916834E-17, -0.7071067811865486830 ) ) ;
#180 = EDGE_CURVE ( 'NONE', #20, #159, #152, .T. ) ;
#181 = VERTEX_POINT ( 'NONE', #18 ) ;
#182 = EDGE_LOOP ( 'NONE', ( #44, #102, #234, #138 ) ) ;
#183 = APPLICATION_CONTEXT ( 'automotive_design' ) ;
#184 = AXIS2_PLACEMENT_3D ( 'NONE', #173, #15, #148 ) ;
#185 = ORIENTED_EDGE ( 'NONE', *, *, #199, .F. ) ;
#186 = PLANE ( 'NONE',  #189 ) ;
#187 =( NAMED_UNIT ( * ) SI_UNIT ( $, .STERADIAN. ) SOLID_ANGLE_UNIT ( ) );
#188 = EDGE_CURVE ( 'NONE', #131, #33, #22, .T. ) ;
#189 = AXIS2_PLACEMENT_3D ( 'NONE', #283, #280, #261 ) ;
#190 = CARTESIAN_POINT ( 'NONE',  ( 0.0000000000000000000, 0.0000000000000000000, 1.500000000000000222 ) ) ;
#191 = AXIS2_PLACEMENT_3D ( 'NONE', #225, #205, #245 ) ;
#192 = DIRECTION ( 'NONE',  ( -1.000000000000000000, 0.0000000000000000000, 0.0000000000000000000 ) ) ;
#193 = CARTESIAN_POINT ( 'NONE',  ( 0.06250000000000002776, 7.654042494670959086E-18, 1.500000000000000222 ) ) ;
#194 = EDGE_LOOP ( 'NONE', ( #252, #113, #276, #185 ) ) ;
#195 = CARTESIAN_POINT ( 'NONE',  ( -0.01558439999999999652, 4.781290526167081051E-18, 0.07800000000000009703 ) ) ;
#196 = AXIS2_PLACEMENT_3D ( 'NONE', #238, #217, #27 ) ;
#197 = AXIS2_PLACEMENT_3D ( 'NONE', #124, #62, #105 ) ;
#198 = DIMENSIONAL_EXPONENTS ( 1.000000000000000000, 0.0000000000000000000, 0.0000000000000000000, 0.0000000000000000000, 0.0000000000000000000, 0.0000000000000000000, 0.0000000000000000000 ) ;
#199 = EDGE_CURVE ( 'NONE', #296, #159, #294, .T. ) ;
#200 = DIRECTION ( 'NONE',  ( -0.1736481776669312194, 2.126576849575783625E-17, 0.9848077530122077983 ) ) ;
#201 =( GEOMETRIC_REPRESENTATION_CONTEXT ( 3 ) GLOBAL_UNCERTAINTY_ASSIGNED_CONTEXT ( ( #135 ) ) GLOBAL_UNIT_ASSIGNED_CONTEXT ( ( #126, #35, #267 ) ) REPRESENTATION_CONTEXT ( 'NONE', 'WORKASPACE' ) );
#202 = CARTESIAN_POINT ( 'NONE',  ( 9.552245033349369302E-18, 0.0000000000000000000, 0.07800000000000009703 ) ) ;
#203 = DIRECTION ( 'NONE',  ( -1.224646799147353700E-16, -0.0000000000000000000, -1.000000000000000000 ) ) ;
#204 = EDGE_CURVE ( 'NONE', #96, #181, #55, .T. ) ;
#205 = DIRECTION ( 'NONE',  ( 0.0000000000000000000, 0.0000000000000000000, -1.000000000000000000 ) ) ;
#206 = EDGE_LOOP ( 'NONE', ( #279, #112, #43, #69 ) ) ;
#207 = VECTOR ( 'NONE', #200, 39.37007874015748143 ) ;
#208 = ORIENTED_EDGE ( 'NONE', *, *, #253, .T. ) ;
#209 = STYLED_ITEM ( 'NONE', ( #11 ), #299 ) ;
#210 = ORIENTED_EDGE ( 'NONE', *, *, #242, .F. ) ;
#211 = ORIENTED_EDGE ( 'NONE', *, *, #188, .T. ) ;
#212 = PRESENTATION_STYLE_ASSIGNMENT (( #30 ) ) ;
#213 = LENGTH_MEASURE_WITH_UNIT ( LENGTH_MEASURE( 0.02539999999999999897 ), #284 );
#214 = DIRECTION ( 'NONE',  ( -1.224646799147353700E-16, -0.0000000000000000000, -1.000000000000000000 ) ) ;
#215 = AXIS2_PLACEMENT_3D ( 'NONE', #155, #88, #273 ) ;
#216 = ADVANCED_FACE ( 'NONE', ( #38 ), #239, .T. ) ;
#217 = DIRECTION ( 'NONE',  ( 0.0000000000000000000, 0.0000000000000000000, 1.000000000000000000 ) ) ;
#218 = CYLINDRICAL_SURFACE ( 'NONE', #229, 0.06250000000000002776 ) ;
#219 = DIRECTION ( 'NONE',  ( 0.0000000000000000000, 0.0000000000000000000, -1.000000000000000000 ) ) ;
#220 = DIMENSIONAL_EXPONENTS ( 1.000000000000000000, 0.0000000000000000000, 0.0000000000000000000, 0.0000000000000000000, 0.0000000000000000000, 0.0000000000000000000, 0.0000000000000000000 ) ;
#221 = LENGTH_MEASURE_WITH_UNIT ( LENGTH_MEASURE( 0.02539999999999999897 ), #289 );
#222 = PRESENTATION_LAYER_ASSIGNMENT (  '', '', ( #250 ) ) ;
#223 = LINE ( 'NONE', #108, #117 ) ;
#224 = EDGE_CURVE ( 'NONE', #181, #114, #176, .T. ) ;
#225 = CARTESIAN_POINT ( 'NONE',  ( 0.0000000000000000000, 0.0000000000000000000, 1.500000000000000222 ) ) ;
#226 = ORIENTED_EDGE ( 'NONE', *, *, #24, .F. ) ;
#227 = AXIS2_PLACEMENT_3D ( 'NONE', #266, #219, #14 ) ;
#228 = ADVANCED_FACE ( 'NONE', ( #109 ), #110, .T. ) ;
#229 = AXIS2_PLACEMENT_3D ( 'NONE', #190, #34, #56 ) ;
#230 = FACE_OUTER_BOUND ( 'NONE', #285, .T. ) ;
#231 = SURFACE_SIDE_STYLE ('',( #235 ) ) ;
#232 = SURFACE_SIDE_STYLE ('',( #136 ) ) ;
#233 = PRODUCT_DEFINITION_CONTEXT ( 'detailed design', #139, 'design' ) ;
#234 = ORIENTED_EDGE ( 'NONE', *, *, #24, .T. ) ;
#235 = SURFACE_STYLE_FILL_AREA ( #166 ) ;
#236 = ORIENTED_EDGE ( 'NONE', *, *, #204, .T. ) ;
#237 =( CONVERSION_BASED_UNIT ( 'INCH', #213 ) LENGTH_UNIT ( ) NAMED_UNIT ( #145 ) );
#238 = CARTESIAN_POINT ( 'NONE',  ( 0.0000000000000000000, 0.0000000000000000000, 1.500000000000000222 ) ) ;
#239 = CYLINDRICAL_SURFACE ( 'NONE', #143, 0.01558440000000000866 ) ;
#240 = DIRECTION ( 'NONE',  ( 1.000000000000000000, 0.0000000000000000000, 0.0000000000000000000 ) ) ;
#241 = CIRCLE ( 'NONE', #21, 0.01558440000000000519 ) ;
#242 = EDGE_CURVE ( 'NONE', #20, #298, #175, .T. ) ;
#243 = FACE_OUTER_BOUND ( 'NONE', #182, .T. ) ;
#244 = DIRECTION ( 'NONE',  ( -0.7071067811865462405, 0.0000000000000000000, -0.7071067811865486830 ) ) ;
#245 = DIRECTION ( 'NONE',  ( -1.000000000000000000, 0.0000000000000000000, 0.0000000000000000000 ) ) ;
#246 = ORIENTED_EDGE ( 'NONE', *, *, #204, .F. ) ;
#247 = EDGE_LOOP ( 'NONE', ( #47, #141, #120, #144 ) ) ;
#248 = ADVANCED_FACE ( 'NONE', ( #42 ), #65, .T. ) ;
#249 = CIRCLE ( 'NONE', #151, 0.06250000000000002776 ) ;
#250 = STYLED_ITEM ( 'NONE', ( #212 ), #89 ) ;
#251 = AXIS2_PLACEMENT_3D ( 'NONE', #142, #170, #137 ) ;
#252 = ORIENTED_EDGE ( 'NONE', *, *, #132, .T. ) ;
#253 = EDGE_CURVE ( 'NONE', #33, #131, #265, .T. ) ;
#254 = CARTESIAN_POINT ( 'NONE',  ( 0.0000000000000000000, 0.0000000000000000000, 1.500000000000000222 ) ) ;
#255 = DIRECTION ( 'NONE',  ( 0.0000000000000000000, 0.0000000000000000000, 1.000000000000000000 ) ) ;
#256 = PRODUCT_DEFINITION_FORMATION_WITH_SPECIFIED_SOURCE ( 'ANY', '', #127, .NOT_KNOWN. ) ;
#257 = FILL_AREA_STYLE_COLOUR ( '', #45 ) ;
#258 = FILL_AREA_STYLE_COLOUR ( '', #293 ) ;
#259 = DIRECTION ( 'NONE',  ( 1.224646799147353700E-16, 0.0000000000000000000, 1.000000000000000000 ) ) ;
#260 = DIRECTION ( 'NONE',  ( 0.0000000000000000000, 0.0000000000000000000, 1.000000000000000000 ) ) ;
#261 = DIRECTION ( 'NONE',  ( 1.000000000000000000, 0.0000000000000000000, -0.0000000000000000000 ) ) ;
#262 = SURFACE_STYLE_USAGE ( .BOTH. , #231 ) ;
#263 = CONICAL_SURFACE ( 'NONE', #274, 0.01558440000000000519, 0.1745329251994339470 ) ;
#264 = EDGE_LOOP ( 'NONE', ( #210, #161, #4, #226 ) ) ;
#265 = CIRCLE ( 'NONE', #1, 0.01558440000000001387 ) ;
#266 = CARTESIAN_POINT ( 'NONE',  ( 0.0000000000000000000, 0.0000000000000000000, 1.485000000000000764 ) ) ;
#267 =( NAMED_UNIT ( * ) SI_UNIT ( $, .STERADIAN. ) SOLID_ANGLE_UNIT ( ) );
#268 = DIRECTION ( 'NONE',  ( 1.000000000000000000, 0.0000000000000000000, 0.0000000000000000000 ) ) ;
#269 = CONICAL_SURFACE ( 'NONE', #74, 0.01558440000000000519, 0.1745329251994339470 ) ;
#270 = LINE ( 'NONE', #41, #158 ) ;
#271 = CARTESIAN_POINT ( 'NONE',  ( 0.06250000000000002776, 7.654042494670959086E-18, 1.485000000000000764 ) ) ;
#272 = APPLICATION_PROTOCOL_DEFINITION ( 'draft international standard', 'automotive_design', 1998, #139 ) ;
#273 = DIRECTION ( 'NONE',  ( -1.000000000000000000, 0.0000000000000000000, 0.0000000000000000000 ) ) ;
#274 = AXIS2_PLACEMENT_3D ( 'NONE', #122, #259, #12 ) ;
#275 = AXIS2_PLACEMENT_3D ( 'NONE', #37, #16, #240 ) ;
#276 = ORIENTED_EDGE ( 'NONE', *, *, #107, .F. ) ;
#277 = VECTOR ( 'NONE', #147, 39.37007874015748143 ) ;
#278 = ADVANCED_FACE ( 'NONE', ( #73 ), #78, .T. ) ;
#279 = ORIENTED_EDGE ( 'NONE', *, *, #5, .F. ) ;
#280 = DIRECTION ( 'NONE',  ( 0.0000000000000000000, 0.0000000000000000000, 1.000000000000000000 ) ) ;
#281 = VERTEX_POINT ( 'NONE', #99 ) ;
#282 = APPLICATION_PROTOCOL_DEFINITION ( 'draft international standard', 'automotive_design', 1998, #183 ) ;
#283 = CARTESIAN_POINT ( 'NONE',  ( 0.0000000000000000000, 0.0000000000000000000, 0.0000000000000000000 ) ) ;
#284 =( LENGTH_UNIT ( ) NAMED_UNIT ( * ) SI_UNIT ( $, .METRE. ) );
#285 = EDGE_LOOP ( 'NONE', ( #211, #208 ) ) ;
#286 = DIRECTION ( 'NONE',  ( -1.224646799147353700E-16, -0.0000000000000000000, -1.000000000000000000 ) ) ;
#287 = LINE ( 'NONE', #10, #297 ) ;
#288 = CARTESIAN_POINT ( 'NONE',  ( 0.0000000000000000000, 0.0000000000000000000, 0.0000000000000000000 ) ) ;
#289 =( LENGTH_UNIT ( ) NAMED_UNIT ( * ) SI_UNIT ( $, .METRE. ) );
#290 = MECHANICAL_DESIGN_GEOMETRIC_PRESENTATION_REPRESENTATION (  '', ( #250 ), #201 ) ;
#291 = DIRECTION ( 'NONE',  ( -1.000000000000000000, 0.0000000000000000000, 1.224646799147353700E-16 ) ) ;
#292 = EDGE_CURVE ( 'NONE', #114, #281, #121, .T. ) ;
#293 = COLOUR_RGB ( '',0.7921568627450980005, 0.8196078431372548767, 0.9333333333333333481 ) ;
#294 = LINE ( 'NONE', #57, #277 ) ;
#295 = DIRECTION ( 'NONE',  ( -1.224646799147353700E-16, -0.0000000000000000000, -1.000000000000000000 ) ) ;
#296 = VERTEX_POINT ( 'NONE', #31 ) ;
#297 = VECTOR ( 'NONE', #32, 39.37007874015748143 ) ;
#298 = VERTEX_POINT ( 'NONE', #8 ) ;
#299 = ADVANCED_BREP_SHAPE_REPRESENTATION ( 'Micro_GEM-031-2', ( #89, #90 ), #97 ) ;
ENDSEC;
END-ISO-10303-21;
