ISO-10303-21;
HEADER;
FILE_DESCRIPTION (( 'STEP AP214' ),
    '1' );
FILE_NAME ('Micro_BEM-500-03.STEP',
    '2021-09-03T13:15:13',
    ( '' ),
    ( '' ),
    'SwSTEP 2.0',
    'SolidWorks 2020',
    '' );
FILE_SCHEMA (( 'AUTOMOTIVE_DESIGN' ));
ENDSEC;

DATA;
#1 = DIRECTION ( 'NONE',  ( 1.000000000000000000, 0.0000000000000000000, 0.0000000000000000000 ) ) ;
#2 = SPHERICAL_SURFACE ( 'NONE', #281, 0.2497499999999999998 ) ;
#3 = CYLINDRICAL_SURFACE ( 'NONE', #74, 0.2500000000000000000 ) ;
#4 = PRESENTATION_LAYER_ASSIGNMENT (  '', '', ( #137 ) ) ;
#5 = AXIS2_PLACEMENT_3D ( 'NONE', #179, #232, #206 ) ;
#6 = VERTEX_POINT ( 'NONE', #44 ) ;
#7 = LENGTH_MEASURE_WITH_UNIT ( LENGTH_MEASURE( 0.02539999999999999897 ), #234 );
#8 = ORIENTED_EDGE ( 'NONE', *, *, #27, .T. ) ;
#9 = SURFACE_SIDE_STYLE ('',( #158 ) ) ;
#10 = ORIENTED_EDGE ( 'NONE', *, *, #109, .F. ) ;
#11 = ORIENTED_EDGE ( 'NONE', *, *, #320, .F. ) ;
#12 = DIRECTION ( 'NONE',  ( -1.224646799147353454E-16, -0.0000000000000000000, -1.000000000000000000 ) ) ;
#13 = EDGE_CURVE ( 'NONE', #31, #33, #54, .T. ) ;
#14 = CARTESIAN_POINT ( 'NONE',  ( 1.226383128429217700E-16, 0.0000000000000000000, 1.001417820454904462 ) ) ;
#15 = EDGE_CURVE ( 'NONE', #133, #164, #213, .T. ) ;
#16 = EDGE_CURVE ( 'NONE', #82, #164, #237, .T. ) ;
#17 =( NAMED_UNIT ( * ) SI_UNIT ( $, .STERADIAN. ) SOLID_ANGLE_UNIT ( ) );
#18 = CIRCLE ( 'NONE', #48, 0.2350000000000011524 ) ;
#19 = DIRECTION ( 'NONE',  ( -1.000000000000000000, 0.0000000000000000000, 1.224646799147353700E-16 ) ) ;
#20 = CYLINDRICAL_SURFACE ( 'NONE', #99, 0.2500000000000000000 ) ;
#21 = FACE_OUTER_BOUND ( 'NONE', #253, .T. ) ;
#22 = STYLED_ITEM ( 'NONE', ( #254 ), #174 ) ;
#23 = DIRECTION ( 'NONE',  ( -1.000000000000000000, 0.0000000000000000000, 1.367291288120251888E-16 ) ) ;
#24 = DIRECTION ( 'NONE',  ( -1.000000000000000000, 0.0000000000000000000, 0.0000000000000000000 ) ) ;
#25 = CARTESIAN_POINT ( 'NONE',  ( -0.2500000000000000000, 0.0000000000000000000, 2.985000000000001208 ) ) ;
#26 = LINE ( 'NONE', #273, #120 ) ;
#27 = EDGE_CURVE ( 'NONE', #157, #283, #85, .T. ) ;
#28 = DIRECTION ( 'NONE',  ( -1.000000000000000000, 0.0000000000000000000, 0.0000000000000000000 ) ) ;
#29 = PRODUCT_DEFINITION_SHAPE ( 'NONE', 'NONE',  #169 ) ;
#30 = DIRECTION ( 'NONE',  ( -0.0000000000000000000, -0.0000000000000000000, -1.000000000000000000 ) ) ;
#31 = VERTEX_POINT ( 'NONE', #189 ) ;
#32 = CARTESIAN_POINT ( 'NONE',  ( 0.0000000000000000000, 0.0000000000000000000, 3.000000000000000444 ) ) ;
#33 = VERTEX_POINT ( 'NONE', #65 ) ;
#34 =( NAMED_UNIT ( * ) SI_UNIT ( $, .STERADIAN. ) SOLID_ANGLE_UNIT ( ) );
#35 = EDGE_LOOP ( 'NONE', ( #207, #316, #268, #61 ) ) ;
#36 = MANIFOLD_SOLID_BREP ( 'Fillet1', #245 ) ;
#37 = APPLICATION_PROTOCOL_DEFINITION ( 'draft international standard', 'automotive_design', 1998, #211 ) ;
#38 = EDGE_LOOP ( 'NONE', ( #226, #229, #265 ) ) ;
#39 = EDGE_CURVE ( 'NONE', #178, #82, #160, .T. ) ;
#40 = SPHERICAL_SURFACE ( 'NONE', #72, 0.2497499999999999998 ) ;
#41 =( LENGTH_UNIT ( ) NAMED_UNIT ( * ) SI_UNIT ( $, .METRE. ) );
#42 = AXIS2_PLACEMENT_3D ( 'NONE', #50, #148, #221 ) ;
#43 = AXIS2_PLACEMENT_3D ( 'NONE', #181, #156, #255 ) ;
#44 = CARTESIAN_POINT ( 'NONE',  ( 0.2350000000000011524, 2.969768487932338510E-17, 3.000000000000000444 ) ) ;
#45 = CARTESIAN_POINT ( 'NONE',  ( 0.2497500000000000553, 3.058555380870514950E-17, 0.2497499999999999720 ) ) ;
#46 = CARTESIAN_POINT ( 'NONE',  ( 1.226383128429217700E-16, 0.0000000000000000000, 1.001417820454904462 ) ) ;
#47 = DIRECTION ( 'NONE',  ( 0.0000000000000000000, 0.0000000000000000000, -1.000000000000000000 ) ) ;
#48 = AXIS2_PLACEMENT_3D ( 'NONE', #194, #220, #1 ) ;
#49 = MECHANICAL_DESIGN_GEOMETRIC_PRESENTATION_REPRESENTATION (  '', ( #22 ), #67 ) ;
#50 = CARTESIAN_POINT ( 'NONE',  ( 1.224646799147353454E-16, 0.0000000000000000000, 1.000000000000000000 ) ) ;
#51 = ADVANCED_FACE ( 'NONE', ( #64 ), #40, .T. ) ;
#52 = FACE_OUTER_BOUND ( 'NONE', #63, .T. ) ;
#53 = CYLINDRICAL_SURFACE ( 'NONE', #171, 0.2497499999999999998 ) ;
#54 = CIRCLE ( 'NONE', #192, 0.2497499999999999998 ) ;
#55 = FACE_OUTER_BOUND ( 'NONE', #309, .T. ) ;
#56 = UNCERTAINTY_MEASURE_WITH_UNIT (LENGTH_MEASURE( 1.000000000000000082E-05 ), #308, 'distance_accuracy_value', 'NONE');
#57 = ORIENTED_EDGE ( 'NONE', *, *, #277, .T. ) ;
#58 = FILL_AREA_STYLE_COLOUR ( '', #299 ) ;
#59 = ORIENTED_EDGE ( 'NONE', *, *, #321, .T. ) ;
#60 = ORIENTED_EDGE ( 'NONE', *, *, #151, .F. ) ;
#61 = ORIENTED_EDGE ( 'NONE', *, *, #282, .F. ) ;
#62 = PRESENTATION_LAYER_ASSIGNMENT (  '', '', ( #22 ) ) ;
#63 = EDGE_LOOP ( 'NONE', ( #188, #186, #233, #165 ) ) ;
#64 = FACE_OUTER_BOUND ( 'NONE', #38, .T. ) ;
#65 = CARTESIAN_POINT ( 'NONE',  ( -0.2497499999999998888, 3.060086189369449292E-17, 1.000000000000000000 ) ) ;
#66 = VECTOR ( 'NONE', #89, 39.37007874015748143 ) ;
#67 =( GEOMETRIC_REPRESENTATION_CONTEXT ( 3 ) GLOBAL_UNCERTAINTY_ASSIGNED_CONTEXT ( ( #199 ) ) GLOBAL_UNIT_ASSIGNED_CONTEXT ( ( #103, #130, #34 ) ) REPRESENTATION_CONTEXT ( 'NONE', 'WORKASPACE' ) );
#68 = LINE ( 'NONE', #274, #196 ) ;
#69 = CARTESIAN_POINT ( 'NONE',  ( 0.2350000000000011524, 2.877919977996294002E-17, 3.000000000000000444 ) ) ;
#70 = CARTESIAN_POINT ( 'NONE',  ( 0.0000000000000000000, 0.0000000000000000000, 3.000000000000000444 ) ) ;
#71 = LINE ( 'NONE', #300, #228 ) ;
#72 = AXIS2_PLACEMENT_3D ( 'NONE', #263, #238, #138 ) ;
#73 = ADVANCED_FACE ( 'NONE', ( #142 ), #241, .T. ) ;
#74 = AXIS2_PLACEMENT_3D ( 'NONE', #32, #30, #276 ) ;
#75 = CARTESIAN_POINT ( 'NONE',  ( 0.0000000000000000000, 0.0000000000000000000, 0.0000000000000000000 ) ) ;
#76 = DIRECTION ( 'NONE',  ( 1.000000000000000000, 0.0000000000000000000, 0.0000000000000000000 ) ) ;
#77 = ORIENTED_EDGE ( 'NONE', *, *, #39, .T. ) ;
#78 = CIRCLE ( 'NONE', #217, 0.2500000000000000000 ) ;
#79 = ORIENTED_EDGE ( 'NONE', *, *, #306, .F. ) ;
#80 = SURFACE_STYLE_USAGE ( .BOTH. , #9 ) ;
#81 = ORIENTED_EDGE ( 'NONE', *, *, #321, .F. ) ;
#82 = VERTEX_POINT ( 'NONE', #25 ) ;
#83 = CARTESIAN_POINT ( 'NONE',  ( -0.2500000000000000000, 0.0000000000000000000, 3.000000000000000444 ) ) ;
#84 = ORIENTED_EDGE ( 'NONE', *, *, #134, .T. ) ;
#85 = CIRCLE ( 'NONE', #266, 0.2497499999999999998 ) ;
#86 = PRODUCT_DEFINITION_FORMATION_WITH_SPECIFIED_SOURCE ( 'ANY', '', #176, .NOT_KNOWN. ) ;
#87 = LENGTH_MEASURE_WITH_UNIT ( LENGTH_MEASURE( 0.02539999999999999897 ), #41 );
#88 = CARTESIAN_POINT ( 'NONE',  ( -0.2350000000000011524, 0.0000000000000000000, 3.000000000000000444 ) ) ;
#89 = DIRECTION ( 'NONE',  ( -0.0000000000000000000, -0.0000000000000000000, -1.000000000000000000 ) ) ;
#90 = EDGE_CURVE ( 'NONE', #33, #31, #236, .T. ) ;
#91 = AXIS2_PLACEMENT_3D ( 'NONE', #168, #271, #47 ) ;
#92 = DIRECTION ( 'NONE',  ( 1.224646799147353207E-16, 1.000000000000000000, -0.0000000000000000000 ) ) ;
#93 = AXIS2_PLACEMENT_3D ( 'NONE', #252, #150, #149 ) ;
#94 = DIRECTION ( 'NONE',  ( 1.000000000000000000, 0.0000000000000000000, -0.0000000000000000000 ) ) ;
#95 = DIRECTION ( 'NONE',  ( 0.0000000000000000000, 0.0000000000000000000, -1.000000000000000000 ) ) ;
#96 = CARTESIAN_POINT ( 'NONE',  ( -0.2499999999999998612, 0.0000000000000000000, 1.001417820454904462 ) ) ;
#97 = FACE_OUTER_BOUND ( 'NONE', #242, .T. ) ;
#98 = DIRECTION ( 'NONE',  ( -0.0000000000000000000, -0.0000000000000000000, -1.000000000000000000 ) ) ;
#99 = AXIS2_PLACEMENT_3D ( 'NONE', #147, #98, #195 ) ;
#100 = VECTOR ( 'NONE', #227, 39.37007874015748143 ) ;
#101 = DIRECTION ( 'NONE',  ( 0.0000000000000000000, 0.0000000000000000000, 1.000000000000000000 ) ) ;
#102 = DIRECTION ( 'NONE',  ( -1.224646799147353454E-16, -0.0000000000000000000, -1.000000000000000000 ) ) ;
#103 =( CONVERSION_BASED_UNIT ( 'INCH', #7 ) LENGTH_UNIT ( ) NAMED_UNIT ( #231 ) );
#104 = VERTEX_POINT ( 'NONE', #269 ) ;
#105 = VECTOR ( 'NONE', #292, 39.37007874015748854 ) ;
#106 = CONICAL_SURFACE ( 'NONE', #93, 0.2350000000000011524, 0.7853981633974380649 ) ;
#107 = ORIENTED_EDGE ( 'NONE', *, *, #315, .T. ) ;
#108 = LENGTH_MEASURE_WITH_UNIT ( LENGTH_MEASURE( 0.02539999999999999897 ), #278 );
#109 = EDGE_CURVE ( 'NONE', #6, #204, #323, .T. ) ;
#110 = ORIENTED_EDGE ( 'NONE', *, *, #320, .T. ) ;
#111 = ADVANCED_FACE ( 'NONE', ( #325 ), #20, .T. ) ;
#112 =( NAMED_UNIT ( * ) SI_UNIT ( $, .STERADIAN. ) SOLID_ANGLE_UNIT ( ) );
#113 = PRESENTATION_STYLE_ASSIGNMENT (( #214 ) ) ;
#114 = DIMENSIONAL_EXPONENTS ( 1.000000000000000000, 0.0000000000000000000, 0.0000000000000000000, 0.0000000000000000000, 0.0000000000000000000, 0.0000000000000000000, 0.0000000000000000000 ) ;
#115 = DIRECTION ( 'NONE',  ( 1.000000000000000000, 0.0000000000000000000, 0.0000000000000000000 ) ) ;
#116 = EDGE_LOOP ( 'NONE', ( #81, #136, #303, #257 ) ) ;
#117 = CARTESIAN_POINT ( 'NONE',  ( 3.058555380870515566E-17, 0.0000000000000000000, 0.2497499999999999998 ) ) ;
#118 =( GEOMETRIC_REPRESENTATION_CONTEXT ( 3 ) GLOBAL_UNCERTAINTY_ASSIGNED_CONTEXT ( ( #280 ) ) GLOBAL_UNIT_ASSIGNED_CONTEXT ( ( #190, #239, #17 ) ) REPRESENTATION_CONTEXT ( 'NONE', 'WORKASPACE' ) );
#119 = DIRECTION ( 'NONE',  ( -0.1736481776669312194, 2.126576849575783625E-17, 0.9848077530122080203 ) ) ;
#120 = VECTOR ( 'NONE', #302, 39.37007874015748143 ) ;
#121 = CARTESIAN_POINT ( 'NONE',  ( 0.0000000000000000000, 0.0000000000000000000, 2.985000000000001208 ) ) ;
#122 = EDGE_CURVE ( 'NONE', #104, #157, #297, .T. ) ;
#123 = DIRECTION ( 'NONE',  ( 0.0000000000000000000, 1.000000000000000000, 0.0000000000000000000 ) ) ;
#124 = PLANE ( 'NONE',  #152 ) ;
#125 = AXIS2_PLACEMENT_3D ( 'NONE', #244, #294, #24 ) ;
#126 = DIRECTION ( 'NONE',  ( 1.000000000000000000, 0.0000000000000000000, 0.0000000000000000000 ) ) ;
#127 = SHAPE_DEFINITION_REPRESENTATION ( #29, #174 ) ;
#128 = ORIENTED_EDGE ( 'NONE', *, *, #151, .T. ) ;
#129 = EDGE_CURVE ( 'NONE', #82, #204, #286, .T. ) ;
#130 =( NAMED_UNIT ( * ) PLANE_ANGLE_UNIT ( ) SI_UNIT ( $, .RADIAN. ) );
#131 = ORIENTED_EDGE ( 'NONE', *, *, #197, .T. ) ;
#132 = DIMENSIONAL_EXPONENTS ( 1.000000000000000000, 0.0000000000000000000, 0.0000000000000000000, 0.0000000000000000000, 0.0000000000000000000, 0.0000000000000000000, 0.0000000000000000000 ) ;
#133 = VERTEX_POINT ( 'NONE', #249 ) ;
#134 = EDGE_CURVE ( 'NONE', #6, #178, #18, .T. ) ;
#135 = ORIENTED_EDGE ( 'NONE', *, *, #277, .F. ) ;
#136 = ORIENTED_EDGE ( 'NONE', *, *, #306, .T. ) ;
#137 = STYLED_ITEM ( 'NONE', ( #113 ), #36 ) ;
#138 = DIRECTION ( 'NONE',  ( 1.000000000000000000, 0.0000000000000000000, 0.0000000000000000000 ) ) ;
#139 = ORIENTED_EDGE ( 'NONE', *, *, #182, .F. ) ;
#140 = CIRCLE ( 'NONE', #272, 0.2497499999999999998 ) ;
#141 = ADVANCED_FACE ( 'NONE', ( #21 ), #2, .T. ) ;
#142 = FACE_OUTER_BOUND ( 'NONE', #275, .T. ) ;
#143 = FILL_AREA_STYLE_COLOUR ( '', #161 ) ;
#144 = DIRECTION ( 'NONE',  ( 1.000000000000000000, 0.0000000000000000000, 0.0000000000000000000 ) ) ;
#145 = CARTESIAN_POINT ( 'NONE',  ( 3.058555380870515566E-17, 0.0000000000000000000, 0.2497499999999999998 ) ) ;
#146 = MECHANICAL_DESIGN_GEOMETRIC_PRESENTATION_REPRESENTATION (  '', ( #137 ), #118 ) ;
#147 = CARTESIAN_POINT ( 'NONE',  ( 0.0000000000000000000, 0.0000000000000000000, 3.000000000000000444 ) ) ;
#148 = DIRECTION ( 'NONE',  ( 1.224646799147353454E-16, 0.0000000000000000000, 1.000000000000000000 ) ) ;
#149 = DIRECTION ( 'NONE',  ( -1.000000000000000000, 0.0000000000000000000, 0.0000000000000000000 ) ) ;
#150 = DIRECTION ( 'NONE',  ( 0.0000000000000000000, 0.0000000000000000000, -1.000000000000000000 ) ) ;
#151 = EDGE_CURVE ( 'NONE', #33, #283, #68, .T. ) ;
#152 = AXIS2_PLACEMENT_3D ( 'NONE', #223, #101, #94 ) ;
#153 = DIRECTION ( 'NONE',  ( 0.0000000000000000000, 0.0000000000000000000, -1.000000000000000000 ) ) ;
#154 = FILL_AREA_STYLE ('',( #58 ) ) ;
#155 = ORIENTED_EDGE ( 'NONE', *, *, #122, .F. ) ;
#156 = DIRECTION ( 'NONE',  ( 0.0000000000000000000, 0.0000000000000000000, 1.000000000000000000 ) ) ;
#157 = VERTEX_POINT ( 'NONE', #45 ) ;
#158 = SURFACE_STYLE_FILL_AREA ( #154 ) ;
#159 = ORIENTED_EDGE ( 'NONE', *, *, #90, .T. ) ;
#160 = LINE ( 'NONE', #88, #305 ) ;
#161 = COLOUR_RGB ( '',0.7921568627450980005, 0.8196078431372548767, 0.9333333333333333481 ) ;
#162 = CIRCLE ( 'NONE', #224, 0.2500000000000000000 ) ;
#163 = DIRECTION ( 'NONE',  ( -1.224646799147353454E-16, -0.0000000000000000000, -1.000000000000000000 ) ) ;
#164 = VERTEX_POINT ( 'NONE', #96 ) ;
#165 = ORIENTED_EDGE ( 'NONE', *, *, #39, .F. ) ;
#166 = DIRECTION ( 'NONE',  ( -1.224646799147353454E-16, -0.0000000000000000000, -1.000000000000000000 ) ) ;
#167 = CARTESIAN_POINT ( 'NONE',  ( 0.2497500000000001386, 0.0000000000000000000, 1.000000000000000000 ) ) ;
#168 = CARTESIAN_POINT ( 'NONE',  ( 3.058555380870515566E-17, 0.0000000000000000000, 0.2497499999999999998 ) ) ;
#169 = PRODUCT_DEFINITION ( 'UNKNOWN', '', #86, #202 ) ;
#170 = LINE ( 'NONE', #167, #240 ) ;
#171 = AXIS2_PLACEMENT_3D ( 'NONE', #75, #298, #175 ) ;
#172 = FACE_OUTER_BOUND ( 'NONE', #307, .T. ) ;
#173 =( GEOMETRIC_REPRESENTATION_CONTEXT ( 3 ) GLOBAL_UNCERTAINTY_ASSIGNED_CONTEXT ( ( #56 ) ) GLOBAL_UNIT_ASSIGNED_CONTEXT ( ( #308, #187, #112 ) ) REPRESENTATION_CONTEXT ( 'NONE', 'WORKASPACE' ) );
#174 = ADVANCED_BREP_SHAPE_REPRESENTATION ( 'Micro_BEM-500-03', ( #36, #43 ), #173 ) ;
#175 = DIRECTION ( 'NONE',  ( -1.000000000000000000, 0.0000000000000000000, 1.224646799147353700E-16 ) ) ;
#176 = PRODUCT ( 'Micro_BEM-500-03', 'Micro_BEM-500-03', '', ( #258 ) ) ;
#177 = CARTESIAN_POINT ( 'NONE',  ( 0.0000000000000000000, 0.0000000000000000000, 2.985000000000001208 ) ) ;
#178 = VERTEX_POINT ( 'NONE', #295 ) ;
#179 = CARTESIAN_POINT ( 'NONE',  ( 0.0000000000000000000, 0.0000000000000000000, 3.000000000000000444 ) ) ;
#180 = ORIENTED_EDGE ( 'NONE', *, *, #13, .T. ) ;
#181 = CARTESIAN_POINT ( 'NONE',  ( 0.0000000000000000000, 0.0000000000000000000, 0.0000000000000000000 ) ) ;
#182 = EDGE_CURVE ( 'NONE', #33, #164, #71, .T. ) ;
#183 = EDGE_LOOP ( 'NONE', ( #259, #59, #311, #235 ) ) ;
#184 = AXIS2_PLACEMENT_3D ( 'NONE', #121, #95, #248 ) ;
#185 = CARTESIAN_POINT ( 'NONE',  ( 0.2500000000000000000, 3.061616997868382402E-17, 3.000000000000000444 ) ) ;
#186 = ORIENTED_EDGE ( 'NONE', *, *, #109, .T. ) ;
#187 =( NAMED_UNIT ( * ) PLANE_ANGLE_UNIT ( ) SI_UNIT ( $, .RADIAN. ) );
#188 = ORIENTED_EDGE ( 'NONE', *, *, #134, .F. ) ;
#189 = CARTESIAN_POINT ( 'NONE',  ( 0.2497500000000001386, 0.0000000000000000000, 1.000000000000000000 ) ) ;
#190 =( CONVERSION_BASED_UNIT ( 'INCH', #87 ) LENGTH_UNIT ( ) NAMED_UNIT ( #114 ) );
#191 = DIRECTION ( 'NONE',  ( 1.224646799147353454E-16, 0.0000000000000000000, 1.000000000000000000 ) ) ;
#192 = AXIS2_PLACEMENT_3D ( 'NONE', #322, #163, #264 ) ;
#193 = DIRECTION ( 'NONE',  ( -1.000000000000000000, 1.224646799147353454E-16, 0.0000000000000000000 ) ) ;
#194 = CARTESIAN_POINT ( 'NONE',  ( 0.0000000000000000000, 0.0000000000000000000, 3.000000000000000444 ) ) ;
#195 = DIRECTION ( 'NONE',  ( -1.000000000000000000, 0.0000000000000000000, 0.0000000000000000000 ) ) ;
#196 = VECTOR ( 'NONE', #166, 39.37007874015748143 ) ;
#197 = EDGE_CURVE ( 'NONE', #104, #283, #140, .T. ) ;
#198 = FACE_OUTER_BOUND ( 'NONE', #35, .T. ) ;
#199 = UNCERTAINTY_MEASURE_WITH_UNIT (LENGTH_MEASURE( 1.000000000000000082E-05 ), #103, 'distance_accuracy_value', 'NONE');
#200 = DIRECTION ( 'NONE',  ( 1.000000000000000000, 0.0000000000000000000, 0.0000000000000000000 ) ) ;
#201 = ORIENTED_EDGE ( 'NONE', *, *, #27, .F. ) ;
#202 = PRODUCT_DEFINITION_CONTEXT ( 'detailed design', #211, 'design' ) ;
#203 = AXIS2_PLACEMENT_3D ( 'NONE', #260, #12, #19 ) ;
#204 = VERTEX_POINT ( 'NONE', #218 ) ;
#205 = APPLICATION_PROTOCOL_DEFINITION ( 'draft international standard', 'automotive_design', 1998, #310 ) ;
#206 = DIRECTION ( 'NONE',  ( 1.000000000000000000, 0.0000000000000000000, 0.0000000000000000000 ) ) ;
#207 = ORIENTED_EDGE ( 'NONE', *, *, #90, .F. ) ;
#208 = EDGE_LOOP ( 'NONE', ( #110, #84 ) ) ;
#209 = CONICAL_SURFACE ( 'NONE', #324, 0.2350000000000011524, 0.7853981633974380649 ) ;
#210 = ORIENTED_EDGE ( 'NONE', *, *, #15, .T. ) ;
#211 = APPLICATION_CONTEXT ( 'automotive_design' ) ;
#212 = SURFACE_SIDE_STYLE ('',( #289 ) ) ;
#213 = CIRCLE ( 'NONE', #261, 0.2500000000000000000 ) ;
#214 = SURFACE_STYLE_USAGE ( .BOTH. , #212 ) ;
#215 = CARTESIAN_POINT ( 'NONE',  ( 3.058555380870515566E-17, 0.0000000000000000000, 0.2497499999999999998 ) ) ;
#216 = DIRECTION ( 'NONE',  ( 0.1736481776669314137, 0.0000000000000000000, 0.9848077530122077983 ) ) ;
#217 = AXIS2_PLACEMENT_3D ( 'NONE', #46, #102, #200 ) ;
#218 = CARTESIAN_POINT ( 'NONE',  ( 0.2500000000000000000, 3.061616997868382402E-17, 2.985000000000001208 ) ) ;
#219 = ADVANCED_FACE ( 'NONE', ( #172 ), #319, .T. ) ;
#220 = DIRECTION ( 'NONE',  ( 0.0000000000000000000, 0.0000000000000000000, 1.000000000000000000 ) ) ;
#221 = DIRECTION ( 'NONE',  ( 1.000000000000000000, 0.0000000000000000000, 0.0000000000000000000 ) ) ;
#222 = ADVANCED_FACE ( 'NONE', ( #97 ), #53, .T. ) ;
#223 = CARTESIAN_POINT ( 'NONE',  ( 0.0000000000000000000, 0.0000000000000000000, 3.000000000000000444 ) ) ;
#224 = AXIS2_PLACEMENT_3D ( 'NONE', #177, #250, #126 ) ;
#225 = DIRECTION ( 'NONE',  ( 1.224646799147353454E-16, 0.0000000000000000000, 1.000000000000000000 ) ) ;
#226 = ORIENTED_EDGE ( 'NONE', *, *, #197, .F. ) ;
#227 = DIRECTION ( 'NONE',  ( -0.0000000000000000000, -0.0000000000000000000, -1.000000000000000000 ) ) ;
#228 = VECTOR ( 'NONE', #119, 39.37007874015747433 ) ;
#229 = ORIENTED_EDGE ( 'NONE', *, *, #122, .T. ) ;
#230 = ORIENTED_EDGE ( 'NONE', *, *, #13, .F. ) ;
#231 = DIMENSIONAL_EXPONENTS ( 1.000000000000000000, 0.0000000000000000000, 0.0000000000000000000, 0.0000000000000000000, 0.0000000000000000000, 0.0000000000000000000, 0.0000000000000000000 ) ;
#232 = DIRECTION ( 'NONE',  ( 0.0000000000000000000, 0.0000000000000000000, 1.000000000000000000 ) ) ;
#233 = ORIENTED_EDGE ( 'NONE', *, *, #129, .F. ) ;
#234 =( LENGTH_UNIT ( ) NAMED_UNIT ( * ) SI_UNIT ( $, .METRE. ) );
#235 = ORIENTED_EDGE ( 'NONE', *, *, #16, .F. ) ;
#236 = CIRCLE ( 'NONE', #125, 0.2497499999999999998 ) ;
#237 = LINE ( 'NONE', #83, #66 ) ;
#238 = DIRECTION ( 'NONE',  ( 0.0000000000000000000, 1.000000000000000000, 0.0000000000000000000 ) ) ;
#239 =( NAMED_UNIT ( * ) PLANE_ANGLE_UNIT ( ) SI_UNIT ( $, .RADIAN. ) );
#240 = VECTOR ( 'NONE', #216, 39.37007874015748143 ) ;
#241 = CYLINDRICAL_SURFACE ( 'NONE', #203, 0.2497499999999999998 ) ;
#242 = EDGE_LOOP ( 'NONE', ( #135, #180, #128, #107 ) ) ;
#243 = ADVANCED_FACE ( 'NONE', ( #52 ), #209, .T. ) ;
#244 = CARTESIAN_POINT ( 'NONE',  ( 1.224646799147353454E-16, 0.0000000000000000000, 1.000000000000000000 ) ) ;
#245 = CLOSED_SHELL ( 'NONE', ( #141, #73, #287, #243, #111, #317, #279, #256, #219, #222, #51 ) ) ;
#246 = DIRECTION ( 'NONE',  ( 1.224646799147353454E-16, 0.0000000000000000000, 1.000000000000000000 ) ) ;
#247 = CONICAL_SURFACE ( 'NONE', #288, 0.2497499999999999998, 0.1745329251994339192 ) ;
#248 = DIRECTION ( 'NONE',  ( 1.000000000000000000, 0.0000000000000000000, 0.0000000000000000000 ) ) ;
#249 = CARTESIAN_POINT ( 'NONE',  ( 0.2500000000000001110, 3.061616997868383634E-17, 1.001417820454904462 ) ) ;
#250 = DIRECTION ( 'NONE',  ( 0.0000000000000000000, 0.0000000000000000000, -1.000000000000000000 ) ) ;
#251 = CIRCLE ( 'NONE', #267, 0.2497499999999999998 ) ;
#252 = CARTESIAN_POINT ( 'NONE',  ( 0.0000000000000000000, 0.0000000000000000000, 3.000000000000000444 ) ) ;
#253 = EDGE_LOOP ( 'NONE', ( #155, #131, #201 ) ) ;
#254 = PRESENTATION_STYLE_ASSIGNMENT (( #80 ) ) ;
#255 = DIRECTION ( 'NONE',  ( 1.000000000000000000, 0.0000000000000000000, 0.0000000000000000000 ) ) ;
#256 = ADVANCED_FACE ( 'NONE', ( #55 ), #106, .T. ) ;
#257 = ORIENTED_EDGE ( 'NONE', *, *, #15, .F. ) ;
#258 = PRODUCT_CONTEXT ( 'NONE', #310, 'mechanical' ) ;
#259 = ORIENTED_EDGE ( 'NONE', *, *, #129, .T. ) ;
#260 = CARTESIAN_POINT ( 'NONE',  ( 0.0000000000000000000, 0.0000000000000000000, 0.0000000000000000000 ) ) ;
#261 = AXIS2_PLACEMENT_3D ( 'NONE', #14, #291, #115 ) ;
#262 = CIRCLE ( 'NONE', #5, 0.2350000000000011524 ) ;
#263 = CARTESIAN_POINT ( 'NONE',  ( 3.058555380870515566E-17, 0.0000000000000000000, 0.2497499999999999998 ) ) ;
#264 = DIRECTION ( 'NONE',  ( -1.000000000000000000, 0.0000000000000000000, 0.0000000000000000000 ) ) ;
#265 = ORIENTED_EDGE ( 'NONE', *, *, #315, .F. ) ;
#266 = AXIS2_PLACEMENT_3D ( 'NONE', #318, #191, #284 ) ;
#267 = AXIS2_PLACEMENT_3D ( 'NONE', #145, #246, #23 ) ;
#268 = ORIENTED_EDGE ( 'NONE', *, *, #314, .T. ) ;
#269 = CARTESIAN_POINT ( 'NONE',  ( 4.587833071305773041E-17, 0.0000000000000000000, 0.0000000000000000000 ) ) ;
#270 = CARTESIAN_POINT ( 'NONE',  ( 1.224646799147353454E-16, 0.0000000000000000000, 1.000000000000000000 ) ) ;
#271 = DIRECTION ( 'NONE',  ( 0.0000000000000000000, -1.000000000000000000, 0.0000000000000000000 ) ) ;
#272 = AXIS2_PLACEMENT_3D ( 'NONE', #215, #92, #193 ) ;
#273 = CARTESIAN_POINT ( 'NONE',  ( 0.2497499999999999998, 3.058555380870514950E-17, -3.058555380870515566E-17 ) ) ;
#274 = CARTESIAN_POINT ( 'NONE',  ( -0.2497499999999999998, 0.0000000000000000000, 3.058555380870515566E-17 ) ) ;
#275 = EDGE_LOOP ( 'NONE', ( #159, #57, #8, #60 ) ) ;
#276 = DIRECTION ( 'NONE',  ( -1.000000000000000000, 0.0000000000000000000, 0.0000000000000000000 ) ) ;
#277 = EDGE_CURVE ( 'NONE', #31, #157, #26, .T. ) ;
#278 =( LENGTH_UNIT ( ) NAMED_UNIT ( * ) SI_UNIT ( $, .METRE. ) );
#279 = ADVANCED_FACE ( 'NONE', ( #293 ), #124, .T. ) ;
#280 = UNCERTAINTY_MEASURE_WITH_UNIT (LENGTH_MEASURE( 1.000000000000000082E-05 ), #190, 'distance_accuracy_value', 'NONE');
#281 = AXIS2_PLACEMENT_3D ( 'NONE', #117, #123, #144 ) ;
#282 = EDGE_CURVE ( 'NONE', #31, #133, #170, .T. ) ;
#283 = VERTEX_POINT ( 'NONE', #301 ) ;
#284 = DIRECTION ( 'NONE',  ( -1.000000000000000000, 0.0000000000000000000, 1.367291288120251888E-16 ) ) ;
#285 = FILL_AREA_STYLE ('',( #143 ) ) ;
#286 = CIRCLE ( 'NONE', #184, 0.2500000000000000000 ) ;
#287 = ADVANCED_FACE ( 'NONE', ( #198 ), #247, .T. ) ;
#288 = AXIS2_PLACEMENT_3D ( 'NONE', #270, #225, #76 ) ;
#289 = SURFACE_STYLE_FILL_AREA ( #285 ) ;
#290 = DIRECTION ( 'NONE',  ( -0.7071067811865402453, 0.0000000000000000000, -0.7071067811865546782 ) ) ;
#291 = DIRECTION ( 'NONE',  ( -1.224646799147353454E-16, -0.0000000000000000000, -1.000000000000000000 ) ) ;
#292 = DIRECTION ( 'NONE',  ( 0.7071067811865402453, 8.659560562354845344E-17, -0.7071067811865546782 ) ) ;
#293 = FACE_OUTER_BOUND ( 'NONE', #208, .T. ) ;
#294 = DIRECTION ( 'NONE',  ( -1.224646799147353454E-16, -0.0000000000000000000, -1.000000000000000000 ) ) ;
#295 = CARTESIAN_POINT ( 'NONE',  ( -0.2350000000000011524, 0.0000000000000000000, 3.000000000000000444 ) ) ;
#296 = PRODUCT_RELATED_PRODUCT_CATEGORY ( 'part', '', ( #176 ) ) ;
#297 = CIRCLE ( 'NONE', #91, 0.2497499999999999998 ) ;
#298 = DIRECTION ( 'NONE',  ( -1.224646799147353454E-16, -0.0000000000000000000, -1.000000000000000000 ) ) ;
#299 = COLOUR_RGB ( '',0.7921568627450980005, 0.8196078431372548767, 0.9333333333333333481 ) ;
#300 = CARTESIAN_POINT ( 'NONE',  ( -0.2497499999999998888, 3.058555380870514950E-17, 1.000000000000000000 ) ) ;
#301 = CARTESIAN_POINT ( 'NONE',  ( -0.2497499999999999720, 0.0000000000000000000, 0.2497500000000000553 ) ) ;
#302 = DIRECTION ( 'NONE',  ( -1.224646799147353454E-16, -0.0000000000000000000, -1.000000000000000000 ) ) ;
#303 = ORIENTED_EDGE ( 'NONE', *, *, #16, .T. ) ;
#304 = FACE_OUTER_BOUND ( 'NONE', #116, .T. ) ;
#305 = VECTOR ( 'NONE', #290, 39.37007874015748854 ) ;
#306 = EDGE_CURVE ( 'NONE', #204, #82, #162, .T. ) ;
#307 = EDGE_LOOP ( 'NONE', ( #139, #230, #313, #210 ) ) ;
#308 =( CONVERSION_BASED_UNIT ( 'INCH', #108 ) LENGTH_UNIT ( ) NAMED_UNIT ( #132 ) );
#309 = EDGE_LOOP ( 'NONE', ( #10, #11, #77, #79 ) ) ;
#310 = APPLICATION_CONTEXT ( 'automotive_design' ) ;
#311 = ORIENTED_EDGE ( 'NONE', *, *, #314, .F. ) ;
#312 = LINE ( 'NONE', #185, #100 ) ;
#313 = ORIENTED_EDGE ( 'NONE', *, *, #282, .T. ) ;
#314 = EDGE_CURVE ( 'NONE', #164, #133, #78, .T. ) ;
#315 = EDGE_CURVE ( 'NONE', #283, #157, #251, .T. ) ;
#316 = ORIENTED_EDGE ( 'NONE', *, *, #182, .T. ) ;
#317 = ADVANCED_FACE ( 'NONE', ( #304 ), #3, .T. ) ;
#318 = CARTESIAN_POINT ( 'NONE',  ( 3.058555380870515566E-17, 0.0000000000000000000, 0.2497499999999999998 ) ) ;
#319 = CONICAL_SURFACE ( 'NONE', #42, 0.2497499999999999998, 0.1745329251994339192 ) ;
#320 = EDGE_CURVE ( 'NONE', #178, #6, #262, .T. ) ;
#321 = EDGE_CURVE ( 'NONE', #204, #133, #312, .T. ) ;
#322 = CARTESIAN_POINT ( 'NONE',  ( 1.224646799147353454E-16, 0.0000000000000000000, 1.000000000000000000 ) ) ;
#323 = LINE ( 'NONE', #69, #105 ) ;
#324 = AXIS2_PLACEMENT_3D ( 'NONE', #70, #153, #28 ) ;
#325 = FACE_OUTER_BOUND ( 'NONE', #183, .T. ) ;
ENDSEC;
END-ISO-10303-21;
