ISO-10303-21;
HEADER;
FILE_DESCRIPTION (( 'STEP AP214' ),
    '1' );
FILE_NAME ('Micro_RDC-50.STEP',
    '2021-08-31T17:00:58',
    ( '' ),
    ( '' ),
    'SwSTEP 2.0',
    'SolidWorks 2020',
    '' );
FILE_SCHEMA (( 'AUTOMOTIVE_DESIGN' ));
ENDSEC;

DATA;
#1 = DIRECTION ( 'NONE',  ( 0.0000000000000000000, 0.0000000000000000000, 1.000000000000000000 ) ) ;
#2 = ADVANCED_FACE ( 'NONE', ( #32 ), #232, .T. ) ;
#3 = VECTOR ( 'NONE', #73, 39.37007874015748143 ) ;
#4 = ADVANCED_BREP_SHAPE_REPRESENTATION ( 'Micro_RDC-50', ( #245, #128 ), #68 ) ;
#5 = DIRECTION ( 'NONE',  ( -1.224646799147353207E-16, -0.0000000000000000000, -1.000000000000000000 ) ) ;
#6 = VERTEX_POINT ( 'NONE', #284 ) ;
#7 = LINE ( 'NONE', #83, #42 ) ;
#8 = DIRECTION ( 'NONE',  ( -1.224646799147353207E-16, -0.0000000000000000000, -1.000000000000000000 ) ) ;
#9 = CIRCLE ( 'NONE', #115, 0.09365624999999999645 ) ;
#10 = ORIENTED_EDGE ( 'NONE', *, *, #154, .F. ) ;
#11 = DIRECTION ( 'NONE',  ( 1.224646799147353207E-16, 0.0000000000000000000, 1.000000000000000000 ) ) ;
#12 = ORIENTED_EDGE ( 'NONE', *, *, #64, .T. ) ;
#13 = CARTESIAN_POINT ( 'NONE',  ( 0.09365624999999999645, 1.146958267826442798E-17, 0.0000000000000000000 ) ) ;
#14 = DIRECTION ( 'NONE',  ( 0.0000000000000000000, 0.0000000000000000000, -1.000000000000000000 ) ) ;
#15 = ADVANCED_FACE ( 'NONE', ( #84 ), #101, .T. ) ;
#16 = ORIENTED_EDGE ( 'NONE', *, *, #254, .T. ) ;
#17 = AXIS2_PLACEMENT_3D ( 'NONE', #157, #179, #243 ) ;
#18 = CARTESIAN_POINT ( 'NONE',  ( 0.1250000000000000000, 1.530808498934191509E-17, 2.000000000000000000 ) ) ;
#19 = CARTESIAN_POINT ( 'NONE',  ( 0.0000000000000000000, 0.0000000000000000000, 2.000000000000000000 ) ) ;
#20 = AXIS2_PLACEMENT_3D ( 'NONE', #246, #90, #109 ) ;
#21 = EDGE_CURVE ( 'NONE', #99, #126, #75, .T. ) ;
#22 = APPLICATION_PROTOCOL_DEFINITION ( 'draft international standard', 'automotive_design', 1998, #89 ) ;
#23 = CIRCLE ( 'NONE', #250, 0.09365624999999999645 ) ;
#24 = FILL_AREA_STYLE_COLOUR ( '', #103 ) ;
#25 = ADVANCED_FACE ( 'NONE', ( #235 ), #175, .T. ) ;
#26 = PLANE ( 'NONE',  #257 ) ;
#27 = DIRECTION ( 'NONE',  ( 1.000000000000000000, 0.0000000000000000000, -0.0000000000000000000 ) ) ;
#28 = CONICAL_SURFACE ( 'NONE', #110, 0.1099999999999996397, 0.7853981633974426169 ) ;
#29 = ORIENTED_EDGE ( 'NONE', *, *, #120, .T. ) ;
#30 = DIRECTION ( 'NONE',  ( 1.000000000000000000, 0.0000000000000000000, 0.0000000000000000000 ) ) ;
#31 = VERTEX_POINT ( 'NONE', #186 ) ;
#32 = FACE_OUTER_BOUND ( 'NONE', #150, .T. ) ;
#33 = DIRECTION ( 'NONE',  ( -1.000000000000000000, 0.0000000000000000000, 1.224646799147352961E-16 ) ) ;
#34 = AXIS2_PLACEMENT_3D ( 'NONE', #185, #5, #165 ) ;
#35 = ORIENTED_EDGE ( 'NONE', *, *, #120, .F. ) ;
#36 = LINE ( 'NONE', #267, #298 ) ;
#37 = ORIENTED_EDGE ( 'NONE', *, *, #71, .T. ) ;
#38 = LINE ( 'NONE', #18, #96 ) ;
#39 = ORIENTED_EDGE ( 'NONE', *, *, #213, .F. ) ;
#40 = UNCERTAINTY_MEASURE_WITH_UNIT (LENGTH_MEASURE( 1.000000000000000082E-05 ), #137, 'distance_accuracy_value', 'NONE');
#41 = DIRECTION ( 'NONE',  ( 1.000000000000000000, 0.0000000000000000000, -0.0000000000000000000 ) ) ;
#42 = VECTOR ( 'NONE', #229, 39.37007874015747433 ) ;
#43 = FILL_AREA_STYLE ('',( #266 ) ) ;
#44 = DIRECTION ( 'NONE',  ( 0.0000000000000000000, 0.0000000000000000000, -1.000000000000000000 ) ) ;
#45 = EDGE_CURVE ( 'NONE', #242, #102, #46, .T. ) ;
#46 = CIRCLE ( 'NONE', #49, 0.09365624999999999645 ) ;
#47 = LENGTH_MEASURE_WITH_UNIT ( LENGTH_MEASURE( 0.02539999999999999897 ), #202 );
#48 = ADVANCED_FACE ( 'NONE', ( #147 ), #51, .T. ) ;
#49 = AXIS2_PLACEMENT_3D ( 'NONE', #258, #149, #52 ) ;
#50 = CARTESIAN_POINT ( 'NONE',  ( 0.0000000000000000000, 0.0000000000000000000, 0.0000000000000000000 ) ) ;
#51 = CYLINDRICAL_SURFACE ( 'NONE', #264, 0.09365624999999999645 ) ;
#52 = DIRECTION ( 'NONE',  ( -1.000000000000000000, 0.0000000000000000000, 1.224646799147352961E-16 ) ) ;
#53 = VECTOR ( 'NONE', #97, 39.37007874015748143 ) ;
#54 = ORIENTED_EDGE ( 'NONE', *, *, #113, .F. ) ;
#55 = CLOSED_SHELL ( 'NONE', ( #48, #25, #183, #263, #15, #178, #139, #85, #2, #117 ) ) ;
#56 = DIRECTION ( 'NONE',  ( -1.000000000000000000, 0.0000000000000000000, 0.0000000000000000000 ) ) ;
#57 = EDGE_CURVE ( 'NONE', #102, #242, #23, .T. ) ;
#58 = DIRECTION ( 'NONE',  ( -1.000000000000000000, 0.0000000000000000000, 1.224646799147352961E-16 ) ) ;
#59 = ORIENTED_EDGE ( 'NONE', *, *, #171, .F. ) ;
#60 = DIRECTION ( 'NONE',  ( -1.224646799147353207E-16, -0.0000000000000000000, -1.000000000000000000 ) ) ;
#61 = CIRCLE ( 'NONE', #219, 0.1250000000000000000 ) ;
#62 = ORIENTED_EDGE ( 'NONE', *, *, #64, .F. ) ;
#63 = UNCERTAINTY_MEASURE_WITH_UNIT (LENGTH_MEASURE( 1.000000000000000082E-05 ), #225, 'distance_accuracy_value', 'NONE');
#64 = EDGE_CURVE ( 'NONE', #6, #102, #173, .T. ) ;
#65 = ORIENTED_EDGE ( 'NONE', *, *, #163, .T. ) ;
#66 =( LENGTH_UNIT ( ) NAMED_UNIT ( * ) SI_UNIT ( $, .METRE. ) );
#67 = SURFACE_STYLE_USAGE ( .BOTH. , #220 ) ;
#68 =( GEOMETRIC_REPRESENTATION_CONTEXT ( 3 ) GLOBAL_UNCERTAINTY_ASSIGNED_CONTEXT ( ( #218 ) ) GLOBAL_UNIT_ASSIGNED_CONTEXT ( ( #249, #161, #294 ) ) REPRESENTATION_CONTEXT ( 'NONE', 'WORKASPACE' ) );
#69 = DIRECTION ( 'NONE',  ( -1.224646799147353207E-16, -0.0000000000000000000, -1.000000000000000000 ) ) ;
#70 = PRODUCT_CONTEXT ( 'NONE', #236, 'mechanical' ) ;
#71 = EDGE_CURVE ( 'NONE', #134, #148, #122, .T. ) ;
#72 = AXIS2_PLACEMENT_3D ( 'NONE', #92, #14, #133 ) ;
#73 = DIRECTION ( 'NONE',  ( -0.0000000000000000000, -0.0000000000000000000, -1.000000000000000000 ) ) ;
#74 =( NAMED_UNIT ( * ) PLANE_ANGLE_UNIT ( ) SI_UNIT ( $, .RADIAN. ) );
#75 = CIRCLE ( 'NONE', #129, 0.1099999999999996397 ) ;
#76 = DIRECTION ( 'NONE',  ( -1.224646799147353207E-16, -0.0000000000000000000, -1.000000000000000000 ) ) ;
#77 = CARTESIAN_POINT ( 'NONE',  ( 9.830965331808376686E-17, 0.0000000000000000000, 0.8027592395336416997 ) ) ;
#78 = ORIENTED_EDGE ( 'NONE', *, *, #285, .T. ) ;
#79 = AXIS2_PLACEMENT_3D ( 'NONE', #160, #184, #118 ) ;
#80 = CARTESIAN_POINT ( 'NONE',  ( 0.1099999999999996397, 1.438959988998137757E-17, 2.000000000000000000 ) ) ;
#81 =( GEOMETRIC_REPRESENTATION_CONTEXT ( 3 ) GLOBAL_UNCERTAINTY_ASSIGNED_CONTEXT ( ( #40 ) ) GLOBAL_UNIT_ASSIGNED_CONTEXT ( ( #137, #221, #241 ) ) REPRESENTATION_CONTEXT ( 'NONE', 'WORKASPACE' ) );
#82 = EDGE_LOOP ( 'NONE', ( #29, #193, #151, #62 ) ) ;
#83 = CARTESIAN_POINT ( 'NONE',  ( -0.09365624999999992706, 1.146958267826442798E-17, 0.6250000000000000000 ) ) ;
#84 = FACE_OUTER_BOUND ( 'NONE', #262, .T. ) ;
#85 = ADVANCED_FACE ( 'NONE', ( #283 ), #141, .T. ) ;
#86 = ORIENTED_EDGE ( 'NONE', *, *, #100, .F. ) ;
#87 = FACE_OUTER_BOUND ( 'NONE', #105, .T. ) ;
#88 = CIRCLE ( 'NONE', #20, 0.1250000000000000000 ) ;
#89 = APPLICATION_CONTEXT ( 'automotive_design' ) ;
#90 = DIRECTION ( 'NONE',  ( 0.0000000000000000000, 0.0000000000000000000, -1.000000000000000000 ) ) ;
#91 = FACE_OUTER_BOUND ( 'NONE', #98, .T. ) ;
#92 = CARTESIAN_POINT ( 'NONE',  ( 0.0000000000000000000, 0.0000000000000000000, 2.000000000000000000 ) ) ;
#93 = SURFACE_STYLE_USAGE ( .BOTH. , #142 ) ;
#94 = CYLINDRICAL_SURFACE ( 'NONE', #79, 0.1250000000000000000 ) ;
#95 = AXIS2_PLACEMENT_3D ( 'NONE', #228, #164, #104 ) ;
#96 = VECTOR ( 'NONE', #216, 39.37007874015748143 ) ;
#97 = DIRECTION ( 'NONE',  ( -1.224646799147353207E-16, -0.0000000000000000000, -1.000000000000000000 ) ) ;
#98 = EDGE_LOOP ( 'NONE', ( #172, #277, #233, #59 ) ) ;
#99 = VERTEX_POINT ( 'NONE', #208 ) ;
#100 = EDGE_CURVE ( 'NONE', #6, #170, #7, .T. ) ;
#101 = CYLINDRICAL_SURFACE ( 'NONE', #156, 0.1250000000000000000 ) ;
#102 = VERTEX_POINT ( 'NONE', #169 ) ;
#103 = COLOUR_RGB ( '',0.7921568627450980005, 0.8196078431372548767, 0.9333333333333333481 ) ;
#104 = DIRECTION ( 'NONE',  ( 1.000000000000000000, 0.0000000000000000000, 0.0000000000000000000 ) ) ;
#105 = EDGE_LOOP ( 'NONE', ( #39, #189, #132, #192 ) ) ;
#106 = FACE_OUTER_BOUND ( 'NONE', #153, .T. ) ;
#107 = EDGE_LOOP ( 'NONE', ( #35, #111, #259, #174 ) ) ;
#108 = PRESENTATION_STYLE_ASSIGNMENT (( #67 ) ) ;
#109 = DIRECTION ( 'NONE',  ( 1.000000000000000000, 0.0000000000000000000, 0.0000000000000000000 ) ) ;
#110 = AXIS2_PLACEMENT_3D ( 'NONE', #135, #44, #180 ) ;
#111 = ORIENTED_EDGE ( 'NONE', *, *, #100, .T. ) ;
#112 = DIRECTION ( 'NONE',  ( -1.224646799147353207E-16, -0.0000000000000000000, -1.000000000000000000 ) ) ;
#113 = EDGE_CURVE ( 'NONE', #217, #170, #61, .T. ) ;
#114 = CARTESIAN_POINT ( 'NONE',  ( -0.1099999999999996397, 0.0000000000000000000, 2.000000000000000000 ) ) ;
#115 = AXIS2_PLACEMENT_3D ( 'NONE', #176, #69, #293 ) ;
#116 = LINE ( 'NONE', #275, #3 ) ;
#117 = ADVANCED_FACE ( 'NONE', ( #106 ), #26, .F. ) ;
#118 = DIRECTION ( 'NONE',  ( -1.000000000000000000, 0.0000000000000000000, 0.0000000000000000000 ) ) ;
#119 = PRESENTATION_STYLE_ASSIGNMENT (( #93 ) ) ;
#120 = EDGE_CURVE ( 'NONE', #6, #31, #288, .T. ) ;
#121 = CARTESIAN_POINT ( 'NONE',  ( 0.0000000000000000000, 0.0000000000000000000, 0.0000000000000000000 ) ) ;
#122 = CIRCLE ( 'NONE', #206, 0.1250000000000000000 ) ;
#123 = DIRECTION ( 'NONE',  ( 0.0000000000000000000, 0.0000000000000000000, 1.000000000000000000 ) ) ;
#124 = ORIENTED_EDGE ( 'NONE', *, *, #154, .T. ) ;
#125 = CARTESIAN_POINT ( 'NONE',  ( 0.0000000000000000000, 0.0000000000000000000, 0.0000000000000000000 ) ) ;
#126 = VERTEX_POINT ( 'NONE', #80 ) ;
#127 = DIRECTION ( 'NONE',  ( 1.000000000000000000, 0.0000000000000000000, 0.0000000000000000000 ) ) ;
#128 = AXIS2_PLACEMENT_3D ( 'NONE', #50, #223, #295 ) ;
#129 = AXIS2_PLACEMENT_3D ( 'NONE', #205, #123, #127 ) ;
#130 = DIRECTION ( 'NONE',  ( 0.0000000000000000000, 0.0000000000000000000, -1.000000000000000000 ) ) ;
#131 = CARTESIAN_POINT ( 'NONE',  ( -0.1250000000000000000, 0.0000000000000000000, 1.984999999999999432 ) ) ;
#132 = ORIENTED_EDGE ( 'NONE', *, *, #171, .T. ) ;
#133 = DIRECTION ( 'NONE',  ( -1.000000000000000000, 0.0000000000000000000, 0.0000000000000000000 ) ) ;
#134 = VERTEX_POINT ( 'NONE', #152 ) ;
#135 = CARTESIAN_POINT ( 'NONE',  ( 0.0000000000000000000, 0.0000000000000000000, 2.000000000000000000 ) ) ;
#136 = AXIS2_PLACEMENT_3D ( 'NONE', #19, #265, #41 ) ;
#137 =( CONVERSION_BASED_UNIT ( 'INCH', #290 ) LENGTH_UNIT ( ) NAMED_UNIT ( #247 ) );
#138 = LINE ( 'NONE', #114, #210 ) ;
#139 = ADVANCED_FACE ( 'NONE', ( #87 ), #28, .T. ) ;
#140 =( NAMED_UNIT ( * ) SI_UNIT ( $, .STERADIAN. ) SOLID_ANGLE_UNIT ( ) );
#141 = CONICAL_SURFACE ( 'NONE', #244, 0.09365624999999999645, 0.1745329251994338637 ) ;
#142 = SURFACE_SIDE_STYLE ('',( #297 ) ) ;
#143 = EDGE_CURVE ( 'NONE', #170, #217, #237, .T. ) ;
#144 = MECHANICAL_DESIGN_GEOMETRIC_PRESENTATION_REPRESENTATION (  '', ( #268 ), #234 ) ;
#145 = PRODUCT_RELATED_PRODUCT_CATEGORY ( 'part', '', ( #166 ) ) ;
#146 = CARTESIAN_POINT ( 'NONE',  ( 7.654042494670957853E-17, 0.0000000000000000000, 0.6250000000000000000 ) ) ;
#147 = FACE_OUTER_BOUND ( 'NONE', #82, .T. ) ;
#148 = VERTEX_POINT ( 'NONE', #131 ) ;
#149 = DIRECTION ( 'NONE',  ( -1.224646799147353207E-16, -0.0000000000000000000, -1.000000000000000000 ) ) ;
#150 = EDGE_LOOP ( 'NONE', ( #187, #124, #12, #194 ) ) ;
#151 = ORIENTED_EDGE ( 'NONE', *, *, #57, .F. ) ;
#152 = CARTESIAN_POINT ( 'NONE',  ( 0.1250000000000000000, 1.530808498934191509E-17, 1.984999999999999432 ) ) ;
#153 = EDGE_LOOP ( 'NONE', ( #239, #256 ) ) ;
#154 = EDGE_CURVE ( 'NONE', #31, #6, #9, .T. ) ;
#155 = DIRECTION ( 'NONE',  ( 1.000000000000000000, 0.0000000000000000000, 0.0000000000000000000 ) ) ;
#156 = AXIS2_PLACEMENT_3D ( 'NONE', #260, #191, #56 ) ;
#157 = CARTESIAN_POINT ( 'NONE',  ( 0.0000000000000000000, 0.0000000000000000000, 2.000000000000000000 ) ) ;
#158 = FACE_OUTER_BOUND ( 'NONE', #261, .T. ) ;
#159 = LINE ( 'NONE', #299, #181 ) ;
#160 = CARTESIAN_POINT ( 'NONE',  ( 0.0000000000000000000, 0.0000000000000000000, 2.000000000000000000 ) ) ;
#161 =( NAMED_UNIT ( * ) PLANE_ANGLE_UNIT ( ) SI_UNIT ( $, .RADIAN. ) );
#162 = LENGTH_MEASURE_WITH_UNIT ( LENGTH_MEASURE( 0.02539999999999999897 ), #201 );
#163 = EDGE_CURVE ( 'NONE', #148, #134, #88, .T. ) ;
#164 = DIRECTION ( 'NONE',  ( 1.224646799147353207E-16, 0.0000000000000000000, 1.000000000000000000 ) ) ;
#165 = DIRECTION ( 'NONE',  ( -1.000000000000000000, 0.0000000000000000000, 0.0000000000000000000 ) ) ;
#166 = PRODUCT ( 'Micro_RDC-50', 'Micro_RDC-50', '', ( #70 ) ) ;
#167 = ORIENTED_EDGE ( 'NONE', *, *, #272, .T. ) ;
#168 = STYLED_ITEM ( 'NONE', ( #108 ), #245 ) ;
#169 = CARTESIAN_POINT ( 'NONE',  ( -0.09365624999999999645, 0.0000000000000000000, 2.293916535652885596E-17 ) ) ;
#170 = VERTEX_POINT ( 'NONE', #197 ) ;
#171 = EDGE_CURVE ( 'NONE', #99, #148, #138, .T. ) ;
#172 = ORIENTED_EDGE ( 'NONE', *, *, #254, .F. ) ;
#173 = LINE ( 'NONE', #278, #53 ) ;
#174 = ORIENTED_EDGE ( 'NONE', *, *, #272, .F. ) ;
#175 = CONICAL_SURFACE ( 'NONE', #95, 0.09365624999999999645, 0.1745329251994338637 ) ;
#176 = CARTESIAN_POINT ( 'NONE',  ( 7.654042494670957853E-17, 0.0000000000000000000, 0.6250000000000000000 ) ) ;
#177 = ORIENTED_EDGE ( 'NONE', *, *, #113, .T. ) ;
#178 = ADVANCED_FACE ( 'NONE', ( #198 ), #222, .T. ) ;
#179 = DIRECTION ( 'NONE',  ( 0.0000000000000000000, 0.0000000000000000000, 1.000000000000000000 ) ) ;
#180 = DIRECTION ( 'NONE',  ( -1.000000000000000000, 0.0000000000000000000, 0.0000000000000000000 ) ) ;
#181 = VECTOR ( 'NONE', #203, 39.37007874015748143 ) ;
#182 = LINE ( 'NONE', #271, #224 ) ;
#183 = ADVANCED_FACE ( 'NONE', ( #91 ), #281, .T. ) ;
#184 = DIRECTION ( 'NONE',  ( -0.0000000000000000000, -0.0000000000000000000, -1.000000000000000000 ) ) ;
#185 = CARTESIAN_POINT ( 'NONE',  ( 7.654042494670957853E-17, 0.0000000000000000000, 0.6250000000000000000 ) ) ;
#186 = CARTESIAN_POINT ( 'NONE',  ( 0.09365625000000006584, 0.0000000000000000000, 0.6250000000000000000 ) ) ;
#187 = ORIENTED_EDGE ( 'NONE', *, *, #204, .F. ) ;
#188 = DIRECTION ( 'NONE',  ( 1.000000000000000000, 0.0000000000000000000, 0.0000000000000000000 ) ) ;
#189 = ORIENTED_EDGE ( 'NONE', *, *, #21, .F. ) ;
#190 = CIRCLE ( 'NONE', #17, 0.1099999999999996397 ) ;
#191 = DIRECTION ( 'NONE',  ( -0.0000000000000000000, -0.0000000000000000000, -1.000000000000000000 ) ) ;
#192 = ORIENTED_EDGE ( 'NONE', *, *, #71, .F. ) ;
#193 = ORIENTED_EDGE ( 'NONE', *, *, #204, .T. ) ;
#194 = ORIENTED_EDGE ( 'NONE', *, *, #45, .F. ) ;
#195 = PRODUCT_DEFINITION ( 'UNKNOWN', '', #292, #240 ) ;
#196 = AXIS2_PLACEMENT_3D ( 'NONE', #199, #112, #155 ) ;
#197 = CARTESIAN_POINT ( 'NONE',  ( -0.1249999999999999029, 0.0000000000000000000, 0.8027592395336416997 ) ) ;
#198 = FACE_OUTER_BOUND ( 'NONE', #287, .T. ) ;
#199 = CARTESIAN_POINT ( 'NONE',  ( 9.830965331808376686E-17, 0.0000000000000000000, 0.8027592395336416997 ) ) ;
#200 = SHAPE_DEFINITION_REPRESENTATION ( #252, #4 ) ;
#201 =( LENGTH_UNIT ( ) NAMED_UNIT ( * ) SI_UNIT ( $, .METRE. ) );
#202 =( LENGTH_UNIT ( ) NAMED_UNIT ( * ) SI_UNIT ( $, .METRE. ) );
#203 = DIRECTION ( 'NONE',  ( 0.1736481776669313581, 0.0000000000000000000, 0.9848077530122077983 ) ) ;
#204 = EDGE_CURVE ( 'NONE', #31, #242, #182, .T. ) ;
#205 = CARTESIAN_POINT ( 'NONE',  ( 0.0000000000000000000, 0.0000000000000000000, 2.000000000000000000 ) ) ;
#206 = AXIS2_PLACEMENT_3D ( 'NONE', #255, #130, #211 ) ;
#207 = DIRECTION ( 'NONE',  ( -1.000000000000000000, 0.0000000000000000000, 1.224646799147352961E-16 ) ) ;
#208 = CARTESIAN_POINT ( 'NONE',  ( -0.1099999999999996397, 0.0000000000000000000, 2.000000000000000000 ) ) ;
#209 = DIRECTION ( 'NONE',  ( -1.224646799147353207E-16, -0.0000000000000000000, -1.000000000000000000 ) ) ;
#210 = VECTOR ( 'NONE', #291, 39.37007874015748143 ) ;
#211 = DIRECTION ( 'NONE',  ( 1.000000000000000000, 0.0000000000000000000, 0.0000000000000000000 ) ) ;
#212 = ORIENTED_EDGE ( 'NONE', *, *, #248, .F. ) ;
#213 = EDGE_CURVE ( 'NONE', #126, #134, #36, .T. ) ;
#214 = CARTESIAN_POINT ( 'NONE',  ( 0.1250000000000001110, 1.530808498934192742E-17, 0.8027592395336416997 ) ) ;
#215 = EDGE_LOOP ( 'NONE', ( #86, #10, #167, #177 ) ) ;
#216 = DIRECTION ( 'NONE',  ( -0.0000000000000000000, -0.0000000000000000000, -1.000000000000000000 ) ) ;
#217 = VERTEX_POINT ( 'NONE', #214 ) ;
#218 = UNCERTAINTY_MEASURE_WITH_UNIT (LENGTH_MEASURE( 1.000000000000000082E-05 ), #249, 'distance_accuracy_value', 'NONE');
#219 = AXIS2_PLACEMENT_3D ( 'NONE', #77, #60, #188 ) ;
#220 = SURFACE_SIDE_STYLE ('',( #269 ) ) ;
#221 =( NAMED_UNIT ( * ) PLANE_ANGLE_UNIT ( ) SI_UNIT ( $, .RADIAN. ) );
#222 = PLANE ( 'NONE',  #136 ) ;
#223 = DIRECTION ( 'NONE',  ( 0.0000000000000000000, 0.0000000000000000000, 1.000000000000000000 ) ) ;
#224 = VECTOR ( 'NONE', #238, 39.37007874015748143 ) ;
#225 =( CONVERSION_BASED_UNIT ( 'INCH', #162 ) LENGTH_UNIT ( ) NAMED_UNIT ( #227 ) );
#226 = APPLICATION_PROTOCOL_DEFINITION ( 'draft international standard', 'automotive_design', 1998, #236 ) ;
#227 = DIMENSIONAL_EXPONENTS ( 1.000000000000000000, 0.0000000000000000000, 0.0000000000000000000, 0.0000000000000000000, 0.0000000000000000000, 0.0000000000000000000, 0.0000000000000000000 ) ;
#228 = CARTESIAN_POINT ( 'NONE',  ( 7.654042494670957853E-17, 0.0000000000000000000, 0.6250000000000000000 ) ) ;
#229 = DIRECTION ( 'NONE',  ( -0.1736481776669311639, 2.126576849575783008E-17, 0.9848077530122080203 ) ) ;
#230 = MECHANICAL_DESIGN_GEOMETRIC_PRESENTATION_REPRESENTATION (  '', ( #168 ), #81 ) ;
#231 = CARTESIAN_POINT ( 'NONE',  ( 1.404618771449245766E-33, 0.0000000000000000000, 1.146958267826442798E-17 ) ) ;
#232 = CYLINDRICAL_SURFACE ( 'NONE', #270, 0.09365624999999999645 ) ;
#233 = ORIENTED_EDGE ( 'NONE', *, *, #163, .F. ) ;
#234 =( GEOMETRIC_REPRESENTATION_CONTEXT ( 3 ) GLOBAL_UNCERTAINTY_ASSIGNED_CONTEXT ( ( #63 ) ) GLOBAL_UNIT_ASSIGNED_CONTEXT ( ( #225, #74, #140 ) ) REPRESENTATION_CONTEXT ( 'NONE', 'WORKASPACE' ) );
#235 = FACE_OUTER_BOUND ( 'NONE', #107, .T. ) ;
#236 = APPLICATION_CONTEXT ( 'automotive_design' ) ;
#237 = CIRCLE ( 'NONE', #196, 0.1250000000000000000 ) ;
#238 = DIRECTION ( 'NONE',  ( -1.224646799147353207E-16, -0.0000000000000000000, -1.000000000000000000 ) ) ;
#239 = ORIENTED_EDGE ( 'NONE', *, *, #57, .T. ) ;
#240 = PRODUCT_DEFINITION_CONTEXT ( 'detailed design', #89, 'design' ) ;
#241 =( NAMED_UNIT ( * ) SI_UNIT ( $, .STERADIAN. ) SOLID_ANGLE_UNIT ( ) );
#242 = VERTEX_POINT ( 'NONE', #13 ) ;
#243 = DIRECTION ( 'NONE',  ( 1.000000000000000000, 0.0000000000000000000, 0.0000000000000000000 ) ) ;
#244 = AXIS2_PLACEMENT_3D ( 'NONE', #146, #11, #30 ) ;
#245 = MANIFOLD_SOLID_BREP ( 'Cut-Revolve1', #55 ) ;
#246 = CARTESIAN_POINT ( 'NONE',  ( 0.0000000000000000000, 0.0000000000000000000, 1.984999999999999432 ) ) ;
#247 = DIMENSIONAL_EXPONENTS ( 1.000000000000000000, 0.0000000000000000000, 0.0000000000000000000, 0.0000000000000000000, 0.0000000000000000000, 0.0000000000000000000, 0.0000000000000000000 ) ;
#248 = EDGE_CURVE ( 'NONE', #134, #217, #38, .T. ) ;
#249 =( CONVERSION_BASED_UNIT ( 'INCH', #47 ) LENGTH_UNIT ( ) NAMED_UNIT ( #296 ) );
#250 = AXIS2_PLACEMENT_3D ( 'NONE', #231, #8, #33 ) ;
#251 = PRESENTATION_LAYER_ASSIGNMENT (  '', '', ( #268 ) ) ;
#252 = PRODUCT_DEFINITION_SHAPE ( 'NONE', 'NONE',  #195 ) ;
#253 = CARTESIAN_POINT ( 'NONE',  ( 0.0000000000000000000, 0.0000000000000000000, 0.0000000000000000000 ) ) ;
#254 = EDGE_CURVE ( 'NONE', #126, #99, #190, .T. ) ;
#255 = CARTESIAN_POINT ( 'NONE',  ( 0.0000000000000000000, 0.0000000000000000000, 1.984999999999999432 ) ) ;
#256 = ORIENTED_EDGE ( 'NONE', *, *, #45, .T. ) ;
#257 = AXIS2_PLACEMENT_3D ( 'NONE', #121, #1, #27 ) ;
#258 = CARTESIAN_POINT ( 'NONE',  ( 1.404618771449245766E-33, 0.0000000000000000000, 1.146958267826442798E-17 ) ) ;
#259 = ORIENTED_EDGE ( 'NONE', *, *, #143, .T. ) ;
#260 = CARTESIAN_POINT ( 'NONE',  ( 0.0000000000000000000, 0.0000000000000000000, 2.000000000000000000 ) ) ;
#261 = EDGE_LOOP ( 'NONE', ( #65, #282, #279, #286 ) ) ;
#262 = EDGE_LOOP ( 'NONE', ( #212, #37, #78, #54 ) ) ;
#263 = ADVANCED_FACE ( 'NONE', ( #158 ), #94, .T. ) ;
#264 = AXIS2_PLACEMENT_3D ( 'NONE', #125, #209, #207 ) ;
#265 = DIRECTION ( 'NONE',  ( 0.0000000000000000000, 0.0000000000000000000, 1.000000000000000000 ) ) ;
#266 = FILL_AREA_STYLE_COLOUR ( '', #276 ) ;
#267 = CARTESIAN_POINT ( 'NONE',  ( 0.1099999999999996397, 1.347111479062084158E-17, 2.000000000000000000 ) ) ;
#268 = STYLED_ITEM ( 'NONE', ( #119 ), #4 ) ;
#269 = SURFACE_STYLE_FILL_AREA ( #43 ) ;
#270 = AXIS2_PLACEMENT_3D ( 'NONE', #253, #76, #58 ) ;
#271 = CARTESIAN_POINT ( 'NONE',  ( 0.09365624999999999645, 1.146958267826442798E-17, -1.146958267826442798E-17 ) ) ;
#272 = EDGE_CURVE ( 'NONE', #31, #217, #159, .T. ) ;
#273 = FILL_AREA_STYLE ('',( #24 ) ) ;
#274 = PRESENTATION_LAYER_ASSIGNMENT (  '', '', ( #168 ) ) ;
#275 = CARTESIAN_POINT ( 'NONE',  ( -0.1250000000000000000, 0.0000000000000000000, 2.000000000000000000 ) ) ;
#276 = COLOUR_RGB ( '',0.7921568627450980005, 0.8196078431372548767, 0.9333333333333333481 ) ;
#277 = ORIENTED_EDGE ( 'NONE', *, *, #213, .T. ) ;
#278 = CARTESIAN_POINT ( 'NONE',  ( -0.09365624999999999645, 0.0000000000000000000, 1.146958267826442798E-17 ) ) ;
#279 = ORIENTED_EDGE ( 'NONE', *, *, #143, .F. ) ;
#280 = ORIENTED_EDGE ( 'NONE', *, *, #21, .T. ) ;
#281 = CONICAL_SURFACE ( 'NONE', #72, 0.1099999999999996397, 0.7853981633974426169 ) ;
#282 = ORIENTED_EDGE ( 'NONE', *, *, #248, .T. ) ;
#283 = FACE_OUTER_BOUND ( 'NONE', #215, .T. ) ;
#284 = CARTESIAN_POINT ( 'NONE',  ( -0.09365624999999992706, 1.338883383380317231E-17, 0.6250000000000000000 ) ) ;
#285 = EDGE_CURVE ( 'NONE', #148, #170, #116, .T. ) ;
#286 = ORIENTED_EDGE ( 'NONE', *, *, #285, .F. ) ;
#287 = EDGE_LOOP ( 'NONE', ( #280, #16 ) ) ;
#288 = CIRCLE ( 'NONE', #34, 0.09365624999999999645 ) ;
#289 = DIRECTION ( 'NONE',  ( 0.7071067811865434649, 8.659560562354883554E-17, -0.7071067811865515695 ) ) ;
#290 = LENGTH_MEASURE_WITH_UNIT ( LENGTH_MEASURE( 0.02539999999999999897 ), #66 );
#291 = DIRECTION ( 'NONE',  ( -0.7071067811865434649, 0.0000000000000000000, -0.7071067811865515695 ) ) ;
#292 = PRODUCT_DEFINITION_FORMATION_WITH_SPECIFIED_SOURCE ( 'ANY', '', #166, .NOT_KNOWN. ) ;
#293 = DIRECTION ( 'NONE',  ( -1.000000000000000000, 0.0000000000000000000, 0.0000000000000000000 ) ) ;
#294 =( NAMED_UNIT ( * ) SI_UNIT ( $, .STERADIAN. ) SOLID_ANGLE_UNIT ( ) );
#295 = DIRECTION ( 'NONE',  ( 1.000000000000000000, 0.0000000000000000000, 0.0000000000000000000 ) ) ;
#296 = DIMENSIONAL_EXPONENTS ( 1.000000000000000000, 0.0000000000000000000, 0.0000000000000000000, 0.0000000000000000000, 0.0000000000000000000, 0.0000000000000000000, 0.0000000000000000000 ) ;
#297 = SURFACE_STYLE_FILL_AREA ( #273 ) ;
#298 = VECTOR ( 'NONE', #289, 39.37007874015748143 ) ;
#299 = CARTESIAN_POINT ( 'NONE',  ( 0.09365625000000006584, 0.0000000000000000000, 0.6250000000000000000 ) ) ;
ENDSEC;
END-ISO-10303-21;
