ISO-10303-21;
HEADER;
FILE_DESCRIPTION (( 'STEP AP214' ),
    '1' );
FILE_NAME ('Micro_BEM-250-04X.STEP',
    '2021-09-03T13:09:31',
    ( '' ),
    ( '' ),
    'SwSTEP 2.0',
    'SolidWorks 2020',
    '' );
FILE_SCHEMA (( 'AUTOMOTIVE_DESIGN' ));
ENDSEC;

DATA;
#1 = DIRECTION ( 'NONE',  ( 1.000000000000000000, 0.0000000000000000000, 0.0000000000000000000 ) ) ;
#2 = PRESENTATION_LAYER_ASSIGNMENT (  '', '', ( #314 ) ) ;
#3 = ADVANCED_FACE ( 'NONE', ( #21 ), #283, .T. ) ;
#4 = CARTESIAN_POINT ( 'NONE',  ( 1.529277690435257475E-17, 0.0000000000000000000, 0.1248749999999999999 ) ) ;
#5 = VERTEX_POINT ( 'NONE', #58 ) ;
#6 = APPLICATION_CONTEXT ( 'automotive_design' ) ;
#7 = SPHERICAL_SURFACE ( 'NONE', #173, 0.1248749999999999999 ) ;
#8 = DIRECTION ( 'NONE',  ( 0.7071067811865499042, 8.659560562354961208E-17, -0.7071067811865451302 ) ) ;
#9 = CIRCLE ( 'NONE', #50, 0.1250000000000000000 ) ;
#10 = DIRECTION ( 'NONE',  ( 0.0000000000000000000, 0.0000000000000000000, 1.000000000000000000 ) ) ;
#11 = AXIS2_PLACEMENT_3D ( 'NONE', #4, #286, #118 ) ;
#12 = SURFACE_SIDE_STYLE ('',( #124 ) ) ;
#13 = PRODUCT_DEFINITION_SHAPE ( 'NONE', 'NONE',  #128 ) ;
#14 = DIRECTION ( 'NONE',  ( -1.224646799147353207E-16, -0.0000000000000000000, -1.000000000000000000 ) ) ;
#15 = CARTESIAN_POINT ( 'NONE',  ( 0.1250000000000000000, 1.530808498934191509E-17, 2.485000000000000320 ) ) ;
#16 = DIMENSIONAL_EXPONENTS ( 1.000000000000000000, 0.0000000000000000000, 0.0000000000000000000, 0.0000000000000000000, 0.0000000000000000000, 0.0000000000000000000, 0.0000000000000000000 ) ;
#17 = FILL_AREA_STYLE ('',( #69 ) ) ;
#18 = CONICAL_SURFACE ( 'NONE', #201, 0.1248749999999999999, 0.1745329251994340025 ) ;
#19 = DIRECTION ( 'NONE',  ( 0.0000000000000000000, 0.0000000000000000000, 1.000000000000000000 ) ) ;
#20 = EDGE_LOOP ( 'NONE', ( #236, #141, #65, #268 ) ) ;
#21 = FACE_OUTER_BOUND ( 'NONE', #136, .T. ) ;
#22 = EDGE_LOOP ( 'NONE', ( #144, #107, #76, #94 ) ) ;
#23 = AXIS2_PLACEMENT_3D ( 'NONE', #123, #98, #270 ) ;
#24 = CARTESIAN_POINT ( 'NONE',  ( 0.0000000000000000000, 0.0000000000000000000, 0.0000000000000000000 ) ) ;
#25 = CARTESIAN_POINT ( 'NONE',  ( 0.1100000000000001948, 1.347111479062090784E-17, 2.500000000000000000 ) ) ;
#26 = ORIENTED_EDGE ( 'NONE', *, *, #198, .T. ) ;
#27 = UNCERTAINTY_MEASURE_WITH_UNIT (LENGTH_MEASURE( 1.000000000000000082E-05 ), #156, 'distance_accuracy_value', 'NONE');
#28 = FACE_OUTER_BOUND ( 'NONE', #53, .T. ) ;
#29 = FACE_OUTER_BOUND ( 'NONE', #159, .T. ) ;
#30 = PRESENTATION_STYLE_ASSIGNMENT (( #92 ) ) ;
#31 = CIRCLE ( 'NONE', #133, 0.1250000000000000000 ) ;
#32 =( CONVERSION_BASED_UNIT ( 'INCH', #222 ) LENGTH_UNIT ( ) NAMED_UNIT ( #246 ) );
#33 = EDGE_CURVE ( 'NONE', #5, #252, #193, .T. ) ;
#34 = ORIENTED_EDGE ( 'NONE', *, *, #64, .T. ) ;
#35 = DIMENSIONAL_EXPONENTS ( 1.000000000000000000, 0.0000000000000000000, 0.0000000000000000000, 0.0000000000000000000, 0.0000000000000000000, 0.0000000000000000000, 0.0000000000000000000 ) ;
#36 =( NAMED_UNIT ( * ) SI_UNIT ( $, .STERADIAN. ) SOLID_ANGLE_UNIT ( ) );
#37 = CIRCLE ( 'NONE', #126, 0.1248749999999999999 ) ;
#38 = DIRECTION ( 'NONE',  ( -1.000000000000000000, 0.0000000000000000000, 0.0000000000000000000 ) ) ;
#39 =( NAMED_UNIT ( * ) PLANE_ANGLE_UNIT ( ) SI_UNIT ( $, .RADIAN. ) );
#40 = ORIENTED_EDGE ( 'NONE', *, *, #208, .T. ) ;
#41 = STYLED_ITEM ( 'NONE', ( #180 ), #271 ) ;
#42 = PRODUCT_DEFINITION_CONTEXT ( 'detailed design', #162, 'design' ) ;
#43 = DIRECTION ( 'NONE',  ( -1.000000000000000000, 0.0000000000000000000, 1.367291288120251888E-16 ) ) ;
#44 = FILL_AREA_STYLE ('',( #183 ) ) ;
#45 = DIRECTION ( 'NONE',  ( -0.0000000000000000000, -0.0000000000000000000, -1.000000000000000000 ) ) ;
#46 = ORIENTED_EDGE ( 'NONE', *, *, #203, .T. ) ;
#47 = PRODUCT_RELATED_PRODUCT_CATEGORY ( 'part', '', ( #185 ) ) ;
#48 = ORIENTED_EDGE ( 'NONE', *, *, #198, .F. ) ;
#49 = LENGTH_MEASURE_WITH_UNIT ( LENGTH_MEASURE( 0.02539999999999999897 ), #105 );
#50 = AXIS2_PLACEMENT_3D ( 'NONE', #189, #55, #293 ) ;
#51 = AXIS2_PLACEMENT_3D ( 'NONE', #306, #150, #241 ) ;
#52 = ADVANCED_FACE ( 'NONE', ( #184 ), #176, .T. ) ;
#53 = EDGE_LOOP ( 'NONE', ( #164, #234, #301 ) ) ;
#54 = DIRECTION ( 'NONE',  ( 1.000000000000000000, 0.0000000000000000000, -0.0000000000000000000 ) ) ;
#55 = DIRECTION ( 'NONE',  ( -1.224646799147353207E-16, -0.0000000000000000000, -1.000000000000000000 ) ) ;
#56 = CARTESIAN_POINT ( 'NONE',  ( 1.529277690435257475E-17, 0.0000000000000000000, 0.1248749999999999999 ) ) ;
#57 = DIRECTION ( 'NONE',  ( 0.1736481776669314969, 0.0000000000000000000, 0.9848077530122077983 ) ) ;
#58 = CARTESIAN_POINT ( 'NONE',  ( 0.1248750000000000276, 1.529277690435257475E-17, 0.1248749999999999860 ) ) ;
#59 = EDGE_CURVE ( 'NONE', #207, #254, #9, .T. ) ;
#60 = DIRECTION ( 'NONE',  ( -1.224646799147353207E-16, -0.0000000000000000000, -1.000000000000000000 ) ) ;
#61 = DIRECTION ( 'NONE',  ( 1.224646799147353207E-16, 0.0000000000000000000, 1.000000000000000000 ) ) ;
#62 = CIRCLE ( 'NONE', #112, 0.1250000000000000000 ) ;
#63 = VECTOR ( 'NONE', #214, 39.37007874015748143 ) ;
#64 = EDGE_CURVE ( 'NONE', #212, #254, #90, .T. ) ;
#65 = ORIENTED_EDGE ( 'NONE', *, *, #33, .T. ) ;
#66 = DIRECTION ( 'NONE',  ( -1.000000000000000000, 0.0000000000000000000, 0.0000000000000000000 ) ) ;
#67 = CARTESIAN_POINT ( 'NONE',  ( -0.1100000000000001948, 0.0000000000000000000, 2.500000000000000000 ) ) ;
#68 = VERTEX_POINT ( 'NONE', #170 ) ;
#69 = FILL_AREA_STYLE_COLOUR ( '', #319 ) ;
#70 = AXIS2_PLACEMENT_3D ( 'NONE', #202, #179, #262 ) ;
#71 = MECHANICAL_DESIGN_GEOMETRIC_PRESENTATION_REPRESENTATION (  '', ( #41 ), #255 ) ;
#72 = MECHANICAL_DESIGN_GEOMETRIC_PRESENTATION_REPRESENTATION (  '', ( #314 ), #309 ) ;
#73 = ORIENTED_EDGE ( 'NONE', *, *, #59, .T. ) ;
#74 = CARTESIAN_POINT ( 'NONE',  ( 0.0000000000000000000, 0.0000000000000000000, 2.485000000000000320 ) ) ;
#75 =( NAMED_UNIT ( * ) SI_UNIT ( $, .STERADIAN. ) SOLID_ANGLE_UNIT ( ) );
#76 = ORIENTED_EDGE ( 'NONE', *, *, #78, .T. ) ;
#77 = DIRECTION ( 'NONE',  ( -0.0000000000000000000, -0.0000000000000000000, -1.000000000000000000 ) ) ;
#78 = EDGE_CURVE ( 'NONE', #68, #252, #83, .T. ) ;
#79 = VECTOR ( 'NONE', #116, 39.37007874015748143 ) ;
#80 = EDGE_LOOP ( 'NONE', ( #26, #229 ) ) ;
#81 = AXIS2_PLACEMENT_3D ( 'NONE', #169, #148, #143 ) ;
#82 = CARTESIAN_POINT ( 'NONE',  ( 1.529277690435257475E-17, 0.0000000000000000000, 0.1248749999999999999 ) ) ;
#83 = LINE ( 'NONE', #237, #79 ) ;
#84 = LINE ( 'NONE', #25, #172 ) ;
#85 = PLANE ( 'NONE',  #280 ) ;
#86 = ADVANCED_FACE ( 'NONE', ( #284 ), #85, .T. ) ;
#87 = AXIS2_PLACEMENT_3D ( 'NONE', #213, #97, #43 ) ;
#88 = AXIS2_PLACEMENT_3D ( 'NONE', #274, #95, #66 ) ;
#89 = LINE ( 'NONE', #145, #178 ) ;
#90 = LINE ( 'NONE', #298, #101 ) ;
#91 = CARTESIAN_POINT ( 'NONE',  ( 0.0000000000000000000, 0.0000000000000000000, 2.500000000000000000 ) ) ;
#92 = SURFACE_STYLE_USAGE ( .BOTH. , #12 ) ;
#93 = EDGE_CURVE ( 'NONE', #247, #139, #318, .T. ) ;
#94 = ORIENTED_EDGE ( 'NONE', *, *, #181, .T. ) ;
#95 = DIRECTION ( 'NONE',  ( -1.224646799147353207E-16, -0.0000000000000000000, -1.000000000000000000 ) ) ;
#96 = CIRCLE ( 'NONE', #154, 0.1250000000000000000 ) ;
#97 = DIRECTION ( 'NONE',  ( 1.224646799147353207E-16, 0.0000000000000000000, 1.000000000000000000 ) ) ;
#98 = DIRECTION ( 'NONE',  ( 1.224646799147353207E-16, 0.0000000000000000000, 1.000000000000000000 ) ) ;
#99 =( LENGTH_UNIT ( ) NAMED_UNIT ( * ) SI_UNIT ( $, .METRE. ) );
#100 = DIRECTION ( 'NONE',  ( -1.000000000000000000, 0.0000000000000000000, 1.224646799147353454E-16 ) ) ;
#101 = VECTOR ( 'NONE', #45, 39.37007874015748143 ) ;
#102 =( NAMED_UNIT ( * ) SI_UNIT ( $, .STERADIAN. ) SOLID_ANGLE_UNIT ( ) );
#103 = ORIENTED_EDGE ( 'NONE', *, *, #137, .T. ) ;
#104 = EDGE_CURVE ( 'NONE', #247, #212, #84, .T. ) ;
#105 =( LENGTH_UNIT ( ) NAMED_UNIT ( * ) SI_UNIT ( $, .METRE. ) );
#106 = CIRCLE ( 'NONE', #265, 0.1248749999999999999 ) ;
#107 = ORIENTED_EDGE ( 'NONE', *, *, #316, .T. ) ;
#108 = EDGE_CURVE ( 'NONE', #205, #207, #217, .T. ) ;
#109 = APPLICATION_PROTOCOL_DEFINITION ( 'draft international standard', 'automotive_design', 1998, #162 ) ;
#110 = ORIENTED_EDGE ( 'NONE', *, *, #147, .F. ) ;
#111 = CARTESIAN_POINT ( 'NONE',  ( 1.529277690435257475E-17, 0.0000000000000000000, 0.1248749999999999999 ) ) ;
#112 = AXIS2_PLACEMENT_3D ( 'NONE', #192, #60, #282 ) ;
#113 = ORIENTED_EDGE ( 'NONE', *, *, #316, .F. ) ;
#114 = AXIS2_PLACEMENT_3D ( 'NONE', #244, #14, #100 ) ;
#115 = SPHERICAL_SURFACE ( 'NONE', #226, 0.1248749999999999999 ) ;
#116 = DIRECTION ( 'NONE',  ( -1.224646799147353207E-16, -0.0000000000000000000, -1.000000000000000000 ) ) ;
#117 = EDGE_CURVE ( 'NONE', #254, #207, #62, .T. ) ;
#118 = DIRECTION ( 'NONE',  ( 0.0000000000000000000, 0.0000000000000000000, -1.000000000000000000 ) ) ;
#119 = AXIS2_PLACEMENT_3D ( 'NONE', #24, #19, #135 ) ;
#120 = DIRECTION ( 'NONE',  ( 0.0000000000000000000, 0.0000000000000000000, -1.000000000000000000 ) ) ;
#121 = ORIENTED_EDGE ( 'NONE', *, *, #104, .F. ) ;
#122 = EDGE_CURVE ( 'NONE', #251, #5, #295, .T. ) ;
#123 = CARTESIAN_POINT ( 'NONE',  ( 9.184850993605150903E-17, 0.0000000000000000000, 0.7500000000000001110 ) ) ;
#124 = SURFACE_STYLE_FILL_AREA ( #17 ) ;
#125 = FACE_OUTER_BOUND ( 'NONE', #190, .T. ) ;
#126 = AXIS2_PLACEMENT_3D ( 'NONE', #56, #191, #194 ) ;
#127 = CYLINDRICAL_SURFACE ( 'NONE', #249, 0.1248749999999999999 ) ;
#128 = PRODUCT_DEFINITION ( 'UNKNOWN', '', #187, #42 ) ;
#129 = DIRECTION ( 'NONE',  ( 1.000000000000000000, 0.0000000000000000000, 0.0000000000000000000 ) ) ;
#130 = CLOSED_SHELL ( 'NONE', ( #206, #310, #250, #52, #266, #3, #86, #240, #166, #320, #175 ) ) ;
#131 = SURFACE_STYLE_USAGE ( .BOTH. , #161 ) ;
#132 = AXIS2_PLACEMENT_3D ( 'NONE', #165, #10, #1 ) ;
#133 = AXIS2_PLACEMENT_3D ( 'NONE', #287, #120, #171 ) ;
#134 = ORIENTED_EDGE ( 'NONE', *, *, #64, .F. ) ;
#135 = DIRECTION ( 'NONE',  ( 1.000000000000000000, 0.0000000000000000000, 0.0000000000000000000 ) ) ;
#136 = EDGE_LOOP ( 'NONE', ( #134, #288, #323, #277 ) ) ;
#137 = EDGE_CURVE ( 'NONE', #160, #254, #89, .T. ) ;
#138 = VECTOR ( 'NONE', #264, 39.37007874015748143 ) ;
#139 = VERTEX_POINT ( 'NONE', #209 ) ;
#140 = UNCERTAINTY_MEASURE_WITH_UNIT (LENGTH_MEASURE( 1.000000000000000082E-05 ), #32, 'distance_accuracy_value', 'NONE');
#141 = ORIENTED_EDGE ( 'NONE', *, *, #155, .T. ) ;
#142 = ORIENTED_EDGE ( 'NONE', *, *, #157, .F. ) ;
#143 = DIRECTION ( 'NONE',  ( -1.000000000000000000, 0.0000000000000000000, 0.0000000000000000000 ) ) ;
#144 = ORIENTED_EDGE ( 'NONE', *, *, #155, .F. ) ;
#145 = CARTESIAN_POINT ( 'NONE',  ( 0.1248750000000000970, 0.0000000000000000000, 0.7500000000000001110 ) ) ;
#146 = PRESENTATION_LAYER_ASSIGNMENT (  '', '', ( #41 ) ) ;
#147 = EDGE_CURVE ( 'NONE', #251, #252, #37, .T. ) ;
#148 = DIRECTION ( 'NONE',  ( -1.224646799147353207E-16, -0.0000000000000000000, -1.000000000000000000 ) ) ;
#149 = DIRECTION ( 'NONE',  ( 0.0000000000000000000, 0.0000000000000000000, 1.000000000000000000 ) ) ;
#150 = DIRECTION ( 'NONE',  ( 0.0000000000000000000, 0.0000000000000000000, 1.000000000000000000 ) ) ;
#151 = DIRECTION ( 'NONE',  ( 0.0000000000000000000, 0.0000000000000000000, -1.000000000000000000 ) ) ;
#152 = CYLINDRICAL_SURFACE ( 'NONE', #114, 0.1248749999999999999 ) ;
#153 = FACE_OUTER_BOUND ( 'NONE', #22, .T. ) ;
#154 = AXIS2_PLACEMENT_3D ( 'NONE', #74, #151, #225 ) ;
#155 = EDGE_CURVE ( 'NONE', #160, #5, #195, .T. ) ;
#156 =( CONVERSION_BASED_UNIT ( 'INCH', #227 ) LENGTH_UNIT ( ) NAMED_UNIT ( #16 ) );
#157 = EDGE_CURVE ( 'NONE', #68, #160, #285, .T. ) ;
#158 = SURFACE_STYLE_FILL_AREA ( #44 ) ;
#159 = EDGE_LOOP ( 'NONE', ( #230, #113, #103, #257 ) ) ;
#160 = VERTEX_POINT ( 'NONE', #263 ) ;
#161 = SURFACE_SIDE_STYLE ('',( #158 ) ) ;
#162 = APPLICATION_CONTEXT ( 'automotive_design' ) ;
#163 = CIRCLE ( 'NONE', #51, 0.1100000000000001948 ) ;
#164 = ORIENTED_EDGE ( 'NONE', *, *, #122, .F. ) ;
#165 = CARTESIAN_POINT ( 'NONE',  ( 0.0000000000000000000, 0.0000000000000000000, 2.500000000000000000 ) ) ;
#166 = ADVANCED_FACE ( 'NONE', ( #29 ), #18, .T. ) ;
#167 = DIRECTION ( 'NONE',  ( 0.0000000000000000000, 1.000000000000000000, 0.0000000000000000000 ) ) ;
#168 = FACE_OUTER_BOUND ( 'NONE', #290, .T. ) ;
#169 = CARTESIAN_POINT ( 'NONE',  ( 9.184850993605150903E-17, 0.0000000000000000000, 0.7500000000000001110 ) ) ;
#170 = CARTESIAN_POINT ( 'NONE',  ( -0.1248749999999999166, 1.530043094684724646E-17, 0.7500000000000001110 ) ) ;
#171 = DIRECTION ( 'NONE',  ( 1.000000000000000000, 0.0000000000000000000, 0.0000000000000000000 ) ) ;
#172 = VECTOR ( 'NONE', #8, 39.37007874015748143 ) ;
#173 = AXIS2_PLACEMENT_3D ( 'NONE', #82, #315, #129 ) ;
#174 = DIRECTION ( 'NONE',  ( -0.0000000000000000000, -0.0000000000000000000, -1.000000000000000000 ) ) ;
#175 = ADVANCED_FACE ( 'NONE', ( #168 ), #115, .T. ) ;
#176 = CONICAL_SURFACE ( 'NONE', #70, 0.1100000000000001948, 0.7853981633974517207 ) ;
#177 = CARTESIAN_POINT ( 'NONE',  ( 2.293916535652885904E-17, 0.0000000000000000000, 0.0000000000000000000 ) ) ;
#178 = VECTOR ( 'NONE', #57, 39.37007874015748143 ) ;
#179 = DIRECTION ( 'NONE',  ( 0.0000000000000000000, 0.0000000000000000000, -1.000000000000000000 ) ) ;
#180 = PRESENTATION_STYLE_ASSIGNMENT (( #131 ) ) ;
#181 = EDGE_CURVE ( 'NONE', #252, #5, #106, .T. ) ;
#182 = UNCERTAINTY_MEASURE_WITH_UNIT (LENGTH_MEASURE( 1.000000000000000082E-05 ), #321, 'distance_accuracy_value', 'NONE');
#183 = FILL_AREA_STYLE_COLOUR ( '', #218 ) ;
#184 = FACE_OUTER_BOUND ( 'NONE', #275, .T. ) ;
#185 = PRODUCT ( 'Micro_BEM-250-04X', 'Micro_BEM-250-04X', '', ( #324 ) ) ;
#186 = EDGE_CURVE ( 'NONE', #68, #207, #239, .T. ) ;
#187 = PRODUCT_DEFINITION_FORMATION_WITH_SPECIFIED_SOURCE ( 'ANY', '', #185, .NOT_KNOWN. ) ;
#188 = CARTESIAN_POINT ( 'NONE',  ( 0.1248749999999999999, 1.529277690435257475E-17, -1.529277690435257475E-17 ) ) ;
#189 = CARTESIAN_POINT ( 'NONE',  ( 9.193532640014472135E-17, 0.0000000000000000000, 0.7507089102274522308 ) ) ;
#190 = EDGE_LOOP ( 'NONE', ( #142, #276, #73, #300 ) ) ;
#191 = DIRECTION ( 'NONE',  ( 1.224646799147353207E-16, 1.000000000000000000, -0.0000000000000000000 ) ) ;
#192 = CARTESIAN_POINT ( 'NONE',  ( 9.193532640014472135E-17, 0.0000000000000000000, 0.7507089102274522308 ) ) ;
#193 = CIRCLE ( 'NONE', #87, 0.1248749999999999999 ) ;
#194 = DIRECTION ( 'NONE',  ( -1.000000000000000000, 1.224646799147353454E-16, 0.0000000000000000000 ) ) ;
#195 = LINE ( 'NONE', #188, #278 ) ;
#196 = ORIENTED_EDGE ( 'NONE', *, *, #181, .F. ) ;
#197 = CARTESIAN_POINT ( 'NONE',  ( -0.1248749999999999860, 0.0000000000000000000, 0.1248750000000000276 ) ) ;
#198 = EDGE_CURVE ( 'NONE', #139, #247, #163, .T. ) ;
#199 = DIRECTION ( 'NONE',  ( 0.0000000000000000000, 0.0000000000000000000, -1.000000000000000000 ) ) ;
#200 = LINE ( 'NONE', #67, #138 ) ;
#201 = AXIS2_PLACEMENT_3D ( 'NONE', #261, #61, #219 ) ;
#202 = CARTESIAN_POINT ( 'NONE',  ( 0.0000000000000000000, 0.0000000000000000000, 2.500000000000000000 ) ) ;
#203 = EDGE_CURVE ( 'NONE', #205, #212, #31, .T. ) ;
#204 = DIRECTION ( 'NONE',  ( -1.224646799147353207E-16, -0.0000000000000000000, -1.000000000000000000 ) ) ;
#205 = VERTEX_POINT ( 'NONE', #304 ) ;
#206 = ADVANCED_FACE ( 'NONE', ( #28 ), #7, .T. ) ;
#207 = VERTEX_POINT ( 'NONE', #238 ) ;
#208 = EDGE_CURVE ( 'NONE', #139, #205, #200, .T. ) ;
#209 = CARTESIAN_POINT ( 'NONE',  ( -0.1100000000000001948, 0.0000000000000000000, 2.500000000000000000 ) ) ;
#210 = VECTOR ( 'NONE', #259, 39.37007874015748143 ) ;
#211 = AXIS2_PLACEMENT_3D ( 'NONE', #294, #174, #267 ) ;
#212 = VERTEX_POINT ( 'NONE', #15 ) ;
#213 = CARTESIAN_POINT ( 'NONE',  ( 1.529277690435257475E-17, 0.0000000000000000000, 0.1248749999999999999 ) ) ;
#214 = DIRECTION ( 'NONE',  ( -0.1736481776669312749, 2.126576849575784241E-17, 0.9848077530122077983 ) ) ;
#215 = CARTESIAN_POINT ( 'NONE',  ( 1.529277690435257475E-17, 0.0000000000000000000, 0.1248749999999999999 ) ) ;
#216 = DIRECTION ( 'NONE',  ( -1.000000000000000000, 0.0000000000000000000, 0.0000000000000000000 ) ) ;
#217 = LINE ( 'NONE', #308, #210 ) ;
#218 = COLOUR_RGB ( '',0.7921568627450980005, 0.8196078431372548767, 0.9333333333333333481 ) ;
#219 = DIRECTION ( 'NONE',  ( 1.000000000000000000, 0.0000000000000000000, 0.0000000000000000000 ) ) ;
#220 = CYLINDRICAL_SURFACE ( 'NONE', #211, 0.1250000000000000000 ) ;
#221 = FACE_OUTER_BOUND ( 'NONE', #305, .T. ) ;
#222 = LENGTH_MEASURE_WITH_UNIT ( LENGTH_MEASURE( 0.02539999999999999897 ), #223 );
#223 =( LENGTH_UNIT ( ) NAMED_UNIT ( * ) SI_UNIT ( $, .METRE. ) );
#224 = EDGE_CURVE ( 'NONE', #212, #205, #96, .T. ) ;
#225 = DIRECTION ( 'NONE',  ( 1.000000000000000000, 0.0000000000000000000, 0.0000000000000000000 ) ) ;
#226 = AXIS2_PLACEMENT_3D ( 'NONE', #111, #167, #235 ) ;
#227 = LENGTH_MEASURE_WITH_UNIT ( LENGTH_MEASURE( 0.02539999999999999897 ), #99 );
#228 = ORIENTED_EDGE ( 'NONE', *, *, #122, .T. ) ;
#229 = ORIENTED_EDGE ( 'NONE', *, *, #93, .T. ) ;
#230 = ORIENTED_EDGE ( 'NONE', *, *, #186, .F. ) ;
#231 =( NAMED_UNIT ( * ) PLANE_ANGLE_UNIT ( ) SI_UNIT ( $, .RADIAN. ) );
#232 = ORIENTED_EDGE ( 'NONE', *, *, #104, .T. ) ;
#233 = APPLICATION_PROTOCOL_DEFINITION ( 'draft international standard', 'automotive_design', 1998, #6 ) ;
#234 = ORIENTED_EDGE ( 'NONE', *, *, #147, .T. ) ;
#235 = DIRECTION ( 'NONE',  ( 1.000000000000000000, 0.0000000000000000000, 0.0000000000000000000 ) ) ;
#236 = ORIENTED_EDGE ( 'NONE', *, *, #157, .T. ) ;
#237 = CARTESIAN_POINT ( 'NONE',  ( -0.1248749999999999999, 0.0000000000000000000, 1.529277690435257475E-17 ) ) ;
#238 = CARTESIAN_POINT ( 'NONE',  ( -0.1249999999999999167, 0.0000000000000000000, 0.7507089102274522308 ) ) ;
#239 = LINE ( 'NONE', #311, #63 ) ;
#240 = ADVANCED_FACE ( 'NONE', ( #292 ), #303, .T. ) ;
#241 = DIRECTION ( 'NONE',  ( 1.000000000000000000, 0.0000000000000000000, 0.0000000000000000000 ) ) ;
#242 = AXIS2_PLACEMENT_3D ( 'NONE', #312, #199, #38 ) ;
#243 = CARTESIAN_POINT ( 'NONE',  ( 0.1100000000000001948, 1.438959988998141146E-17, 2.500000000000000000 ) ) ;
#244 = CARTESIAN_POINT ( 'NONE',  ( 0.0000000000000000000, 0.0000000000000000000, 0.0000000000000000000 ) ) ;
#245 = CARTESIAN_POINT ( 'NONE',  ( 0.0000000000000000000, 0.0000000000000000000, 0.0000000000000000000 ) ) ;
#246 = DIMENSIONAL_EXPONENTS ( 1.000000000000000000, 0.0000000000000000000, 0.0000000000000000000, 0.0000000000000000000, 0.0000000000000000000, 0.0000000000000000000, 0.0000000000000000000 ) ;
#247 = VERTEX_POINT ( 'NONE', #243 ) ;
#248 = AXIS2_PLACEMENT_3D ( 'NONE', #325, #77, #216 ) ;
#249 = AXIS2_PLACEMENT_3D ( 'NONE', #245, #204, #296 ) ;
#250 = ADVANCED_FACE ( 'NONE', ( #125 ), #256, .T. ) ;
#251 = VERTEX_POINT ( 'NONE', #177 ) ;
#252 = VERTEX_POINT ( 'NONE', #197 ) ;
#253 = EDGE_LOOP ( 'NONE', ( #121, #48, #40, #302 ) ) ;
#254 = VERTEX_POINT ( 'NONE', #291 ) ;
#255 =( GEOMETRIC_REPRESENTATION_CONTEXT ( 3 ) GLOBAL_UNCERTAINTY_ASSIGNED_CONTEXT ( ( #182 ) ) GLOBAL_UNIT_ASSIGNED_CONTEXT ( ( #321, #231, #102 ) ) REPRESENTATION_CONTEXT ( 'NONE', 'WORKASPACE' ) );
#256 = CONICAL_SURFACE ( 'NONE', #23, 0.1248749999999999999, 0.1745329251994340025 ) ;
#257 = ORIENTED_EDGE ( 'NONE', *, *, #117, .T. ) ;
#258 = ORIENTED_EDGE ( 'NONE', *, *, #93, .F. ) ;
#259 = DIRECTION ( 'NONE',  ( -0.0000000000000000000, -0.0000000000000000000, -1.000000000000000000 ) ) ;
#260 = DIRECTION ( 'NONE',  ( -1.000000000000000000, 0.0000000000000000000, 1.367291288120251888E-16 ) ) ;
#261 = CARTESIAN_POINT ( 'NONE',  ( 9.184850993605150903E-17, 0.0000000000000000000, 0.7500000000000001110 ) ) ;
#262 = DIRECTION ( 'NONE',  ( -1.000000000000000000, 0.0000000000000000000, 0.0000000000000000000 ) ) ;
#263 = CARTESIAN_POINT ( 'NONE',  ( 0.1248750000000000970, 0.0000000000000000000, 0.7500000000000001110 ) ) ;
#264 = DIRECTION ( 'NONE',  ( -0.7071067811865499042, 0.0000000000000000000, -0.7071067811865451302 ) ) ;
#265 = AXIS2_PLACEMENT_3D ( 'NONE', #215, #307, #260 ) ;
#266 = ADVANCED_FACE ( 'NONE', ( #221 ), #220, .T. ) ;
#267 = DIRECTION ( 'NONE',  ( -1.000000000000000000, 0.0000000000000000000, 0.0000000000000000000 ) ) ;
#268 = ORIENTED_EDGE ( 'NONE', *, *, #78, .F. ) ;
#269 =( NAMED_UNIT ( * ) PLANE_ANGLE_UNIT ( ) SI_UNIT ( $, .RADIAN. ) );
#270 = DIRECTION ( 'NONE',  ( 1.000000000000000000, 0.0000000000000000000, 0.0000000000000000000 ) ) ;
#271 = ADVANCED_BREP_SHAPE_REPRESENTATION ( 'Micro_BEM-250-04X', ( #273, #119 ), #272 ) ;
#272 =( GEOMETRIC_REPRESENTATION_CONTEXT ( 3 ) GLOBAL_UNCERTAINTY_ASSIGNED_CONTEXT ( ( #27 ) ) GLOBAL_UNIT_ASSIGNED_CONTEXT ( ( #156, #39, #75 ) ) REPRESENTATION_CONTEXT ( 'NONE', 'WORKASPACE' ) );
#273 = MANIFOLD_SOLID_BREP ( 'Fillet1', #130 ) ;
#274 = CARTESIAN_POINT ( 'NONE',  ( 9.184850993605150903E-17, 0.0000000000000000000, 0.7500000000000001110 ) ) ;
#275 = EDGE_LOOP ( 'NONE', ( #258, #232, #299, #279 ) ) ;
#276 = ORIENTED_EDGE ( 'NONE', *, *, #186, .T. ) ;
#277 = ORIENTED_EDGE ( 'NONE', *, *, #117, .F. ) ;
#278 = VECTOR ( 'NONE', #281, 39.37007874015748143 ) ;
#279 = ORIENTED_EDGE ( 'NONE', *, *, #208, .F. ) ;
#280 = AXIS2_PLACEMENT_3D ( 'NONE', #91, #149, #54 ) ;
#281 = DIRECTION ( 'NONE',  ( -1.224646799147353207E-16, -0.0000000000000000000, -1.000000000000000000 ) ) ;
#282 = DIRECTION ( 'NONE',  ( 1.000000000000000000, 0.0000000000000000000, 0.0000000000000000000 ) ) ;
#283 = CYLINDRICAL_SURFACE ( 'NONE', #248, 0.1250000000000000000 ) ;
#284 = FACE_OUTER_BOUND ( 'NONE', #80, .T. ) ;
#285 = CIRCLE ( 'NONE', #81, 0.1248749999999999999 ) ;
#286 = DIRECTION ( 'NONE',  ( 0.0000000000000000000, -1.000000000000000000, 0.0000000000000000000 ) ) ;
#287 = CARTESIAN_POINT ( 'NONE',  ( 0.0000000000000000000, 0.0000000000000000000, 2.485000000000000320 ) ) ;
#288 = ORIENTED_EDGE ( 'NONE', *, *, #224, .T. ) ;
#289 = CIRCLE ( 'NONE', #88, 0.1248749999999999999 ) ;
#290 = EDGE_LOOP ( 'NONE', ( #110, #228, #196 ) ) ;
#291 = CARTESIAN_POINT ( 'NONE',  ( 0.1250000000000000833, 1.530808498934192433E-17, 0.7507089102274522308 ) ) ;
#292 = FACE_OUTER_BOUND ( 'NONE', #253, .T. ) ;
#293 = DIRECTION ( 'NONE',  ( 1.000000000000000000, 0.0000000000000000000, 0.0000000000000000000 ) ) ;
#294 = CARTESIAN_POINT ( 'NONE',  ( 0.0000000000000000000, 0.0000000000000000000, 2.500000000000000000 ) ) ;
#295 = CIRCLE ( 'NONE', #11, 0.1248749999999999999 ) ;
#296 = DIRECTION ( 'NONE',  ( -1.000000000000000000, 0.0000000000000000000, 1.224646799147353454E-16 ) ) ;
#297 = SHAPE_DEFINITION_REPRESENTATION ( #13, #271 ) ;
#298 = CARTESIAN_POINT ( 'NONE',  ( 0.1250000000000000000, 1.530808498934191509E-17, 2.500000000000000000 ) ) ;
#299 = ORIENTED_EDGE ( 'NONE', *, *, #203, .F. ) ;
#300 = ORIENTED_EDGE ( 'NONE', *, *, #137, .F. ) ;
#301 = ORIENTED_EDGE ( 'NONE', *, *, #33, .F. ) ;
#302 = ORIENTED_EDGE ( 'NONE', *, *, #224, .F. ) ;
#303 = CONICAL_SURFACE ( 'NONE', #242, 0.1100000000000001948, 0.7853981633974517207 ) ;
#304 = CARTESIAN_POINT ( 'NONE',  ( -0.1250000000000000000, 0.0000000000000000000, 2.485000000000000320 ) ) ;
#305 = EDGE_LOOP ( 'NONE', ( #46, #34, #322, #313 ) ) ;
#306 = CARTESIAN_POINT ( 'NONE',  ( 0.0000000000000000000, 0.0000000000000000000, 2.500000000000000000 ) ) ;
#307 = DIRECTION ( 'NONE',  ( 1.224646799147353207E-16, 0.0000000000000000000, 1.000000000000000000 ) ) ;
#308 = CARTESIAN_POINT ( 'NONE',  ( -0.1250000000000000000, 0.0000000000000000000, 2.500000000000000000 ) ) ;
#309 =( GEOMETRIC_REPRESENTATION_CONTEXT ( 3 ) GLOBAL_UNCERTAINTY_ASSIGNED_CONTEXT ( ( #140 ) ) GLOBAL_UNIT_ASSIGNED_CONTEXT ( ( #32, #269, #36 ) ) REPRESENTATION_CONTEXT ( 'NONE', 'WORKASPACE' ) );
#310 = ADVANCED_FACE ( 'NONE', ( #317 ), #152, .T. ) ;
#311 = CARTESIAN_POINT ( 'NONE',  ( -0.1248749999999999166, 1.529277690435257475E-17, 0.7500000000000001110 ) ) ;
#312 = CARTESIAN_POINT ( 'NONE',  ( 0.0000000000000000000, 0.0000000000000000000, 2.500000000000000000 ) ) ;
#313 = ORIENTED_EDGE ( 'NONE', *, *, #108, .F. ) ;
#314 = STYLED_ITEM ( 'NONE', ( #30 ), #273 ) ;
#315 = DIRECTION ( 'NONE',  ( 0.0000000000000000000, 1.000000000000000000, 0.0000000000000000000 ) ) ;
#316 = EDGE_CURVE ( 'NONE', #160, #68, #289, .T. ) ;
#317 = FACE_OUTER_BOUND ( 'NONE', #20, .T. ) ;
#318 = CIRCLE ( 'NONE', #132, 0.1100000000000001948 ) ;
#319 = COLOUR_RGB ( '',0.7921568627450980005, 0.8196078431372548767, 0.9333333333333333481 ) ;
#320 = ADVANCED_FACE ( 'NONE', ( #153 ), #127, .T. ) ;
#321 =( CONVERSION_BASED_UNIT ( 'INCH', #49 ) LENGTH_UNIT ( ) NAMED_UNIT ( #35 ) );
#322 = ORIENTED_EDGE ( 'NONE', *, *, #59, .F. ) ;
#323 = ORIENTED_EDGE ( 'NONE', *, *, #108, .T. ) ;
#324 = PRODUCT_CONTEXT ( 'NONE', #6, 'mechanical' ) ;
#325 = CARTESIAN_POINT ( 'NONE',  ( 0.0000000000000000000, 0.0000000000000000000, 2.500000000000000000 ) ) ;
ENDSEC;
END-ISO-10303-21;
